ISO-10303-21;
HEADER;
FILE_DESCRIPTION (( 'STEP AP214' ),
    '1' );
FILE_NAME ('59720.STEP',
    '2023-07-24T15:54:31',
    ( '' ),
    ( '' ),
    'SwSTEP 2.0',
    'SolidWorks 2023',
    '' );
FILE_SCHEMA (( 'AUTOMOTIVE_DESIGN' ));
ENDSEC;

DATA;
#1 = VERTEX_POINT ( 'NONE', #196 ) ;
#2 = AXIS2_PLACEMENT_3D ( 'NONE', #254, #214, #55 ) ;
#3 = SURFACE_SIDE_STYLE ('',( #108 ) ) ;
#4 = CARTESIAN_POINT ( 'NONE',  ( 1.224646799147353256E-15, 0.000000000000000000, 10.00000000000000000 ) ) ;
#5 = SURFACE_STYLE_USAGE ( .BOTH. , #225 ) ;
#6 = AXIS2_PLACEMENT_3D ( 'NONE', #30, #93, #238 ) ;
#7 = DIRECTION ( 'NONE',  ( 1.000000000000000000, 2.905941557298802612E-17, 0.000000000000000000 ) ) ;
#8 = ORIENTED_EDGE ( 'NONE', *, *, #192, .F. ) ;
#9 = SURFACE_SIDE_STYLE ('',( #140 ) ) ;
#10 = ORIENTED_EDGE ( 'NONE', *, *, #173, .T. ) ;
#11 = STYLED_ITEM ( 'NONE', ( #135 ), #138 ) ;
#12 = CYLINDRICAL_SURFACE ( 'NONE', #272, 10.00000000000000000 ) ;
#13 = CARTESIAN_POINT ( 'NONE',  ( 0.000000000000000000, 30.00000000000000000, 0.000000000000000000 ) ) ;
#14 = SURFACE_STYLE_FILL_AREA ( #218 ) ;
#15 = APPLICATION_PROTOCOL_DEFINITION ( 'draft international standard', 'automotive_design', 1998, #171 ) ;
#16 = STYLED_ITEM ( 'NONE', ( #52 ), #227 ) ;
#17 = PRESENTATION_STYLE_ASSIGNMENT (( #63 ) ) ;
#18 = APPLICATION_PROTOCOL_DEFINITION ( 'draft international standard', 'automotive_design', 1998, #158 ) ;
#19 = DIRECTION ( 'NONE',  ( 0.000000000000000000, 0.000000000000000000, -1.000000000000000000 ) ) ;
#20 = ADVANCED_FACE ( 'NONE', ( #247 ), #83, .F. ) ;
#21 = PRESENTATION_LAYER_ASSIGNMENT (  '', '', ( #16 ) ) ;
#22 = CARTESIAN_POINT ( 'NONE',  ( 0.000000000000000000, 30.00000000000000000, 0.000000000000000000 ) ) ;
#23 = ADVANCED_BREP_SHAPE_REPRESENTATION ( '59720', ( #138, #47, #40 ), #98 ) ;
#24 = DIRECTION ( 'NONE',  ( -0.000000000000000000, -1.000000000000000000, -0.000000000000000000 ) ) ;
#25 = DIRECTION ( 'NONE',  ( 2.905941557298802612E-17, -1.000000000000000000, 0.000000000000000000 ) ) ;
#26 = PRESENTATION_LAYER_ASSIGNMENT (  '', '', ( #110 ) ) ;
#27 = FACE_OUTER_BOUND ( 'NONE', #212, .T. ) ;
#28 = CARTESIAN_POINT ( 'NONE',  ( 1.224646799147353256E-15, 0.000000000000000000, 10.00000000000000000 ) ) ;
#29 = MECHANICAL_DESIGN_GEOMETRIC_PRESENTATION_REPRESENTATION (  '', ( #278 ), #178 ) ;
#30 = CARTESIAN_POINT ( 'NONE',  ( 0.000000000000000000, 30.00000000000000000, 0.000000000000000000 ) ) ;
#31 = FACE_OUTER_BOUND ( 'NONE', #281, .T. ) ;
#32 = DIRECTION ( 'NONE',  ( -0.000000000000000000, -1.000000000000000000, -0.000000000000000000 ) ) ;
#33 = PRODUCT_RELATED_PRODUCT_CATEGORY ( 'part', '', ( #128 ) ) ;
#34 = AXIS2_PLACEMENT_3D ( 'NONE', #180, #50, #251 ) ;
#35 =( NAMED_UNIT ( * ) SI_UNIT ( $, .STERADIAN. ) SOLID_ANGLE_UNIT ( ) );
#36 = DIRECTION ( 'NONE',  ( -0.000000000000000000, -1.000000000000000000, -0.000000000000000000 ) ) ;
#37 = FILL_AREA_STYLE ('',( #243 ) ) ;
#38 = MECHANICAL_DESIGN_GEOMETRIC_PRESENTATION_REPRESENTATION (  '', ( #203 ), #215 ) ;
#39 = AXIS2_PLACEMENT_3D ( 'NONE', #209, #161, #121 ) ;
#40 = AXIS2_PLACEMENT_3D ( 'NONE', #244, #101, #150 ) ;
#41 = ORIENTED_EDGE ( 'NONE', *, *, #173, .F. ) ;
#42 = ADVANCED_FACE ( 'NONE', ( #266 ), #100, .T. ) ;
#43 = FILL_AREA_STYLE_COLOUR ( '', #258 ) ;
#44 = PRESENTATION_LAYER_ASSIGNMENT (  '', '', ( #203 ) ) ;
#45 = AXIS2_PLACEMENT_3D ( 'NONE', #162, #170, #132 ) ;
#46 = EDGE_CURVE ( 'NONE', #183, #122, #250, .T. ) ;
#47 = MANIFOLD_SOLID_BREP ( 'Revolve - Tool Body (Straight Shanked)', #188 ) ;
#48 = UNCERTAINTY_MEASURE_WITH_UNIT (LENGTH_MEASURE( 1.000000000000000082E-05 ), #179, 'distance_accuracy_value', 'NONE');
#49 = DIRECTION ( 'NONE',  ( -1.000000000000000000, 0.000000000000000000, 0.000000000000000000 ) ) ;
#50 = DIRECTION ( 'NONE',  ( 0.000000000000000000, -1.000000000000000000, -0.000000000000000000 ) ) ;
#51 = CIRCLE ( 'NONE', #2, 10.00000000000000178 ) ;
#52 = PRESENTATION_STYLE_ASSIGNMENT (( #70 ) ) ;
#53 = DIRECTION ( 'NONE',  ( -2.905941557298802612E-17, 1.000000000000000000, -0.000000000000000000 ) ) ;
#54 = ORIENTED_EDGE ( 'NONE', *, *, #112, .F. ) ;
#55 = DIRECTION ( 'NONE',  ( -1.000000000000000000, 0.000000000000000000, 0.000000000000000000 ) ) ;
#56 = VERTEX_POINT ( 'NONE', #149 ) ;
#57 =( NAMED_UNIT ( * ) PLANE_ANGLE_UNIT ( ) SI_UNIT ( $, .RADIAN. ) );
#58 = EDGE_LOOP ( 'NONE', ( #234, #113, #195, #216 ) ) ;
#59 = MECHANICAL_DESIGN_GEOMETRIC_PRESENTATION_REPRESENTATION (  '', ( #16 ), #235 ) ;
#60 = DIRECTION ( 'NONE',  ( -1.000000000000000000, 0.000000000000000000, 0.000000000000000000 ) ) ;
#61 = PRESENTATION_STYLE_ASSIGNMENT (( #75 ) ) ;
#62 = ORIENTED_EDGE ( 'NONE', *, *, #136, .F. ) ;
#63 = SURFACE_STYLE_USAGE ( .BOTH. , #107 ) ;
#64 = ADVANCED_FACE ( 'NONE', ( #191 ), #245, .T. ) ;
#65 = VERTEX_POINT ( 'NONE', #137 ) ;
#66 = PRESENTATION_STYLE_ASSIGNMENT (( #5 ) ) ;
#67 = FILL_AREA_STYLE_COLOUR ( '', #246 ) ;
#68 = FILL_AREA_STYLE ('',( #67 ) ) ;
#69 = PLANE ( 'NONE',  #204 ) ;
#70 = SURFACE_STYLE_USAGE ( .BOTH. , #120 ) ;
#71 = PRESENTATION_LAYER_ASSIGNMENT (  '', '', ( #201 ) ) ;
#72 =( NAMED_UNIT ( * ) PLANE_ANGLE_UNIT ( ) SI_UNIT ( $, .RADIAN. ) );
#73 = DIRECTION ( 'NONE',  ( 0.000000000000000000, 0.000000000000000000, -1.000000000000000000 ) ) ;
#74 = MECHANICAL_DESIGN_GEOMETRIC_PRESENTATION_REPRESENTATION (  '', ( #110 ), #276 ) ;
#75 = SURFACE_STYLE_USAGE ( .BOTH. , #284 ) ;
#76 = UNCERTAINTY_MEASURE_WITH_UNIT (LENGTH_MEASURE( 1.000000000000000082E-05 ), #154, 'distance_accuracy_value', 'NONE');
#77 = CIRCLE ( 'NONE', #39, 10.00000000000000178 ) ;
#78 = LINE ( 'NONE', #219, #268 ) ;
#79 = AXIS2_PLACEMENT_3D ( 'NONE', #198, #224, #60 ) ;
#80 = VERTEX_POINT ( 'NONE', #269 ) ;
#81 = CARTESIAN_POINT ( 'NONE',  ( 4.222248167218096493E-33, 30.00000000000000000, 0.000000000000000000 ) ) ;
#82 = ADVANCED_FACE ( 'NONE', ( #111 ), #231, .F. ) ;
#83 = PLANE ( 'NONE',  #146 ) ;
#84 = DIRECTION ( 'NONE',  ( -1.000000000000000000, -2.905941557298802612E-17, 0.000000000000000000 ) ) ;
#85 = SURFACE_STYLE_USAGE ( .BOTH. , #3 ) ;
#86 =( GEOMETRIC_REPRESENTATION_CONTEXT ( 3 ) GLOBAL_UNCERTAINTY_ASSIGNED_CONTEXT ( ( #48 ) ) GLOBAL_UNIT_ASSIGNED_CONTEXT ( ( #179, #87, #153 ) ) REPRESENTATION_CONTEXT ( 'NONE', 'WORKASPACE' ) );
#87 =( NAMED_UNIT ( * ) PLANE_ANGLE_UNIT ( ) SI_UNIT ( $, .RADIAN. ) );
#88 = COLOUR_RGB ( '',1.000000000000000000, 0.000000000000000000, 0.000000000000000000 ) ;
#89 = SURFACE_STYLE_FILL_AREA ( #68 ) ;
#90 =( NAMED_UNIT ( * ) SI_UNIT ( $, .STERADIAN. ) SOLID_ANGLE_UNIT ( ) );
#91 = VECTOR ( 'NONE', #53, 1000.000000000000000 ) ;
#92 = ORIENTED_EDGE ( 'NONE', *, *, #187, .T. ) ;
#93 = DIRECTION ( 'NONE',  ( -2.905941557298803228E-17, 1.000000000000000000, -0.000000000000000000 ) ) ;
#94 = EDGE_LOOP ( 'NONE', ( #190, #152 ) ) ;
#95 = ORIENTED_EDGE ( 'NONE', *, *, #232, .F. ) ;
#96 = CARTESIAN_POINT ( 'NONE',  ( 0.000000000000000000, 0.000000000000000000, -10.00000000000000000 ) ) ;
#97 = AXIS2_PLACEMENT_3D ( 'NONE', #285, #36, #167 ) ;
#98 =( GEOMETRIC_REPRESENTATION_CONTEXT ( 3 ) GLOBAL_UNCERTAINTY_ASSIGNED_CONTEXT ( ( #282 ) ) GLOBAL_UNIT_ASSIGNED_CONTEXT ( ( #221, #57, #264 ) ) REPRESENTATION_CONTEXT ( 'NONE', 'WORKASPACE' ) );
#99 = SURFACE_STYLE_FILL_AREA ( #273 ) ;
#100 = CYLINDRICAL_SURFACE ( 'NONE', #79, 10.00000000000000178 ) ;
#101 = DIRECTION ( 'NONE',  ( 0.000000000000000000, 0.000000000000000000, 1.000000000000000000 ) ) ;
#102 =( LENGTH_UNIT ( ) NAMED_UNIT ( * ) SI_UNIT ( .MILLI., .METRE. ) );
#103 = AXIS2_PLACEMENT_3D ( 'NONE', #151, #194, #130 ) ;
#104 = PRODUCT_DEFINITION_FORMATION_WITH_SPECIFIED_SOURCE ( 'ANY', '', #128, .NOT_KNOWN. ) ;
#105 = ORIENTED_EDGE ( 'NONE', *, *, #46, .T. ) ;
#106 =( NAMED_UNIT ( * ) PLANE_ANGLE_UNIT ( ) SI_UNIT ( $, .RADIAN. ) );
#107 = SURFACE_SIDE_STYLE ('',( #287 ) ) ;
#108 = SURFACE_STYLE_FILL_AREA ( #134 ) ;
#109 = UNCERTAINTY_MEASURE_WITH_UNIT (LENGTH_MEASURE( 1.000000000000000082E-05 ), #131, 'distance_accuracy_value', 'NONE');
#110 = STYLED_ITEM ( 'NONE', ( #211 ), #202 ) ;
#111 = FACE_OUTER_BOUND ( 'NONE', #94, .T. ) ;
#112 = EDGE_CURVE ( 'NONE', #133, #183, #271, .T. ) ;
#113 = ORIENTED_EDGE ( 'NONE', *, *, #136, .T. ) ;
#114 = DIRECTION ( 'NONE',  ( 0.000000000000000000, 0.000000000000000000, -1.000000000000000000 ) ) ;
#115 = AXIS2_PLACEMENT_3D ( 'NONE', #13, #197, #265 ) ;
#116 = ORIENTED_EDGE ( 'NONE', *, *, #274, .T. ) ;
#117 = AXIS2_PLACEMENT_3D ( 'NONE', #169, #200, #19 ) ;
#118 = FILL_AREA_STYLE_COLOUR ( '', #181 ) ;
#119 = ORIENTED_EDGE ( 'NONE', *, *, #199, .T. ) ;
#120 = SURFACE_SIDE_STYLE ('',( #99 ) ) ;
#121 = DIRECTION ( 'NONE',  ( -1.000000000000000000, 0.000000000000000000, 0.000000000000000000 ) ) ;
#122 = VERTEX_POINT ( 'NONE', #205 ) ;
#123 = ADVANCED_FACE ( 'NONE', ( #27 ), #69, .T. ) ;
#124 = ORIENTED_EDGE ( 'NONE', *, *, #46, .F. ) ;
#125 = UNCERTAINTY_MEASURE_WITH_UNIT (LENGTH_MEASURE( 1.000000000000000082E-05 ), #189, 'distance_accuracy_value', 'NONE');
#126 = CYLINDRICAL_SURFACE ( 'NONE', #103, 10.00000000000000178 ) ;
#127 = FILL_AREA_STYLE_COLOUR ( '', #88 ) ;
#128 = PRODUCT ( '59720', '59720', '', ( #148 ) ) ;
#129 = PRESENTATION_LAYER_ASSIGNMENT (  '', '', ( #11 ) ) ;
#130 = DIRECTION ( 'NONE',  ( -1.000000000000000000, 0.000000000000000000, 0.000000000000000000 ) ) ;
#131 =( LENGTH_UNIT ( ) NAMED_UNIT ( * ) SI_UNIT ( .MILLI., .METRE. ) );
#132 = DIRECTION ( 'NONE',  ( 0.000000000000000000, 0.000000000000000000, -1.000000000000000000 ) ) ;
#133 = VERTEX_POINT ( 'NONE', #229 ) ;
#134 = FILL_AREA_STYLE ('',( #43 ) ) ;
#135 = PRESENTATION_STYLE_ASSIGNMENT (( #85 ) ) ;
#136 = EDGE_CURVE ( 'NONE', #237, #1, #255, .T. ) ;
#137 = CARTESIAN_POINT ( 'NONE',  ( -10.00000000000000355, 89.00000000000000000, 0.000000000000000000 ) ) ;
#138 = MANIFOLD_SOLID_BREP ( 'Revolve - Cutting Edge', #242 ) ;
#139 = EDGE_CURVE ( 'NONE', #56, #65, #51, .T. ) ;
#140 = SURFACE_STYLE_FILL_AREA ( #182 ) ;
#141 = ORIENTED_EDGE ( 'NONE', *, *, #288, .F. ) ;
#142 = MECHANICAL_DESIGN_GEOMETRIC_PRESENTATION_REPRESENTATION (  '', ( #201 ), #86 ) ;
#143 = EDGE_LOOP ( 'NONE', ( #92, #147, #262, #41 ) ) ;
#144 = CARTESIAN_POINT ( 'NONE',  ( 10.00000000000000000, 89.00000000000000000, 1.224646799147353454E-15 ) ) ;
#145 = DIRECTION ( 'NONE',  ( -2.905941557298802612E-17, 1.000000000000000000, -0.000000000000000000 ) ) ;
#146 = AXIS2_PLACEMENT_3D ( 'NONE', #81, #267, #84 ) ;
#147 = ORIENTED_EDGE ( 'NONE', *, *, #112, .T. ) ;
#148 = PRODUCT_CONTEXT ( 'NONE', #158, 'mechanical' ) ;
#149 = CARTESIAN_POINT ( 'NONE',  ( 10.00000000000000000, 89.00000000000000000, 1.224646799147353454E-15 ) ) ;
#150 = DIRECTION ( 'NONE',  ( 1.000000000000000000, 0.000000000000000000, 0.000000000000000000 ) ) ;
#151 = CARTESIAN_POINT ( 'NONE',  ( -1.714505518806293849E-15, 89.00000000000000000, 0.000000000000000000 ) ) ;
#152 = ORIENTED_EDGE ( 'NONE', *, *, #139, .T. ) ;
#153 =( NAMED_UNIT ( * ) SI_UNIT ( $, .STERADIAN. ) SOLID_ANGLE_UNIT ( ) );
#154 =( LENGTH_UNIT ( ) NAMED_UNIT ( * ) SI_UNIT ( .MILLI., .METRE. ) );
#155 = AXIS2_PLACEMENT_3D ( 'NONE', #174, #25, #7 ) ;
#156 = PRESENTATION_LAYER_ASSIGNMENT (  '', '', ( #278 ) ) ;
#157 = CARTESIAN_POINT ( 'NONE',  ( 0.000000000000000000, 30.00000000000000000, 0.000000000000000000 ) ) ;
#158 = APPLICATION_CONTEXT ( 'automotive_design' ) ;
#159 = DIRECTION ( 'NONE',  ( 0.000000000000000000, 1.000000000000000000, 0.000000000000000000 ) ) ;
#160 = CIRCLE ( 'NONE', #6, 10.00000000000000000 ) ;
#161 = DIRECTION ( 'NONE',  ( -2.905941557298803228E-17, 1.000000000000000000, -0.000000000000000000 ) ) ;
#162 = CARTESIAN_POINT ( 'NONE',  ( 0.000000000000000000, 0.000000000000000000, 0.000000000000000000 ) ) ;
#163 = CYLINDRICAL_SURFACE ( 'NONE', #45, 10.00000000000000000 ) ;
#164 =( GEOMETRIC_REPRESENTATION_CONTEXT ( 3 ) GLOBAL_UNCERTAINTY_ASSIGNED_CONTEXT ( ( #76 ) ) GLOBAL_UNIT_ASSIGNED_CONTEXT ( ( #154, #228, #176 ) ) REPRESENTATION_CONTEXT ( 'NONE', 'WORKASPACE' ) );
#165 = CARTESIAN_POINT ( 'NONE',  ( 0.000000000000000000, 30.00000000000000000, 0.000000000000000000 ) ) ;
#166 = EDGE_CURVE ( 'NONE', #237, #56, #236, .T. ) ;
#167 = DIRECTION ( 'NONE',  ( 0.000000000000000000, 0.000000000000000000, -1.000000000000000000 ) ) ;
#168 = ORIENTED_EDGE ( 'NONE', *, *, #166, .T. ) ;
#169 = CARTESIAN_POINT ( 'NONE',  ( 0.000000000000000000, 0.000000000000000000, 0.000000000000000000 ) ) ;
#170 = DIRECTION ( 'NONE',  ( -0.000000000000000000, -1.000000000000000000, -0.000000000000000000 ) ) ;
#171 = APPLICATION_CONTEXT ( 'automotive_design' ) ;
#172 = EDGE_LOOP ( 'NONE', ( #260, #62 ) ) ;
#173 = EDGE_CURVE ( 'NONE', #80, #122, #259, .T. ) ;
#174 = CARTESIAN_POINT ( 'NONE',  ( 10.00000000000000000, 89.00000000000000000, 0.000000000000000000 ) ) ;
#175 = PRODUCT_DEFINITION ( 'UNKNOWN', '', #104, #263 ) ;
#176 =( NAMED_UNIT ( * ) SI_UNIT ( $, .STERADIAN. ) SOLID_ANGLE_UNIT ( ) );
#177 =( NAMED_UNIT ( * ) SI_UNIT ( $, .STERADIAN. ) SOLID_ANGLE_UNIT ( ) );
#178 =( GEOMETRIC_REPRESENTATION_CONTEXT ( 3 ) GLOBAL_UNCERTAINTY_ASSIGNED_CONTEXT ( ( #109 ) ) GLOBAL_UNIT_ASSIGNED_CONTEXT ( ( #131, #106, #35 ) ) REPRESENTATION_CONTEXT ( 'NONE', 'WORKASPACE' ) );
#179 =( LENGTH_UNIT ( ) NAMED_UNIT ( * ) SI_UNIT ( .MILLI., .METRE. ) );
#180 = CARTESIAN_POINT ( 'NONE',  ( 0.000000000000000000, 0.000000000000000000, 0.000000000000000000 ) ) ;
#181 = COLOUR_RGB ( '',1.000000000000000000, 0.000000000000000000, 0.000000000000000000 ) ;
#182 = FILL_AREA_STYLE ('',( #118 ) ) ;
#183 = VERTEX_POINT ( 'NONE', #28 ) ;
#184 =( NAMED_UNIT ( * ) SI_UNIT ( $, .STERADIAN. ) SOLID_ANGLE_UNIT ( ) );
#185 = EDGE_LOOP ( 'NONE', ( #119, #168, #8, #141 ) ) ;
#186 = FILL_AREA_STYLE_COLOUR ( '', #226 ) ;
#187 = EDGE_CURVE ( 'NONE', #80, #133, #286, .T. ) ;
#188 = CLOSED_SHELL ( 'NONE', ( #257, #20, #42, #82 ) ) ;
#189 =( LENGTH_UNIT ( ) NAMED_UNIT ( * ) SI_UNIT ( .MILLI., .METRE. ) );
#190 = ORIENTED_EDGE ( 'NONE', *, *, #192, .T. ) ;
#191 = FACE_OUTER_BOUND ( 'NONE', #222, .T. ) ;
#192 = EDGE_CURVE ( 'NONE', #65, #56, #77, .T. ) ;
#193 = UNCERTAINTY_MEASURE_WITH_UNIT (LENGTH_MEASURE( 1.000000000000000082E-05 ), #206, 'distance_accuracy_value', 'NONE');
#194 = DIRECTION ( 'NONE',  ( -2.905941557298803228E-17, 1.000000000000000000, -0.000000000000000000 ) ) ;
#195 = ORIENTED_EDGE ( 'NONE', *, *, #288, .T. ) ;
#196 = CARTESIAN_POINT ( 'NONE',  ( -10.00000000000000000, 30.00000000000000000, 0.000000000000000000 ) ) ;
#197 = DIRECTION ( 'NONE',  ( -0.000000000000000000, -1.000000000000000000, -0.000000000000000000 ) ) ;
#198 = CARTESIAN_POINT ( 'NONE',  ( -1.714505518806293849E-15, 89.00000000000000000, 0.000000000000000000 ) ) ;
#199 = EDGE_CURVE ( 'NONE', #1, #237, #160, .T. ) ;
#200 = DIRECTION ( 'NONE',  ( -0.000000000000000000, -1.000000000000000000, -0.000000000000000000 ) ) ;
#201 = STYLED_ITEM ( 'NONE', ( #66 ), #123 ) ;
#202 = ADVANCED_FACE ( 'NONE', ( #31 ), #12, .T. ) ;
#203 = STYLED_ITEM ( 'NONE', ( #61 ), #64 ) ;
#204 = AXIS2_PLACEMENT_3D ( 'NONE', #22, #159, #248 ) ;
#205 = CARTESIAN_POINT ( 'NONE',  ( 0.000000000000000000, 0.000000000000000000, -10.00000000000000000 ) ) ;
#206 =( LENGTH_UNIT ( ) NAMED_UNIT ( * ) SI_UNIT ( .MILLI., .METRE. ) );
#207 = ORIENTED_EDGE ( 'NONE', *, *, #187, .F. ) ;
#208 = AXIS2_PLACEMENT_3D ( 'NONE', #157, #252, #49 ) ;
#209 = CARTESIAN_POINT ( 'NONE',  ( -1.714505518806293849E-15, 89.00000000000000000, 0.000000000000000000 ) ) ;
#210 = ORIENTED_EDGE ( 'NONE', *, *, #232, .T. ) ;
#211 = PRESENTATION_STYLE_ASSIGNMENT (( #213 ) ) ;
#212 = EDGE_LOOP ( 'NONE', ( #207, #95 ) ) ;
#213 = SURFACE_STYLE_USAGE ( .BOTH. , #9 ) ;
#214 = DIRECTION ( 'NONE',  ( -2.905941557298803228E-17, 1.000000000000000000, -0.000000000000000000 ) ) ;
#215 =( GEOMETRIC_REPRESENTATION_CONTEXT ( 3 ) GLOBAL_UNCERTAINTY_ASSIGNED_CONTEXT ( ( #253 ) ) GLOBAL_UNIT_ASSIGNED_CONTEXT ( ( #102, #220, #177 ) ) REPRESENTATION_CONTEXT ( 'NONE', 'WORKASPACE' ) );
#216 = ORIENTED_EDGE ( 'NONE', *, *, #139, .F. ) ;
#217 = COLOUR_RGB ( '',0.7921568627450980005, 0.8196078431372548767, 0.9333333333333333481 ) ;
#218 = FILL_AREA_STYLE ('',( #127 ) ) ;
#219 = CARTESIAN_POINT ( 'NONE',  ( -10.00000000000000355, 89.00000000000000000, 0.000000000000000000 ) ) ;
#220 =( NAMED_UNIT ( * ) PLANE_ANGLE_UNIT ( ) SI_UNIT ( $, .RADIAN. ) );
#221 =( LENGTH_UNIT ( ) NAMED_UNIT ( * ) SI_UNIT ( .MILLI., .METRE. ) );
#222 = EDGE_LOOP ( 'NONE', ( #116, #105 ) ) ;
#223 = FACE_OUTER_BOUND ( 'NONE', #185, .T. ) ;
#224 = DIRECTION ( 'NONE',  ( -2.905941557298803228E-17, 1.000000000000000000, -0.000000000000000000 ) ) ;
#225 = SURFACE_SIDE_STYLE ('',( #89 ) ) ;
#226 = COLOUR_RGB ( '',1.000000000000000000, 0.000000000000000000, 0.000000000000000000 ) ;
#227 = ADVANCED_FACE ( 'NONE', ( #239 ), #163, .T. ) ;
#228 =( NAMED_UNIT ( * ) PLANE_ANGLE_UNIT ( ) SI_UNIT ( $, .RADIAN. ) );
#229 = CARTESIAN_POINT ( 'NONE',  ( 1.224646799147353256E-15, 30.00000000000000000, 10.00000000000000000 ) ) ;
#230 = VECTOR ( 'NONE', #275, 1000.000000000000000 ) ;
#231 = PLANE ( 'NONE',  #155 ) ;
#232 = EDGE_CURVE ( 'NONE', #133, #80, #249, .T. ) ;
#233 =( NAMED_UNIT ( * ) PLANE_ANGLE_UNIT ( ) SI_UNIT ( $, .RADIAN. ) );
#234 = ORIENTED_EDGE ( 'NONE', *, *, #166, .F. ) ;
#235 =( GEOMETRIC_REPRESENTATION_CONTEXT ( 3 ) GLOBAL_UNCERTAINTY_ASSIGNED_CONTEXT ( ( #193 ) ) GLOBAL_UNIT_ASSIGNED_CONTEXT ( ( #206, #72, #90 ) ) REPRESENTATION_CONTEXT ( 'NONE', 'WORKASPACE' ) );
#236 = LINE ( 'NONE', #144, #91 ) ;
#237 = VERTEX_POINT ( 'NONE', #279 ) ;
#238 = DIRECTION ( 'NONE',  ( -1.000000000000000000, 0.000000000000000000, 0.000000000000000000 ) ) ;
#239 = FACE_OUTER_BOUND ( 'NONE', #143, .T. ) ;
#240 = VECTOR ( 'NONE', #24, 1000.000000000000000 ) ;
#241 = MECHANICAL_DESIGN_GEOMETRIC_PRESENTATION_REPRESENTATION (  '', ( #11 ), #164 ) ;
#242 = CLOSED_SHELL ( 'NONE', ( #227, #123, #202, #64 ) ) ;
#243 = FILL_AREA_STYLE_COLOUR ( '', #217 ) ;
#244 = CARTESIAN_POINT ( 'NONE',  ( 0.000000000000000000, 0.000000000000000000, 0.000000000000000000 ) ) ;
#245 = PLANE ( 'NONE',  #34 ) ;
#246 = COLOUR_RGB ( '',1.000000000000000000, 0.000000000000000000, 0.000000000000000000 ) ;
#247 = FACE_OUTER_BOUND ( 'NONE', #172, .T. ) ;
#248 = DIRECTION ( 'NONE',  ( 0.000000000000000000, -0.000000000000000000, 1.000000000000000000 ) ) ;
#249 = CIRCLE ( 'NONE', #115, 10.00000000000000000 ) ;
#250 = CIRCLE ( 'NONE', #117, 10.00000000000000000 ) ;
#251 = DIRECTION ( 'NONE',  ( 0.000000000000000000, 0.000000000000000000, -1.000000000000000000 ) ) ;
#252 = DIRECTION ( 'NONE',  ( -2.905941557298803228E-17, 1.000000000000000000, -0.000000000000000000 ) ) ;
#253 = UNCERTAINTY_MEASURE_WITH_UNIT (LENGTH_MEASURE( 1.000000000000000082E-05 ), #102, 'distance_accuracy_value', 'NONE');
#254 = CARTESIAN_POINT ( 'NONE',  ( -1.714505518806293849E-15, 89.00000000000000000, 0.000000000000000000 ) ) ;
#255 = CIRCLE ( 'NONE', #208, 10.00000000000000000 ) ;
#256 = DIRECTION ( 'NONE',  ( -0.000000000000000000, -1.000000000000000000, -0.000000000000000000 ) ) ;
#257 = ADVANCED_FACE ( 'NONE', ( #223 ), #126, .T. ) ;
#258 = COLOUR_RGB ( '',0.7921568627450980005, 0.8196078431372548767, 0.9333333333333333481 ) ;
#259 = LINE ( 'NONE', #96, #230 ) ;
#260 = ORIENTED_EDGE ( 'NONE', *, *, #199, .F. ) ;
#261 = AXIS2_PLACEMENT_3D ( 'NONE', #165, #256, #114 ) ;
#262 = ORIENTED_EDGE ( 'NONE', *, *, #274, .F. ) ;
#263 = PRODUCT_DEFINITION_CONTEXT ( 'detailed design', #171, 'design' ) ;
#264 =( NAMED_UNIT ( * ) SI_UNIT ( $, .STERADIAN. ) SOLID_ANGLE_UNIT ( ) );
#265 = DIRECTION ( 'NONE',  ( 0.000000000000000000, 0.000000000000000000, -1.000000000000000000 ) ) ;
#266 = FACE_OUTER_BOUND ( 'NONE', #58, .T. ) ;
#267 = DIRECTION ( 'NONE',  ( -2.905941557298802612E-17, 1.000000000000000000, 0.000000000000000000 ) ) ;
#268 = VECTOR ( 'NONE', #145, 1000.000000000000000 ) ;
#269 = CARTESIAN_POINT ( 'NONE',  ( 0.000000000000000000, 30.00000000000000000, -10.00000000000000000 ) ) ;
#270 = CIRCLE ( 'NONE', #97, 10.00000000000000000 ) ;
#271 = LINE ( 'NONE', #4, #240 ) ;
#272 = AXIS2_PLACEMENT_3D ( 'NONE', #277, #32, #73 ) ;
#273 = FILL_AREA_STYLE ('',( #186 ) ) ;
#274 = EDGE_CURVE ( 'NONE', #122, #183, #270, .T. ) ;
#275 = DIRECTION ( 'NONE',  ( -0.000000000000000000, -1.000000000000000000, -0.000000000000000000 ) ) ;
#276 =( GEOMETRIC_REPRESENTATION_CONTEXT ( 3 ) GLOBAL_UNCERTAINTY_ASSIGNED_CONTEXT ( ( #125 ) ) GLOBAL_UNIT_ASSIGNED_CONTEXT ( ( #189, #233, #184 ) ) REPRESENTATION_CONTEXT ( 'NONE', 'WORKASPACE' ) );
#277 = CARTESIAN_POINT ( 'NONE',  ( 0.000000000000000000, 0.000000000000000000, 0.000000000000000000 ) ) ;
#278 = STYLED_ITEM ( 'NONE', ( #17 ), #47 ) ;
#279 = CARTESIAN_POINT ( 'NONE',  ( 10.00000000000000000, 30.00000000000000000, 1.224646799147353454E-15 ) ) ;
#280 = PRODUCT_DEFINITION_SHAPE ( 'NONE', 'NONE',  #175 ) ;
#281 = EDGE_LOOP ( 'NONE', ( #54, #210, #10, #124 ) ) ;
#282 = UNCERTAINTY_MEASURE_WITH_UNIT (LENGTH_MEASURE( 1.000000000000000082E-05 ), #221, 'distance_accuracy_value', 'NONE');
#283 = SHAPE_DEFINITION_REPRESENTATION ( #280, #23 ) ;
#284 = SURFACE_SIDE_STYLE ('',( #14 ) ) ;
#285 = CARTESIAN_POINT ( 'NONE',  ( 0.000000000000000000, 0.000000000000000000, 0.000000000000000000 ) ) ;
#286 = CIRCLE ( 'NONE', #261, 10.00000000000000000 ) ;
#287 = SURFACE_STYLE_FILL_AREA ( #37 ) ;
#288 = EDGE_CURVE ( 'NONE', #1, #65, #78, .T. ) ;
ENDSEC;
END-ISO-10303-21;
