ISO-10303-21;
HEADER;
FILE_DESCRIPTION (( 'STEP AP214' ),
    '1' );
FILE_NAME ('00750.STEP',
    '2023-06-22T14:15:24',
    ( '' ),
    ( '' ),
    'SwSTEP 2.0',
    'SolidWorks 2023',
    '' );
FILE_SCHEMA (( 'AUTOMOTIVE_DESIGN' ));
ENDSEC;

DATA;
#1 = AXIS2_PLACEMENT_3D ( 'NONE', #176, #53, #151 ) ;
#2 = VECTOR ( 'NONE', #72, 39.37007874015748143 ) ;
#3 =( LENGTH_UNIT ( ) NAMED_UNIT ( * ) SI_UNIT ( $, .METRE. ) );
#4 = PLANE ( 'NONE',  #155 ) ;
#5 = ADVANCED_FACE ( 'NONE', ( #85 ), #190, .T. ) ;
#6 = FILL_AREA_STYLE_COLOUR ( '', #114 ) ;
#7 =( LENGTH_UNIT ( ) NAMED_UNIT ( * ) SI_UNIT ( $, .METRE. ) );
#8 = AXIS2_PLACEMENT_3D ( 'NONE', #294, #20, #285 ) ;
#9 = SURFACE_STYLE_USAGE ( .BOTH. , #116 ) ;
#10 = DIRECTION ( 'NONE',  ( 8.164311994315687637E-17, 1.000000000000000000, -0.000000000000000000 ) ) ;
#11 = EDGE_CURVE ( 'NONE', #35, #271, #128, .T. ) ;
#12 = AXIS2_PLACEMENT_3D ( 'NONE', #161, #281, #38 ) ;
#13 = ORIENTED_EDGE ( 'NONE', *, *, #244, .F. ) ;
#14 = CARTESIAN_POINT ( 'NONE',  ( 0.000000000000000000, 2.000000000000000000, 0.000000000000000000 ) ) ;
#15 = DIRECTION ( 'NONE',  ( 8.164311994315687637E-17, 1.000000000000000000, -0.000000000000000000 ) ) ;
#16 = ORIENTED_EDGE ( 'NONE', *, *, #164, .T. ) ;
#17 = DIRECTION ( 'NONE',  ( -0.000000000000000000, -1.000000000000000000, -0.000000000000000000 ) ) ;
#18 = LENGTH_MEASURE_WITH_UNIT ( LENGTH_MEASURE( 0.02539999999999999897 ), #167 );
#19 = VERTEX_POINT ( 'NONE', #90 ) ;
#20 = DIRECTION ( 'NONE',  ( 8.164311994315687637E-17, 1.000000000000000000, -0.000000000000000000 ) ) ;
#21 = FILL_AREA_STYLE_COLOUR ( '', #93 ) ;
#22 = MECHANICAL_DESIGN_GEOMETRIC_PRESENTATION_REPRESENTATION (  '', ( #201 ), #81 ) ;
#23 = CARTESIAN_POINT ( 'NONE',  ( 0.000000000000000000, 2.000000000000000000, -0.5000000000000000000 ) ) ;
#24 = MECHANICAL_DESIGN_GEOMETRIC_PRESENTATION_REPRESENTATION (  '', ( #95 ), #74 ) ;
#25 =( LENGTH_UNIT ( ) NAMED_UNIT ( * ) SI_UNIT ( $, .METRE. ) );
#26 = PLANE ( 'NONE',  #289 ) ;
#27 = AXIS2_PLACEMENT_3D ( 'NONE', #36, #277, #61 ) ;
#28 = SURFACE_STYLE_USAGE ( .BOTH. , #193 ) ;
#29 = FILL_AREA_STYLE ('',( #94 ) ) ;
#30 = EDGE_LOOP ( 'NONE', ( #219, #251, #274, #248 ) ) ;
#31 = CARTESIAN_POINT ( 'NONE',  ( 0.5000000000000001110, 5.000000000000000000, 6.123233995736764803E-17 ) ) ;
#32 = MECHANICAL_DESIGN_GEOMETRIC_PRESENTATION_REPRESENTATION (  '', ( #102 ), #210 ) ;
#33 = AXIS2_PLACEMENT_3D ( 'NONE', #168, #15, #229 ) ;
#34 = UNCERTAINTY_MEASURE_WITH_UNIT (LENGTH_MEASURE( 1.000000000000000082E-05 ), #252, 'distance_accuracy_value', 'NONE');
#35 = VERTEX_POINT ( 'NONE', #131 ) ;
#36 = CARTESIAN_POINT ( 'NONE',  ( 0.000000000000000000, 0.000000000000000000, 0.000000000000000000 ) ) ;
#37 = DIRECTION ( 'NONE',  ( 8.164311994315687637E-17, 1.000000000000000000, -0.000000000000000000 ) ) ;
#38 = DIRECTION ( 'NONE',  ( -1.000000000000000000, 0.000000000000000000, 0.000000000000000000 ) ) ;
#39 = FILL_AREA_STYLE ('',( #257 ) ) ;
#40 =( NAMED_UNIT ( * ) PLANE_ANGLE_UNIT ( ) SI_UNIT ( $, .RADIAN. ) );
#41 = EDGE_LOOP ( 'NONE', ( #123, #153 ) ) ;
#42 = CIRCLE ( 'NONE', #120, 0.5000000000000000000 ) ;
#43 =( GEOMETRIC_REPRESENTATION_CONTEXT ( 3 ) GLOBAL_UNCERTAINTY_ASSIGNED_CONTEXT ( ( #215 ) ) GLOBAL_UNIT_ASSIGNED_CONTEXT ( ( #174, #192, #214 ) ) REPRESENTATION_CONTEXT ( 'NONE', 'WORKASPACE' ) );
#44 = SURFACE_SIDE_STYLE ('',( #132 ) ) ;
#45 = CARTESIAN_POINT ( 'NONE',  ( 6.123233995736766036E-17, 2.000000000000000000, 0.5000000000000000000 ) ) ;
#46 = SURFACE_STYLE_FILL_AREA ( #233 ) ;
#47 = CARTESIAN_POINT ( 'NONE',  ( 0.000000000000000000, 0.000000000000000000, 0.000000000000000000 ) ) ;
#48 = AXIS2_PLACEMENT_3D ( 'NONE', #287, #79, #96 ) ;
#49 = LENGTH_MEASURE_WITH_UNIT ( LENGTH_MEASURE( 0.02539999999999999897 ), #235 );
#50 = DIRECTION ( 'NONE',  ( 0.000000000000000000, -0.000000000000000000, 1.000000000000000000 ) ) ;
#51 = EDGE_CURVE ( 'NONE', #243, #237, #268, .T. ) ;
#52 = CIRCLE ( 'NONE', #100, 0.5000000000000000000 ) ;
#53 = DIRECTION ( 'NONE',  ( -8.164311994315687637E-17, -1.000000000000000000, 0.000000000000000000 ) ) ;
#54 = ORIENTED_EDGE ( 'NONE', *, *, #77, .F. ) ;
#55 = EDGE_CURVE ( 'NONE', #269, #108, #171, .T. ) ;
#56 = DIRECTION ( 'NONE',  ( -1.000000000000000000, 0.000000000000000000, 0.000000000000000000 ) ) ;
#57 = COLOUR_RGB ( '',1.000000000000000000, 0.000000000000000000, 0.000000000000000000 ) ;
#58 =( GEOMETRIC_REPRESENTATION_CONTEXT ( 3 ) GLOBAL_UNCERTAINTY_ASSIGNED_CONTEXT ( ( #159 ) ) GLOBAL_UNIT_ASSIGNED_CONTEXT ( ( #86, #40, #255 ) ) REPRESENTATION_CONTEXT ( 'NONE', 'WORKASPACE' ) );
#59 = ORIENTED_EDGE ( 'NONE', *, *, #195, .T. ) ;
#60 = ORIENTED_EDGE ( 'NONE', *, *, #207, .T. ) ;
#61 = DIRECTION ( 'NONE',  ( 0.000000000000000000, 0.000000000000000000, -1.000000000000000000 ) ) ;
#62 = MECHANICAL_DESIGN_GEOMETRIC_PRESENTATION_REPRESENTATION (  '', ( #187 ), #58 ) ;
#63 = CARTESIAN_POINT ( 'NONE',  ( 0.000000000000000000, 2.000000000000000000, 0.000000000000000000 ) ) ;
#64 = DIRECTION ( 'NONE',  ( 0.000000000000000000, 0.000000000000000000, -1.000000000000000000 ) ) ;
#65 = CARTESIAN_POINT ( 'NONE',  ( 0.000000000000000000, 0.000000000000000000, 0.000000000000000000 ) ) ;
#66 = CARTESIAN_POINT ( 'NONE',  ( 0.000000000000000000, 0.000000000000000000, 0.000000000000000000 ) ) ;
#67 = FACE_OUTER_BOUND ( 'NONE', #150, .T. ) ;
#68 = MECHANICAL_DESIGN_GEOMETRIC_PRESENTATION_REPRESENTATION (  '', ( #205 ), #295 ) ;
#69 = PRESENTATION_LAYER_ASSIGNMENT (  '', '', ( #221 ) ) ;
#70 = CARTESIAN_POINT ( 'NONE',  ( 2.449293598294706414E-16, 5.000000000000000000, 0.000000000000000000 ) ) ;
#71 =( CONVERSION_BASED_UNIT ( 'INCH', #49 ) LENGTH_UNIT ( ) NAMED_UNIT ( #239 ) );
#72 = DIRECTION ( 'NONE',  ( -0.000000000000000000, -1.000000000000000000, -0.000000000000000000 ) ) ;
#73 =( NAMED_UNIT ( * ) SI_UNIT ( $, .STERADIAN. ) SOLID_ANGLE_UNIT ( ) );
#74 =( GEOMETRIC_REPRESENTATION_CONTEXT ( 3 ) GLOBAL_UNCERTAINTY_ASSIGNED_CONTEXT ( ( #34 ) ) GLOBAL_UNIT_ASSIGNED_CONTEXT ( ( #252, #107, #302 ) ) REPRESENTATION_CONTEXT ( 'NONE', 'WORKASPACE' ) );
#75 = CARTESIAN_POINT ( 'NONE',  ( 0.000000000000000000, 0.000000000000000000, -0.5000000000000000000 ) ) ;
#76 = DIMENSIONAL_EXPONENTS ( 1.000000000000000000, 0.000000000000000000, 0.000000000000000000, 0.000000000000000000, 0.000000000000000000, 0.000000000000000000, 0.000000000000000000 ) ;
#77 = EDGE_CURVE ( 'NONE', #78, #19, #42, .T. ) ;
#78 = VERTEX_POINT ( 'NONE', #162 ) ;
#79 = DIRECTION ( 'NONE',  ( 8.164311994315687637E-17, 1.000000000000000000, -0.000000000000000000 ) ) ;
#80 = SURFACE_SIDE_STYLE ('',( #101 ) ) ;
#81 =( GEOMETRIC_REPRESENTATION_CONTEXT ( 3 ) GLOBAL_UNCERTAINTY_ASSIGNED_CONTEXT ( ( #238 ) ) GLOBAL_UNIT_ASSIGNED_CONTEXT ( ( #88, #282, #227 ) ) REPRESENTATION_CONTEXT ( 'NONE', 'WORKASPACE' ) );
#82 = ORIENTED_EDGE ( 'NONE', *, *, #51, .T. ) ;
#83 = ORIENTED_EDGE ( 'NONE', *, *, #223, .F. ) ;
#84 = AXIS2_PLACEMENT_3D ( 'NONE', #47, #236, #145 ) ;
#85 = FACE_OUTER_BOUND ( 'NONE', #104, .T. ) ;
#86 =( CONVERSION_BASED_UNIT ( 'INCH', #133 ) LENGTH_UNIT ( ) NAMED_UNIT ( #297 ) );
#87 =( NAMED_UNIT ( * ) SI_UNIT ( $, .STERADIAN. ) SOLID_ANGLE_UNIT ( ) );
#88 =( CONVERSION_BASED_UNIT ( 'INCH', #208 ) LENGTH_UNIT ( ) NAMED_UNIT ( #180 ) );
#89 = CARTESIAN_POINT ( 'NONE',  ( -0.4999999999999996114, 5.000000000000000000, 0.000000000000000000 ) ) ;
#90 = CARTESIAN_POINT ( 'NONE',  ( 6.123233995736766036E-17, 0.000000000000000000, 0.5000000000000000000 ) ) ;
#91 = FACE_OUTER_BOUND ( 'NONE', #41, .T. ) ;
#92 = CYLINDRICAL_SURFACE ( 'NONE', #137, 0.4999999999999998335 ) ;
#93 = COLOUR_RGB ( '',1.000000000000000000, 0.000000000000000000, 0.000000000000000000 ) ;
#94 = FILL_AREA_STYLE_COLOUR ( '', #57 ) ;
#95 = STYLED_ITEM ( 'NONE', ( #111 ), #296 ) ;
#96 = DIRECTION ( 'NONE',  ( -1.000000000000000000, 0.000000000000000000, 0.000000000000000000 ) ) ;
#97 = APPLICATION_CONTEXT ( 'automotive_design' ) ;
#98 =( NAMED_UNIT ( * ) PLANE_ANGLE_UNIT ( ) SI_UNIT ( $, .RADIAN. ) );
#99 =( CONVERSION_BASED_UNIT ( 'INCH', #265 ) LENGTH_UNIT ( ) NAMED_UNIT ( #266 ) );
#100 = AXIS2_PLACEMENT_3D ( 'NONE', #225, #185, #307 ) ;
#101 = SURFACE_STYLE_FILL_AREA ( #270 ) ;
#102 = STYLED_ITEM ( 'NONE', ( #148 ), #118 ) ;
#103 = ADVANCED_FACE ( 'NONE', ( #249 ), #110, .T. ) ;
#104 = EDGE_LOOP ( 'NONE', ( #60, #179, #54, #182 ) ) ;
#105 = FILL_AREA_STYLE ('',( #143 ) ) ;
#106 = SURFACE_STYLE_USAGE ( .BOTH. , #204 ) ;
#107 =( NAMED_UNIT ( * ) PLANE_ANGLE_UNIT ( ) SI_UNIT ( $, .RADIAN. ) );
#108 = VERTEX_POINT ( 'NONE', #23 ) ;
#109 = PRESENTATION_STYLE_ASSIGNMENT (( #106 ) ) ;
#110 = CYLINDRICAL_SURFACE ( 'NONE', #231, 0.5000000000000000000 ) ;
#111 = PRESENTATION_STYLE_ASSIGNMENT (( #183 ) ) ;
#112 = PRODUCT_DEFINITION_SHAPE ( 'NONE', 'NONE',  #156 ) ;
#113 = CARTESIAN_POINT ( 'NONE',  ( -0.4999999999999994449, 5.000000000000000000, 0.000000000000000000 ) ) ;
#114 = COLOUR_RGB ( '',1.000000000000000000, 0.000000000000000000, 0.000000000000000000 ) ;
#115 = CARTESIAN_POINT ( 'NONE',  ( 1.666399758513175006E-33, 2.000000000000000000, 0.000000000000000000 ) ) ;
#116 = SURFACE_SIDE_STYLE ('',( #46 ) ) ;
#117 = LINE ( 'NONE', #290, #2 ) ;
#118 = ADVANCED_FACE ( 'NONE', ( #91 ), #4, .T. ) ;
#119 = DIRECTION ( 'NONE',  ( 8.164311994315687637E-17, 1.000000000000000000, -0.000000000000000000 ) ) ;
#120 = AXIS2_PLACEMENT_3D ( 'NONE', #66, #254, #138 ) ;
#121 = FILL_AREA_STYLE_COLOUR ( '', #149 ) ;
#122 = UNCERTAINTY_MEASURE_WITH_UNIT (LENGTH_MEASURE( 1.000000000000000082E-05 ), #228, 'distance_accuracy_value', 'NONE');
#123 = ORIENTED_EDGE ( 'NONE', *, *, #207, .F. ) ;
#124 = CIRCLE ( 'NONE', #48, 0.5000000000000000000 ) ;
#125 = PRODUCT_RELATED_PRODUCT_CATEGORY ( 'part', '', ( #262 ) ) ;
#126 =( NAMED_UNIT ( * ) PLANE_ANGLE_UNIT ( ) SI_UNIT ( $, .RADIAN. ) );
#127 = COLOUR_RGB ( '',1.000000000000000000, 0.000000000000000000, 0.000000000000000000 ) ;
#128 = CIRCLE ( 'NONE', #12, 0.4999999999999997224 ) ;
#129 = PRODUCT_DEFINITION_FORMATION_WITH_SPECIFIED_SOURCE ( 'ANY', '', #262, .NOT_KNOWN. ) ;
#130 = ORIENTED_EDGE ( 'NONE', *, *, #195, .F. ) ;
#131 = CARTESIAN_POINT ( 'NONE',  ( 0.5000000000000001110, 5.000000000000000000, 6.123233995736766036E-17 ) ) ;
#132 = SURFACE_STYLE_FILL_AREA ( #39 ) ;
#133 = LENGTH_MEASURE_WITH_UNIT ( LENGTH_MEASURE( 0.02539999999999999897 ), #250 );
#134 = ORIENTED_EDGE ( 'NONE', *, *, #184, .T. ) ;
#135 = CARTESIAN_POINT ( 'NONE',  ( 0.5000000000000001110, 2.000000000000000000, 6.123233995736766036E-17 ) ) ;
#136 = APPLICATION_CONTEXT ( 'automotive_design' ) ;
#137 = AXIS2_PLACEMENT_3D ( 'NONE', #70, #140, #212 ) ;
#138 = DIRECTION ( 'NONE',  ( 0.000000000000000000, 0.000000000000000000, -1.000000000000000000 ) ) ;
#139 = ADVANCED_FACE ( 'NONE', ( #259 ), #218, .T. ) ;
#140 = DIRECTION ( 'NONE',  ( 8.164311994315687637E-17, 1.000000000000000000, -0.000000000000000000 ) ) ;
#141 = PRESENTATION_STYLE_ASSIGNMENT (( #306 ) ) ;
#142 = EDGE_CURVE ( 'NONE', #237, #243, #124, .T. ) ;
#143 = FILL_AREA_STYLE_COLOUR ( '', #247 ) ;
#144 = UNCERTAINTY_MEASURE_WITH_UNIT (LENGTH_MEASURE( 1.000000000000000082E-05 ), #99, 'distance_accuracy_value', 'NONE');
#145 = DIRECTION ( 'NONE',  ( 1.000000000000000000, 0.000000000000000000, 0.000000000000000000 ) ) ;
#146 = DIRECTION ( 'NONE',  ( 0.000000000000000000, -1.000000000000000000, -0.000000000000000000 ) ) ;
#147 = PRESENTATION_STYLE_ASSIGNMENT (( #28 ) ) ;
#148 = PRESENTATION_STYLE_ASSIGNMENT (( #9 ) ) ;
#149 = COLOUR_RGB ( '',0.7921568627450980005, 0.8196078431372548767, 0.9333333333333333481 ) ;
#150 = EDGE_LOOP ( 'NONE', ( #82, #134, #130, #13 ) ) ;
#151 = DIRECTION ( 'NONE',  ( 1.000000000000000000, -8.164311994315687637E-17, 0.000000000000000000 ) ) ;
#152 = EDGE_CURVE ( 'NONE', #269, #19, #117, .T. ) ;
#153 = ORIENTED_EDGE ( 'NONE', *, *, #55, .F. ) ;
#154 = UNCERTAINTY_MEASURE_WITH_UNIT (LENGTH_MEASURE( 1.000000000000000082E-05 ), #71, 'distance_accuracy_value', 'NONE');
#155 = AXIS2_PLACEMENT_3D ( 'NONE', #172, #169, #50 ) ;
#156 = PRODUCT_DEFINITION ( 'UNKNOWN', '', #129, #261 ) ;
#157 = ORIENTED_EDGE ( 'NONE', *, *, #55, .T. ) ;
#158 = SURFACE_STYLE_FILL_AREA ( #275 ) ;
#159 = UNCERTAINTY_MEASURE_WITH_UNIT (LENGTH_MEASURE( 1.000000000000000082E-05 ), #86, 'distance_accuracy_value', 'NONE');
#160 = CARTESIAN_POINT ( 'NONE',  ( -0.5000000000000000000, 2.000000000000000000, 0.000000000000000000 ) ) ;
#161 = CARTESIAN_POINT ( 'NONE',  ( 2.449293598294706414E-16, 5.000000000000000000, 0.000000000000000000 ) ) ;
#162 = CARTESIAN_POINT ( 'NONE',  ( 0.000000000000000000, 0.000000000000000000, -0.5000000000000000000 ) ) ;
#163 = SURFACE_SIDE_STYLE ('',( #280 ) ) ;
#164 = EDGE_CURVE ( 'NONE', #108, #78, #170, .T. ) ;
#165 = DIRECTION ( 'NONE',  ( 8.164311994315687637E-17, 1.000000000000000000, -0.000000000000000000 ) ) ;
#166 =( LENGTH_UNIT ( ) NAMED_UNIT ( * ) SI_UNIT ( $, .METRE. ) );
#167 =( LENGTH_UNIT ( ) NAMED_UNIT ( * ) SI_UNIT ( $, .METRE. ) );
#168 = CARTESIAN_POINT ( 'NONE',  ( 2.449293598294706414E-16, 5.000000000000000000, 0.000000000000000000 ) ) ;
#169 = DIRECTION ( 'NONE',  ( 0.000000000000000000, 1.000000000000000000, 0.000000000000000000 ) ) ;
#170 = LINE ( 'NONE', #75, #206 ) ;
#171 = CIRCLE ( 'NONE', #186, 0.5000000000000000000 ) ;
#172 = CARTESIAN_POINT ( 'NONE',  ( 0.000000000000000000, 2.000000000000000000, 0.000000000000000000 ) ) ;
#173 = APPLICATION_PROTOCOL_DEFINITION ( 'draft international standard', 'automotive_design', 1998, #97 ) ;
#174 =( CONVERSION_BASED_UNIT ( 'INCH', #292 ) LENGTH_UNIT ( ) NAMED_UNIT ( #272 ) );
#175 = PLANE ( 'NONE',  #1 ) ;
#176 = CARTESIAN_POINT ( 'NONE',  ( 0.5000000000000000000, 5.000000000000000000, 0.000000000000000000 ) ) ;
#177 = AXIS2_PLACEMENT_3D ( 'NONE', #65, #276, #258 ) ;
#178 = VECTOR ( 'NONE', #37, 39.37007874015748143 ) ;
#179 = ORIENTED_EDGE ( 'NONE', *, *, #152, .T. ) ;
#180 = DIMENSIONAL_EXPONENTS ( 1.000000000000000000, 0.000000000000000000, 0.000000000000000000, 0.000000000000000000, 0.000000000000000000, 0.000000000000000000, 0.000000000000000000 ) ;
#181 = ADVANCED_FACE ( 'NONE', ( #260 ), #175, .F. ) ;
#182 = ORIENTED_EDGE ( 'NONE', *, *, #164, .F. ) ;
#183 = SURFACE_STYLE_USAGE ( .BOTH. , #163 ) ;
#184 = EDGE_CURVE ( 'NONE', #237, #35, #220, .T. ) ;
#185 = DIRECTION ( 'NONE',  ( -0.000000000000000000, -1.000000000000000000, -0.000000000000000000 ) ) ;
#186 = AXIS2_PLACEMENT_3D ( 'NONE', #14, #17, #224 ) ;
#187 = STYLED_ITEM ( 'NONE', ( #191 ), #194 ) ;
#188 = ORIENTED_EDGE ( 'NONE', *, *, #77, .T. ) ;
#189 = CARTESIAN_POINT ( 'NONE',  ( 0.000000000000000000, 0.000000000000000000, 0.000000000000000000 ) ) ;
#190 = CYLINDRICAL_SURFACE ( 'NONE', #27, 0.5000000000000000000 ) ;
#191 = PRESENTATION_STYLE_ASSIGNMENT (( #200 ) ) ;
#192 =( NAMED_UNIT ( * ) PLANE_ANGLE_UNIT ( ) SI_UNIT ( $, .RADIAN. ) );
#193 = SURFACE_SIDE_STYLE ('',( #293 ) ) ;
#194 = MANIFOLD_SOLID_BREP ( 'Revolve - Tool Body (Straight Shanked)', #309 ) ;
#195 = EDGE_CURVE ( 'NONE', #271, #35, #279, .T. ) ;
#196 = APPLICATION_PROTOCOL_DEFINITION ( 'draft international standard', 'automotive_design', 1998, #136 ) ;
#197 = AXIS2_PLACEMENT_3D ( 'NONE', #230, #146, #213 ) ;
#198 = FACE_OUTER_BOUND ( 'NONE', #283, .T. ) ;
#199 =( NAMED_UNIT ( * ) SI_UNIT ( $, .STERADIAN. ) SOLID_ANGLE_UNIT ( ) );
#200 = SURFACE_STYLE_USAGE ( .BOTH. , #80 ) ;
#201 = STYLED_ITEM ( 'NONE', ( #141 ), #103 ) ;
#202 = EDGE_LOOP ( 'NONE', ( #59, #241 ) ) ;
#203 = ORIENTED_EDGE ( 'NONE', *, *, #223, .T. ) ;
#204 = SURFACE_SIDE_STYLE ('',( #158 ) ) ;
#205 = STYLED_ITEM ( 'NONE', ( #109 ), #5 ) ;
#206 = VECTOR ( 'NONE', #267, 39.37007874015748143 ) ;
#207 = EDGE_CURVE ( 'NONE', #108, #269, #52, .T. ) ;
#208 = LENGTH_MEASURE_WITH_UNIT ( LENGTH_MEASURE( 0.02539999999999999897 ), #25 );
#209 = CYLINDRICAL_SURFACE ( 'NONE', #33, 0.4999999999999998335 ) ;
#210 =( GEOMETRIC_REPRESENTATION_CONTEXT ( 3 ) GLOBAL_UNCERTAINTY_ASSIGNED_CONTEXT ( ( #154 ) ) GLOBAL_UNIT_ASSIGNED_CONTEXT ( ( #71, #216, #199 ) ) REPRESENTATION_CONTEXT ( 'NONE', 'WORKASPACE' ) );
#211 = ADVANCED_FACE ( 'NONE', ( #67 ), #92, .T. ) ;
#212 = DIRECTION ( 'NONE',  ( -1.000000000000000000, 0.000000000000000000, 0.000000000000000000 ) ) ;
#213 = DIRECTION ( 'NONE',  ( 0.000000000000000000, 0.000000000000000000, -1.000000000000000000 ) ) ;
#214 =( NAMED_UNIT ( * ) SI_UNIT ( $, .STERADIAN. ) SOLID_ANGLE_UNIT ( ) );
#215 = UNCERTAINTY_MEASURE_WITH_UNIT (LENGTH_MEASURE( 1.000000000000000082E-05 ), #174, 'distance_accuracy_value', 'NONE');
#216 =( NAMED_UNIT ( * ) PLANE_ANGLE_UNIT ( ) SI_UNIT ( $, .RADIAN. ) );
#217 = DIRECTION ( 'NONE',  ( -1.000000000000000000, 8.164311994315687637E-17, 0.000000000000000000 ) ) ;
#218 = PLANE ( 'NONE',  #197 ) ;
#219 = ORIENTED_EDGE ( 'NONE', *, *, #184, .F. ) ;
#220 = LINE ( 'NONE', #31, #304 ) ;
#221 = STYLED_ITEM ( 'NONE', ( #147 ), #139 ) ;
#222 = MECHANICAL_DESIGN_GEOMETRIC_PRESENTATION_REPRESENTATION (  '', ( #221 ), #286 ) ;
#223 = EDGE_CURVE ( 'NONE', #19, #78, #242, .T. ) ;
#224 = DIRECTION ( 'NONE',  ( 0.000000000000000000, 0.000000000000000000, -1.000000000000000000 ) ) ;
#225 = CARTESIAN_POINT ( 'NONE',  ( 0.000000000000000000, 2.000000000000000000, 0.000000000000000000 ) ) ;
#226 = EDGE_LOOP ( 'NONE', ( #299, #157, #16, #83 ) ) ;
#227 =( NAMED_UNIT ( * ) SI_UNIT ( $, .STERADIAN. ) SOLID_ANGLE_UNIT ( ) );
#228 =( CONVERSION_BASED_UNIT ( 'INCH', #303 ) LENGTH_UNIT ( ) NAMED_UNIT ( #76 ) );
#229 = DIRECTION ( 'NONE',  ( -1.000000000000000000, 0.000000000000000000, 0.000000000000000000 ) ) ;
#230 = CARTESIAN_POINT ( 'NONE',  ( 0.000000000000000000, 0.000000000000000000, 0.000000000000000000 ) ) ;
#231 = AXIS2_PLACEMENT_3D ( 'NONE', #189, #301, #64 ) ;
#232 = PRESENTATION_LAYER_ASSIGNMENT (  '', '', ( #95 ) ) ;
#233 = FILL_AREA_STYLE ('',( #6 ) ) ;
#234 = PRODUCT_CONTEXT ( 'NONE', #97, 'mechanical' ) ;
#235 =( LENGTH_UNIT ( ) NAMED_UNIT ( * ) SI_UNIT ( $, .METRE. ) );
#236 = DIRECTION ( 'NONE',  ( 0.000000000000000000, 0.000000000000000000, 1.000000000000000000 ) ) ;
#237 = VERTEX_POINT ( 'NONE', #135 ) ;
#238 = UNCERTAINTY_MEASURE_WITH_UNIT (LENGTH_MEASURE( 1.000000000000000082E-05 ), #88, 'distance_accuracy_value', 'NONE');
#239 = DIMENSIONAL_EXPONENTS ( 1.000000000000000000, 0.000000000000000000, 0.000000000000000000, 0.000000000000000000, 0.000000000000000000, 0.000000000000000000, 0.000000000000000000 ) ;
#240 = ADVANCED_FACE ( 'NONE', ( #284 ), #209, .T. ) ;
#241 = ORIENTED_EDGE ( 'NONE', *, *, #11, .T. ) ;
#242 = CIRCLE ( 'NONE', #177, 0.5000000000000000000 ) ;
#243 = VERTEX_POINT ( 'NONE', #160 ) ;
#244 = EDGE_CURVE ( 'NONE', #243, #271, #305, .T. ) ;
#245 = ORIENTED_EDGE ( 'NONE', *, *, #51, .F. ) ;
#246 = PRESENTATION_LAYER_ASSIGNMENT (  '', '', ( #201 ) ) ;
#247 = COLOUR_RGB ( '',0.7921568627450980005, 0.8196078431372548767, 0.9333333333333333481 ) ;
#248 = ORIENTED_EDGE ( 'NONE', *, *, #11, .F. ) ;
#249 = FACE_OUTER_BOUND ( 'NONE', #226, .T. ) ;
#250 =( LENGTH_UNIT ( ) NAMED_UNIT ( * ) SI_UNIT ( $, .METRE. ) );
#251 = ORIENTED_EDGE ( 'NONE', *, *, #142, .T. ) ;
#252 =( CONVERSION_BASED_UNIT ( 'INCH', #18 ) LENGTH_UNIT ( ) NAMED_UNIT ( #291 ) );
#253 = EDGE_LOOP ( 'NONE', ( #188, #203 ) ) ;
#254 = DIRECTION ( 'NONE',  ( -0.000000000000000000, -1.000000000000000000, -0.000000000000000000 ) ) ;
#255 =( NAMED_UNIT ( * ) SI_UNIT ( $, .STERADIAN. ) SOLID_ANGLE_UNIT ( ) );
#256 = PRESENTATION_LAYER_ASSIGNMENT (  '', '', ( #205 ) ) ;
#257 = FILL_AREA_STYLE_COLOUR ( '', #127 ) ;
#258 = DIRECTION ( 'NONE',  ( 0.000000000000000000, 0.000000000000000000, -1.000000000000000000 ) ) ;
#259 = FACE_OUTER_BOUND ( 'NONE', #253, .T. ) ;
#260 = FACE_OUTER_BOUND ( 'NONE', #202, .T. ) ;
#261 = PRODUCT_DEFINITION_CONTEXT ( 'detailed design', #136, 'design' ) ;
#262 = PRODUCT ( '00750', '00750', '', ( #234 ) ) ;
#263 = AXIS2_PLACEMENT_3D ( 'NONE', #63, #165, #56 ) ;
#264 = PRESENTATION_LAYER_ASSIGNMENT (  '', '', ( #187 ) ) ;
#265 = LENGTH_MEASURE_WITH_UNIT ( LENGTH_MEASURE( 0.02539999999999999897 ), #3 );
#266 = DIMENSIONAL_EXPONENTS ( 1.000000000000000000, 0.000000000000000000, 0.000000000000000000, 0.000000000000000000, 0.000000000000000000, 0.000000000000000000, 0.000000000000000000 ) ;
#267 = DIRECTION ( 'NONE',  ( -0.000000000000000000, -1.000000000000000000, -0.000000000000000000 ) ) ;
#268 = CIRCLE ( 'NONE', #263, 0.5000000000000000000 ) ;
#269 = VERTEX_POINT ( 'NONE', #45 ) ;
#270 = FILL_AREA_STYLE ('',( #121 ) ) ;
#271 = VERTEX_POINT ( 'NONE', #113 ) ;
#272 = DIMENSIONAL_EXPONENTS ( 1.000000000000000000, 0.000000000000000000, 0.000000000000000000, 0.000000000000000000, 0.000000000000000000, 0.000000000000000000, 0.000000000000000000 ) ;
#273 = ORIENTED_EDGE ( 'NONE', *, *, #142, .F. ) ;
#274 = ORIENTED_EDGE ( 'NONE', *, *, #244, .T. ) ;
#275 = FILL_AREA_STYLE ('',( #21 ) ) ;
#276 = DIRECTION ( 'NONE',  ( -0.000000000000000000, -1.000000000000000000, -0.000000000000000000 ) ) ;
#277 = DIRECTION ( 'NONE',  ( -0.000000000000000000, -1.000000000000000000, -0.000000000000000000 ) ) ;
#278 = PRESENTATION_LAYER_ASSIGNMENT (  '', '', ( #102 ) ) ;
#279 = CIRCLE ( 'NONE', #8, 0.4999999999999997224 ) ;
#280 = SURFACE_STYLE_FILL_AREA ( #105 ) ;
#281 = DIRECTION ( 'NONE',  ( 8.164311994315687637E-17, 1.000000000000000000, -0.000000000000000000 ) ) ;
#282 =( NAMED_UNIT ( * ) PLANE_ANGLE_UNIT ( ) SI_UNIT ( $, .RADIAN. ) );
#283 = EDGE_LOOP ( 'NONE', ( #245, #273 ) ) ;
#284 = FACE_OUTER_BOUND ( 'NONE', #30, .T. ) ;
#285 = DIRECTION ( 'NONE',  ( -1.000000000000000000, 0.000000000000000000, 0.000000000000000000 ) ) ;
#286 =( GEOMETRIC_REPRESENTATION_CONTEXT ( 3 ) GLOBAL_UNCERTAINTY_ASSIGNED_CONTEXT ( ( #144 ) ) GLOBAL_UNIT_ASSIGNED_CONTEXT ( ( #99, #98, #73 ) ) REPRESENTATION_CONTEXT ( 'NONE', 'WORKASPACE' ) );
#287 = CARTESIAN_POINT ( 'NONE',  ( 0.000000000000000000, 2.000000000000000000, 0.000000000000000000 ) ) ;
#288 = SHAPE_DEFINITION_REPRESENTATION ( #112, #308 ) ;
#289 = AXIS2_PLACEMENT_3D ( 'NONE', #115, #119, #217 ) ;
#290 = CARTESIAN_POINT ( 'NONE',  ( 6.123233995736766036E-17, 0.000000000000000000, 0.5000000000000000000 ) ) ;
#291 = DIMENSIONAL_EXPONENTS ( 1.000000000000000000, 0.000000000000000000, 0.000000000000000000, 0.000000000000000000, 0.000000000000000000, 0.000000000000000000, 0.000000000000000000 ) ;
#292 = LENGTH_MEASURE_WITH_UNIT ( LENGTH_MEASURE( 0.02539999999999999897 ), #7 );
#293 = SURFACE_STYLE_FILL_AREA ( #29 ) ;
#294 = CARTESIAN_POINT ( 'NONE',  ( 2.449293598294706414E-16, 5.000000000000000000, 0.000000000000000000 ) ) ;
#295 =( GEOMETRIC_REPRESENTATION_CONTEXT ( 3 ) GLOBAL_UNCERTAINTY_ASSIGNED_CONTEXT ( ( #122 ) ) GLOBAL_UNIT_ASSIGNED_CONTEXT ( ( #228, #126, #87 ) ) REPRESENTATION_CONTEXT ( 'NONE', 'WORKASPACE' ) );
#296 = MANIFOLD_SOLID_BREP ( 'Revolve - Cutting Edge', #300 ) ;
#297 = DIMENSIONAL_EXPONENTS ( 1.000000000000000000, 0.000000000000000000, 0.000000000000000000, 0.000000000000000000, 0.000000000000000000, 0.000000000000000000, 0.000000000000000000 ) ;
#298 = ADVANCED_FACE ( 'NONE', ( #198 ), #26, .F. ) ;
#299 = ORIENTED_EDGE ( 'NONE', *, *, #152, .F. ) ;
#300 = CLOSED_SHELL ( 'NONE', ( #5, #118, #103, #139 ) ) ;
#301 = DIRECTION ( 'NONE',  ( -0.000000000000000000, -1.000000000000000000, -0.000000000000000000 ) ) ;
#302 =( NAMED_UNIT ( * ) SI_UNIT ( $, .STERADIAN. ) SOLID_ANGLE_UNIT ( ) );
#303 = LENGTH_MEASURE_WITH_UNIT ( LENGTH_MEASURE( 0.02539999999999999897 ), #166 );
#304 = VECTOR ( 'NONE', #10, 39.37007874015748143 ) ;
#305 = LINE ( 'NONE', #89, #178 ) ;
#306 = SURFACE_STYLE_USAGE ( .BOTH. , #44 ) ;
#307 = DIRECTION ( 'NONE',  ( 0.000000000000000000, 0.000000000000000000, -1.000000000000000000 ) ) ;
#308 = ADVANCED_BREP_SHAPE_REPRESENTATION ( '00750', ( #296, #194, #84 ), #43 ) ;
#309 = CLOSED_SHELL ( 'NONE', ( #211, #298, #240, #181 ) ) ;
ENDSEC;
END-ISO-10303-21;
