ISO-10303-21;
HEADER;
FILE_DESCRIPTION (( 'STEP AP214' ),
    '1' );
FILE_NAME ('59505.STEP',
    '2023-07-24T15:48:09',
    ( '' ),
    ( '' ),
    'SwSTEP 2.0',
    'SolidWorks 2023',
    '' );
FILE_SCHEMA (( 'AUTOMOTIVE_DESIGN' ));
ENDSEC;

DATA;
#1 = DIRECTION ( 'NONE',  ( -0.000000000000000000, -1.000000000000000000, -0.000000000000000000 ) ) ;
#2 = COLOUR_RGB ( '',1.000000000000000000, 0.000000000000000000, 0.000000000000000000 ) ;
#3 = SURFACE_SIDE_STYLE ('',( #102 ) ) ;
#4 = SURFACE_STYLE_FILL_AREA ( #107 ) ;
#5 = EDGE_CURVE ( 'NONE', #76, #287, #132, .T. ) ;
#6 = MECHANICAL_DESIGN_GEOMETRIC_PRESENTATION_REPRESENTATION (  '', ( #170 ), #29 ) ;
#7 =( NAMED_UNIT ( * ) SI_UNIT ( $, .STERADIAN. ) SOLID_ANGLE_UNIT ( ) );
#8 = EDGE_LOOP ( 'NONE', ( #115, #165 ) ) ;
#9 = CARTESIAN_POINT ( 'NONE',  ( 0.000000000000000000, 0.000000000000000000, 0.000000000000000000 ) ) ;
#10 = VECTOR ( 'NONE', #84, 1000.000000000000000 ) ;
#11 = SURFACE_SIDE_STYLE ('',( #261 ) ) ;
#12 = VERTEX_POINT ( 'NONE', #96 ) ;
#13 = ORIENTED_EDGE ( 'NONE', *, *, #215, .F. ) ;
#14 = AXIS2_PLACEMENT_3D ( 'NONE', #246, #195, #171 ) ;
#15 = ORIENTED_EDGE ( 'NONE', *, *, #194, .F. ) ;
#16 = UNCERTAINTY_MEASURE_WITH_UNIT (LENGTH_MEASURE( 1.000000000000000082E-05 ), #32, 'distance_accuracy_value', 'NONE');
#17 = ORIENTED_EDGE ( 'NONE', *, *, #26, .F. ) ;
#18 = DIRECTION ( 'NONE',  ( -1.000000000000000000, 0.000000000000000000, 0.000000000000000000 ) ) ;
#19 = FILL_AREA_STYLE ('',( #44 ) ) ;
#20 = DIRECTION ( 'NONE',  ( -1.000000000000000000, 0.000000000000000000, 0.000000000000000000 ) ) ;
#21 = DIRECTION ( 'NONE',  ( 0.000000000000000000, 0.000000000000000000, -1.000000000000000000 ) ) ;
#22 = CARTESIAN_POINT ( 'NONE',  ( 0.000000000000000000, 0.000000000000000000, 0.000000000000000000 ) ) ;
#23 = AXIS2_PLACEMENT_3D ( 'NONE', #146, #64, #121 ) ;
#24 = AXIS2_PLACEMENT_3D ( 'NONE', #178, #112, #263 ) ;
#25 = EDGE_CURVE ( 'NONE', #92, #12, #60, .T. ) ;
#26 = EDGE_CURVE ( 'NONE', #92, #212, #85, .T. ) ;
#27 = CARTESIAN_POINT ( 'NONE',  ( 0.000000000000000000, 50.00000000000000000, 0.000000000000000000 ) ) ;
#28 = APPLICATION_PROTOCOL_DEFINITION ( 'draft international standard', 'automotive_design', 1998, #56 ) ;
#29 =( GEOMETRIC_REPRESENTATION_CONTEXT ( 3 ) GLOBAL_UNCERTAINTY_ASSIGNED_CONTEXT ( ( #16 ) ) GLOBAL_UNIT_ASSIGNED_CONTEXT ( ( #32, #279, #136 ) ) REPRESENTATION_CONTEXT ( 'NONE', 'WORKASPACE' ) );
#30 = SURFACE_SIDE_STYLE ('',( #258 ) ) ;
#31 = CARTESIAN_POINT ( 'NONE',  ( 0.000000000000000000, 0.000000000000000000, 0.000000000000000000 ) ) ;
#32 =( LENGTH_UNIT ( ) NAMED_UNIT ( * ) SI_UNIT ( .MILLI., .METRE. ) );
#33 = AXIS2_PLACEMENT_3D ( 'NONE', #262, #280, #281 ) ;
#34 = ORIENTED_EDGE ( 'NONE', *, *, #196, .T. ) ;
#35 = AXIS2_PLACEMENT_3D ( 'NONE', #27, #113, #255 ) ;
#36 = EDGE_LOOP ( 'NONE', ( #34, #37, #181, #152 ) ) ;
#37 = ORIENTED_EDGE ( 'NONE', *, *, #104, .T. ) ;
#38 = LINE ( 'NONE', #275, #192 ) ;
#39 = UNCERTAINTY_MEASURE_WITH_UNIT (LENGTH_MEASURE( 1.000000000000000082E-05 ), #138, 'distance_accuracy_value', 'NONE');
#40 = CARTESIAN_POINT ( 'NONE',  ( 1.224646799147353256E-15, 0.000000000000000000, 10.00000000000000000 ) ) ;
#41 = CARTESIAN_POINT ( 'NONE',  ( 10.00000000000000000, 50.00000000000000000, 1.224646799147353651E-15 ) ) ;
#42 = ADVANCED_FACE ( 'NONE', ( #101 ), #167, .T. ) ;
#43 = CARTESIAN_POINT ( 'NONE',  ( -10.00000000000000000, 50.00000000000000000, 0.000000000000000000 ) ) ;
#44 = FILL_AREA_STYLE_COLOUR ( '', #218 ) ;
#45 = CYLINDRICAL_SURFACE ( 'NONE', #111, 10.00000000000000178 ) ;
#46 = FILL_AREA_STYLE_COLOUR ( '', #2 ) ;
#47 = MECHANICAL_DESIGN_GEOMETRIC_PRESENTATION_REPRESENTATION (  '', ( #117 ), #228 ) ;
#48 = SURFACE_STYLE_USAGE ( .BOTH. , #30 ) ;
#49 = AXIS2_PLACEMENT_3D ( 'NONE', #74, #189, #163 ) ;
#50 = STYLED_ITEM ( 'NONE', ( #95 ), #206 ) ;
#51 = SURFACE_STYLE_USAGE ( .BOTH. , #53 ) ;
#52 = DIRECTION ( 'NONE',  ( 0.000000000000000000, 0.000000000000000000, -1.000000000000000000 ) ) ;
#53 = SURFACE_SIDE_STYLE ('',( #224 ) ) ;
#54 = CARTESIAN_POINT ( 'NONE',  ( 9.999999999999996447, 124.9999999999999858, 1.224646799147353454E-15 ) ) ;
#55 = AXIS2_PLACEMENT_3D ( 'NONE', #226, #1, #21 ) ;
#56 = APPLICATION_CONTEXT ( 'automotive_design' ) ;
#57 = SURFACE_SIDE_STYLE ('',( #145 ) ) ;
#58 = EDGE_CURVE ( 'NONE', #287, #76, #182, .T. ) ;
#59 = PRESENTATION_LAYER_ASSIGNMENT (  '', '', ( #214 ) ) ;
#60 = LINE ( 'NONE', #186, #142 ) ;
#61 =( NAMED_UNIT ( * ) PLANE_ANGLE_UNIT ( ) SI_UNIT ( $, .RADIAN. ) );
#62 = SURFACE_STYLE_USAGE ( .BOTH. , #3 ) ;
#63 = PRODUCT_DEFINITION_CONTEXT ( 'detailed design', #56, 'design' ) ;
#64 = DIRECTION ( 'NONE',  ( 0.000000000000000000, 1.000000000000000000, 0.000000000000000000 ) ) ;
#65 = FACE_OUTER_BOUND ( 'NONE', #242, .T. ) ;
#66 = DIRECTION ( 'NONE',  ( -5.878304635907293472E-17, 1.000000000000000000, -0.000000000000000000 ) ) ;
#67 =( NAMED_UNIT ( * ) SI_UNIT ( $, .STERADIAN. ) SOLID_ANGLE_UNIT ( ) );
#68 = VERTEX_POINT ( 'NONE', #153 ) ;
#69 = AXIS2_PLACEMENT_3D ( 'NONE', #237, #131, #205 ) ;
#70 = DIRECTION ( 'NONE',  ( 1.000000000000000000, 0.000000000000000000, 0.000000000000000000 ) ) ;
#71 = SURFACE_STYLE_USAGE ( .BOTH. , #108 ) ;
#72 = CARTESIAN_POINT ( 'NONE',  ( 1.224646799147353256E-15, 0.000000000000000000, 10.00000000000000000 ) ) ;
#73 =( LENGTH_UNIT ( ) NAMED_UNIT ( * ) SI_UNIT ( .MILLI., .METRE. ) );
#74 = CARTESIAN_POINT ( 'NONE',  ( 0.000000000000000000, 0.000000000000000000, 0.000000000000000000 ) ) ;
#75 = PRESENTATION_LAYER_ASSIGNMENT (  '', '', ( #86 ) ) ;
#76 = VERTEX_POINT ( 'NONE', #150 ) ;
#77 = ORIENTED_EDGE ( 'NONE', *, *, #58, .T. ) ;
#78 = EDGE_CURVE ( 'NONE', #221, #76, #38, .T. ) ;
#79 = UNCERTAINTY_MEASURE_WITH_UNIT (LENGTH_MEASURE( 1.000000000000000082E-05 ), #231, 'distance_accuracy_value', 'NONE');
#80 = ORIENTED_EDGE ( 'NONE', *, *, #25, .F. ) ;
#81 =( GEOMETRIC_REPRESENTATION_CONTEXT ( 3 ) GLOBAL_UNCERTAINTY_ASSIGNED_CONTEXT ( ( #243 ) ) GLOBAL_UNIT_ASSIGNED_CONTEXT ( ( #180, #210, #209 ) ) REPRESENTATION_CONTEXT ( 'NONE', 'WORKASPACE' ) );
#82 = PRODUCT_DEFINITION_FORMATION_WITH_SPECIFIED_SOURCE ( 'ANY', '', #199, .NOT_KNOWN. ) ;
#83 = UNCERTAINTY_MEASURE_WITH_UNIT (LENGTH_MEASURE( 1.000000000000000082E-05 ), #169, 'distance_accuracy_value', 'NONE');
#84 = DIRECTION ( 'NONE',  ( -0.000000000000000000, -1.000000000000000000, -0.000000000000000000 ) ) ;
#85 = CIRCLE ( 'NONE', #217, 10.00000000000000000 ) ;
#86 = STYLED_ITEM ( 'NONE', ( #211 ), #157 ) ;
#87 =( GEOMETRIC_REPRESENTATION_CONTEXT ( 3 ) GLOBAL_UNCERTAINTY_ASSIGNED_CONTEXT ( ( #39 ) ) GLOBAL_UNIT_ASSIGNED_CONTEXT ( ( #138, #239, #7 ) ) REPRESENTATION_CONTEXT ( 'NONE', 'WORKASPACE' ) );
#88 = ADVANCED_FACE ( 'NONE', ( #106 ), #248, .T. ) ;
#89 = APPLICATION_PROTOCOL_DEFINITION ( 'draft international standard', 'automotive_design', 1998, #103 ) ;
#90 = ORIENTED_EDGE ( 'NONE', *, *, #25, .T. ) ;
#91 = PLANE ( 'NONE',  #24 ) ;
#92 = VERTEX_POINT ( 'NONE', #43 ) ;
#93 = MECHANICAL_DESIGN_GEOMETRIC_PRESENTATION_REPRESENTATION (  '', ( #214 ), #81 ) ;
#94 = DIRECTION ( 'NONE',  ( -5.878304635907293472E-17, 1.000000000000000000, -0.000000000000000000 ) ) ;
#95 = PRESENTATION_STYLE_ASSIGNMENT (( #253 ) ) ;
#96 = CARTESIAN_POINT ( 'NONE',  ( -10.00000000000001066, 124.9999999999999858, 0.000000000000000000 ) ) ;
#97 = CLOSED_SHELL ( 'NONE', ( #88, #42, #256, #157 ) ) ;
#98 = CIRCLE ( 'NONE', #264, 10.00000000000000000 ) ;
#99 = ORIENTED_EDGE ( 'NONE', *, *, #26, .T. ) ;
#100 = ORIENTED_EDGE ( 'NONE', *, *, #135, .T. ) ;
#101 = FACE_OUTER_BOUND ( 'NONE', #241, .T. ) ;
#102 = SURFACE_STYLE_FILL_AREA ( #19 ) ;
#103 = APPLICATION_CONTEXT ( 'automotive_design' ) ;
#104 = EDGE_CURVE ( 'NONE', #68, #287, #201, .T. ) ;
#105 = DIRECTION ( 'NONE',  ( 0.000000000000000000, 0.000000000000000000, -1.000000000000000000 ) ) ;
#106 = FACE_OUTER_BOUND ( 'NONE', #36, .T. ) ;
#107 = FILL_AREA_STYLE ('',( #46 ) ) ;
#108 = SURFACE_SIDE_STYLE ('',( #4 ) ) ;
#109 = CARTESIAN_POINT ( 'NONE',  ( 10.00000000000000000, 124.9999999999999858, 1.224646799147353651E-15 ) ) ;
#110 = FILL_AREA_STYLE ('',( #278 ) ) ;
#111 = AXIS2_PLACEMENT_3D ( 'NONE', #125, #174, #151 ) ;
#112 = DIRECTION ( 'NONE',  ( 5.878304635907293472E-17, -1.000000000000000000, 0.000000000000000000 ) ) ;
#113 = DIRECTION ( 'NONE',  ( -0.000000000000000000, -1.000000000000000000, -0.000000000000000000 ) ) ;
#114 = ORIENTED_EDGE ( 'NONE', *, *, #78, .T. ) ;
#115 = ORIENTED_EDGE ( 'NONE', *, *, #188, .T. ) ;
#116 = STYLED_ITEM ( 'NONE', ( #191 ), #42 ) ;
#117 = STYLED_ITEM ( 'NONE', ( #148 ), #88 ) ;
#118 = ORIENTED_EDGE ( 'NONE', *, *, #58, .F. ) ;
#119 = ADVANCED_FACE ( 'NONE', ( #271 ), #225, .T. ) ;
#120 = ORIENTED_EDGE ( 'NONE', *, *, #196, .F. ) ;
#121 = DIRECTION ( 'NONE',  ( 0.000000000000000000, -0.000000000000000000, 1.000000000000000000 ) ) ;
#122 = PRESENTATION_LAYER_ASSIGNMENT (  '', '', ( #170 ) ) ;
#123 = DIRECTION ( 'NONE',  ( -0.000000000000000000, -1.000000000000000000, -0.000000000000000000 ) ) ;
#124 = CARTESIAN_POINT ( 'NONE',  ( 0.000000000000000000, 50.00000000000000000, 0.000000000000000000 ) ) ;
#125 = CARTESIAN_POINT ( 'NONE',  ( -4.408728476930469278E-15, 124.9999999999999858, 0.000000000000000000 ) ) ;
#126 = VECTOR ( 'NONE', #128, 1000.000000000000000 ) ;
#127 = DIRECTION ( 'NONE',  ( -0.000000000000000000, -1.000000000000000000, -0.000000000000000000 ) ) ;
#128 = DIRECTION ( 'NONE',  ( -5.878304635907293472E-17, 1.000000000000000000, -0.000000000000000000 ) ) ;
#129 = FACE_OUTER_BOUND ( 'NONE', #8, .T. ) ;
#130 = PRODUCT_DEFINITION ( 'UNKNOWN', '', #82, #63 ) ;
#131 = DIRECTION ( 'NONE',  ( -5.878304635907293472E-17, 1.000000000000000000, 0.000000000000000000 ) ) ;
#132 = CIRCLE ( 'NONE', #49, 10.00000000000000000 ) ;
#133 = AXIS2_PLACEMENT_3D ( 'NONE', #134, #94, #236 ) ;
#134 = CARTESIAN_POINT ( 'NONE',  ( -4.408728476930469278E-15, 124.9999999999999858, 0.000000000000000000 ) ) ;
#135 = EDGE_CURVE ( 'NONE', #68, #221, #166, .T. ) ;
#136 =( NAMED_UNIT ( * ) SI_UNIT ( $, .STERADIAN. ) SOLID_ANGLE_UNIT ( ) );
#137 = PLANE ( 'NONE',  #69 ) ;
#138 =( LENGTH_UNIT ( ) NAMED_UNIT ( * ) SI_UNIT ( .MILLI., .METRE. ) );
#139 = ORIENTED_EDGE ( 'NONE', *, *, #194, .T. ) ;
#140 = DIRECTION ( 'NONE',  ( -5.878304635907293472E-17, 1.000000000000000000, -0.000000000000000000 ) ) ;
#141 =( NAMED_UNIT ( * ) SI_UNIT ( $, .STERADIAN. ) SOLID_ANGLE_UNIT ( ) );
#142 = VECTOR ( 'NONE', #140, 1000.000000000000000 ) ;
#143 = UNCERTAINTY_MEASURE_WITH_UNIT (LENGTH_MEASURE( 1.000000000000000082E-05 ), #73, 'distance_accuracy_value', 'NONE');
#144 = CARTESIAN_POINT ( 'NONE',  ( 0.000000000000000000, 50.00000000000000000, 0.000000000000000000 ) ) ;
#145 = SURFACE_STYLE_FILL_AREA ( #266 ) ;
#146 = CARTESIAN_POINT ( 'NONE',  ( 0.000000000000000000, 50.00000000000000000, 0.000000000000000000 ) ) ;
#147 = DIRECTION ( 'NONE',  ( 0.000000000000000000, 0.000000000000000000, -1.000000000000000000 ) ) ;
#148 = PRESENTATION_STYLE_ASSIGNMENT (( #62 ) ) ;
#149 = CARTESIAN_POINT ( 'NONE',  ( 0.000000000000000000, 50.00000000000000000, 0.000000000000000000 ) ) ;
#150 = CARTESIAN_POINT ( 'NONE',  ( 0.000000000000000000, 0.000000000000000000, -10.00000000000000000 ) ) ;
#151 = DIRECTION ( 'NONE',  ( -1.000000000000000000, 0.000000000000000000, 0.000000000000000000 ) ) ;
#152 = ORIENTED_EDGE ( 'NONE', *, *, #78, .F. ) ;
#153 = CARTESIAN_POINT ( 'NONE',  ( 1.224646799147353256E-15, 50.00000000000000000, 10.00000000000000000 ) ) ;
#154 = LINE ( 'NONE', #54, #126 ) ;
#155 = ADVANCED_BREP_SHAPE_REPRESENTATION ( '59505', ( #203, #206, #270 ), #87 ) ;
#156 = FACE_OUTER_BOUND ( 'NONE', #164, .T. ) ;
#157 = ADVANCED_FACE ( 'NONE', ( #197 ), #173, .T. ) ;
#158 = MECHANICAL_DESIGN_GEOMETRIC_PRESENTATION_REPRESENTATION (  '', ( #116 ), #198 ) ;
#159 = FILL_AREA_STYLE_COLOUR ( '', #251 ) ;
#160 = CIRCLE ( 'NONE', #35, 10.00000000000000000 ) ;
#161 = DIRECTION ( 'NONE',  ( 0.000000000000000000, 0.000000000000000000, -1.000000000000000000 ) ) ;
#162 = SURFACE_STYLE_USAGE ( .BOTH. , #57 ) ;
#163 = DIRECTION ( 'NONE',  ( 0.000000000000000000, 0.000000000000000000, -1.000000000000000000 ) ) ;
#164 = EDGE_LOOP ( 'NONE', ( #17, #13 ) ) ;
#165 = ORIENTED_EDGE ( 'NONE', *, *, #277, .T. ) ;
#166 = CIRCLE ( 'NONE', #184, 10.00000000000000000 ) ;
#167 = PLANE ( 'NONE',  #23 ) ;
#168 = UNCERTAINTY_MEASURE_WITH_UNIT (LENGTH_MEASURE( 1.000000000000000082E-05 ), #267, 'distance_accuracy_value', 'NONE');
#169 =( LENGTH_UNIT ( ) NAMED_UNIT ( * ) SI_UNIT ( .MILLI., .METRE. ) );
#170 = STYLED_ITEM ( 'NONE', ( #230 ), #256 ) ;
#171 = DIRECTION ( 'NONE',  ( -1.000000000000000000, 0.000000000000000000, 0.000000000000000000 ) ) ;
#172 =( NAMED_UNIT ( * ) SI_UNIT ( $, .STERADIAN. ) SOLID_ANGLE_UNIT ( ) );
#173 = PLANE ( 'NONE',  #276 ) ;
#174 = DIRECTION ( 'NONE',  ( -5.878304635907293472E-17, 1.000000000000000000, -0.000000000000000000 ) ) ;
#175 = FILL_AREA_STYLE_COLOUR ( '', #223 ) ;
#176 =( GEOMETRIC_REPRESENTATION_CONTEXT ( 3 ) GLOBAL_UNCERTAINTY_ASSIGNED_CONTEXT ( ( #143 ) ) GLOBAL_UNIT_ASSIGNED_CONTEXT ( ( #73, #177, #172 ) ) REPRESENTATION_CONTEXT ( 'NONE', 'WORKASPACE' ) );
#177 =( NAMED_UNIT ( * ) PLANE_ANGLE_UNIT ( ) SI_UNIT ( $, .RADIAN. ) );
#178 = CARTESIAN_POINT ( 'NONE',  ( 10.00000000000000000, 124.9999999999999858, 0.000000000000000000 ) ) ;
#179 =( NAMED_UNIT ( * ) PLANE_ANGLE_UNIT ( ) SI_UNIT ( $, .RADIAN. ) );
#180 =( LENGTH_UNIT ( ) NAMED_UNIT ( * ) SI_UNIT ( .MILLI., .METRE. ) );
#181 = ORIENTED_EDGE ( 'NONE', *, *, #5, .F. ) ;
#182 = CIRCLE ( 'NONE', #227, 10.00000000000000000 ) ;
#183 = DIRECTION ( 'NONE',  ( 0.000000000000000000, -1.000000000000000000, -0.000000000000000000 ) ) ;
#184 = AXIS2_PLACEMENT_3D ( 'NONE', #124, #123, #105 ) ;
#185 = ORIENTED_EDGE ( 'NONE', *, *, #135, .F. ) ;
#186 = CARTESIAN_POINT ( 'NONE',  ( -10.00000000000000711, 124.9999999999999858, 0.000000000000000000 ) ) ;
#187 = COLOUR_RGB ( '',0.7921568627450980005, 0.8196078431372548767, 0.9333333333333333481 ) ;
#188 = EDGE_CURVE ( 'NONE', #12, #265, #208, .T. ) ;
#189 = DIRECTION ( 'NONE',  ( -0.000000000000000000, -1.000000000000000000, -0.000000000000000000 ) ) ;
#190 = EDGE_LOOP ( 'NONE', ( #99, #139, #216, #80 ) ) ;
#191 = PRESENTATION_STYLE_ASSIGNMENT (( #162 ) ) ;
#192 = VECTOR ( 'NONE', #222, 1000.000000000000000 ) ;
#193 = CARTESIAN_POINT ( 'NONE',  ( 0.000000000000000000, 50.00000000000000000, -10.00000000000000000 ) ) ;
#194 = EDGE_CURVE ( 'NONE', #212, #265, #154, .T. ) ;
#195 = DIRECTION ( 'NONE',  ( -5.878304635907293472E-17, 1.000000000000000000, -0.000000000000000000 ) ) ;
#196 = EDGE_CURVE ( 'NONE', #221, #68, #160, .T. ) ;
#197 = FACE_OUTER_BOUND ( 'NONE', #286, .T. ) ;
#198 =( GEOMETRIC_REPRESENTATION_CONTEXT ( 3 ) GLOBAL_UNCERTAINTY_ASSIGNED_CONTEXT ( ( #168 ) ) GLOBAL_UNIT_ASSIGNED_CONTEXT ( ( #267, #61, #141 ) ) REPRESENTATION_CONTEXT ( 'NONE', 'WORKASPACE' ) );
#199 = PRODUCT ( '59505', '59505', '', ( #207 ) ) ;
#200 = PRESENTATION_LAYER_ASSIGNMENT (  '', '', ( #117 ) ) ;
#201 = LINE ( 'NONE', #40, #10 ) ;
#202 = ADVANCED_FACE ( 'NONE', ( #156 ), #137, .F. ) ;
#203 = MANIFOLD_SOLID_BREP ( 'Revolve - Cutting Edge', #97 ) ;
#204 = CYLINDRICAL_SURFACE ( 'NONE', #274, 10.00000000000000000 ) ;
#205 = DIRECTION ( 'NONE',  ( -1.000000000000000000, -5.878304635907293472E-17, 0.000000000000000000 ) ) ;
#206 = MANIFOLD_SOLID_BREP ( 'Revolve - Tool Body (Straight Shanked)', #232 ) ;
#207 = PRODUCT_CONTEXT ( 'NONE', #103, 'mechanical' ) ;
#208 = CIRCLE ( 'NONE', #33, 10.00000000000000533 ) ;
#209 =( NAMED_UNIT ( * ) SI_UNIT ( $, .STERADIAN. ) SOLID_ANGLE_UNIT ( ) );
#210 =( NAMED_UNIT ( * ) PLANE_ANGLE_UNIT ( ) SI_UNIT ( $, .RADIAN. ) );
#211 = PRESENTATION_STYLE_ASSIGNMENT (( #71 ) ) ;
#212 = VERTEX_POINT ( 'NONE', #41 ) ;
#213 = FILL_AREA_STYLE ('',( #159 ) ) ;
#214 = STYLED_ITEM ( 'NONE', ( #235 ), #203 ) ;
#215 = EDGE_CURVE ( 'NONE', #212, #92, #98, .T. ) ;
#216 = ORIENTED_EDGE ( 'NONE', *, *, #188, .F. ) ;
#217 = AXIS2_PLACEMENT_3D ( 'NONE', #144, #244, #18 ) ;
#218 = COLOUR_RGB ( '',1.000000000000000000, 0.000000000000000000, 0.000000000000000000 ) ;
#219 = ORIENTED_EDGE ( 'NONE', *, *, #104, .F. ) ;
#220 = ORIENTED_EDGE ( 'NONE', *, *, #5, .T. ) ;
#221 = VERTEX_POINT ( 'NONE', #193 ) ;
#222 = DIRECTION ( 'NONE',  ( -0.000000000000000000, -1.000000000000000000, -0.000000000000000000 ) ) ;
#223 = COLOUR_RGB ( '',1.000000000000000000, 0.000000000000000000, 0.000000000000000000 ) ;
#224 = SURFACE_STYLE_FILL_AREA ( #254 ) ;
#225 = CYLINDRICAL_SURFACE ( 'NONE', #14, 10.00000000000000178 ) ;
#226 = CARTESIAN_POINT ( 'NONE',  ( 0.000000000000000000, 0.000000000000000000, 0.000000000000000000 ) ) ;
#227 = AXIS2_PLACEMENT_3D ( 'NONE', #22, #127, #147 ) ;
#228 =( GEOMETRIC_REPRESENTATION_CONTEXT ( 3 ) GLOBAL_UNCERTAINTY_ASSIGNED_CONTEXT ( ( #83 ) ) GLOBAL_UNIT_ASSIGNED_CONTEXT ( ( #169, #272, #249 ) ) REPRESENTATION_CONTEXT ( 'NONE', 'WORKASPACE' ) );
#229 = CARTESIAN_POINT ( 'NONE',  ( 0.000000000000000000, 0.000000000000000000, 0.000000000000000000 ) ) ;
#230 = PRESENTATION_STYLE_ASSIGNMENT (( #51 ) ) ;
#231 =( LENGTH_UNIT ( ) NAMED_UNIT ( * ) SI_UNIT ( .MILLI., .METRE. ) );
#232 = CLOSED_SHELL ( 'NONE', ( #119, #202, #238, #285 ) ) ;
#233 = CIRCLE ( 'NONE', #133, 10.00000000000000533 ) ;
#234 = PRODUCT_RELATED_PRODUCT_CATEGORY ( 'part', '', ( #199 ) ) ;
#235 = PRESENTATION_STYLE_ASSIGNMENT (( #48 ) ) ;
#236 = DIRECTION ( 'NONE',  ( -1.000000000000000000, 0.000000000000000000, 0.000000000000000000 ) ) ;
#237 = CARTESIAN_POINT ( 'NONE',  ( 1.727723269626458946E-32, 50.00000000000000000, 0.000000000000000000 ) ) ;
#238 = ADVANCED_FACE ( 'NONE', ( #65 ), #45, .T. ) ;
#239 =( NAMED_UNIT ( * ) PLANE_ANGLE_UNIT ( ) SI_UNIT ( $, .RADIAN. ) );
#240 = MECHANICAL_DESIGN_GEOMETRIC_PRESENTATION_REPRESENTATION (  '', ( #86 ), #247 ) ;
#241 = EDGE_LOOP ( 'NONE', ( #120, #185 ) ) ;
#242 = EDGE_LOOP ( 'NONE', ( #15, #269, #90, #283 ) ) ;
#243 = UNCERTAINTY_MEASURE_WITH_UNIT (LENGTH_MEASURE( 1.000000000000000082E-05 ), #180, 'distance_accuracy_value', 'NONE');
#244 = DIRECTION ( 'NONE',  ( -5.878304635907293472E-17, 1.000000000000000000, -0.000000000000000000 ) ) ;
#245 = EDGE_LOOP ( 'NONE', ( #219, #100, #114, #118 ) ) ;
#246 = CARTESIAN_POINT ( 'NONE',  ( -4.408728476930469278E-15, 124.9999999999999858, 0.000000000000000000 ) ) ;
#247 =( GEOMETRIC_REPRESENTATION_CONTEXT ( 3 ) GLOBAL_UNCERTAINTY_ASSIGNED_CONTEXT ( ( #79 ) ) GLOBAL_UNIT_ASSIGNED_CONTEXT ( ( #231, #179, #67 ) ) REPRESENTATION_CONTEXT ( 'NONE', 'WORKASPACE' ) );
#248 = CYLINDRICAL_SURFACE ( 'NONE', #55, 10.00000000000000000 ) ;
#249 =( NAMED_UNIT ( * ) SI_UNIT ( $, .STERADIAN. ) SOLID_ANGLE_UNIT ( ) );
#250 = PRESENTATION_LAYER_ASSIGNMENT (  '', '', ( #116 ) ) ;
#251 = COLOUR_RGB ( '',0.7921568627450980005, 0.8196078431372548767, 0.9333333333333333481 ) ;
#252 = FACE_OUTER_BOUND ( 'NONE', #245, .T. ) ;
#253 = SURFACE_STYLE_USAGE ( .BOTH. , #11 ) ;
#254 = FILL_AREA_STYLE ('',( #175 ) ) ;
#255 = DIRECTION ( 'NONE',  ( 0.000000000000000000, 0.000000000000000000, -1.000000000000000000 ) ) ;
#256 = ADVANCED_FACE ( 'NONE', ( #252 ), #204, .T. ) ;
#257 = SHAPE_DEFINITION_REPRESENTATION ( #273, #155 ) ;
#258 = SURFACE_STYLE_FILL_AREA ( #110 ) ;
#259 = DIRECTION ( 'NONE',  ( 0.000000000000000000, 0.000000000000000000, 1.000000000000000000 ) ) ;
#260 = COLOUR_RGB ( '',1.000000000000000000, 0.000000000000000000, 0.000000000000000000 ) ;
#261 = SURFACE_STYLE_FILL_AREA ( #213 ) ;
#262 = CARTESIAN_POINT ( 'NONE',  ( -4.408728476930469278E-15, 124.9999999999999858, 0.000000000000000000 ) ) ;
#263 = DIRECTION ( 'NONE',  ( 1.000000000000000000, 5.878304635907293472E-17, 0.000000000000000000 ) ) ;
#264 = AXIS2_PLACEMENT_3D ( 'NONE', #149, #66, #20 ) ;
#265 = VERTEX_POINT ( 'NONE', #109 ) ;
#266 = FILL_AREA_STYLE ('',( #284 ) ) ;
#267 =( LENGTH_UNIT ( ) NAMED_UNIT ( * ) SI_UNIT ( .MILLI., .METRE. ) );
#268 = PRESENTATION_LAYER_ASSIGNMENT (  '', '', ( #50 ) ) ;
#269 = ORIENTED_EDGE ( 'NONE', *, *, #215, .T. ) ;
#270 = AXIS2_PLACEMENT_3D ( 'NONE', #31, #259, #70 ) ;
#271 = FACE_OUTER_BOUND ( 'NONE', #190, .T. ) ;
#272 =( NAMED_UNIT ( * ) PLANE_ANGLE_UNIT ( ) SI_UNIT ( $, .RADIAN. ) );
#273 = PRODUCT_DEFINITION_SHAPE ( 'NONE', 'NONE',  #130 ) ;
#274 = AXIS2_PLACEMENT_3D ( 'NONE', #9, #282, #161 ) ;
#275 = CARTESIAN_POINT ( 'NONE',  ( 0.000000000000000000, 0.000000000000000000, -10.00000000000000000 ) ) ;
#276 = AXIS2_PLACEMENT_3D ( 'NONE', #229, #183, #52 ) ;
#277 = EDGE_CURVE ( 'NONE', #265, #12, #233, .T. ) ;
#278 = FILL_AREA_STYLE_COLOUR ( '', #187 ) ;
#279 =( NAMED_UNIT ( * ) PLANE_ANGLE_UNIT ( ) SI_UNIT ( $, .RADIAN. ) );
#280 = DIRECTION ( 'NONE',  ( -5.878304635907293472E-17, 1.000000000000000000, -0.000000000000000000 ) ) ;
#281 = DIRECTION ( 'NONE',  ( -1.000000000000000000, 0.000000000000000000, 0.000000000000000000 ) ) ;
#282 = DIRECTION ( 'NONE',  ( -0.000000000000000000, -1.000000000000000000, -0.000000000000000000 ) ) ;
#283 = ORIENTED_EDGE ( 'NONE', *, *, #277, .F. ) ;
#284 = FILL_AREA_STYLE_COLOUR ( '', #260 ) ;
#285 = ADVANCED_FACE ( 'NONE', ( #129 ), #91, .F. ) ;
#286 = EDGE_LOOP ( 'NONE', ( #220, #77 ) ) ;
#287 = VERTEX_POINT ( 'NONE', #72 ) ;
#288 = MECHANICAL_DESIGN_GEOMETRIC_PRESENTATION_REPRESENTATION (  '', ( #50 ), #176 ) ;
ENDSEC;
END-ISO-10303-21;
