ISO-10303-21;
HEADER;
FILE_DESCRIPTION (( 'STEP AP214' ),
    '1' );
FILE_NAME ('Micro_RDC-70.STEP',
    '2021-08-31T17:01:18',
    ( '' ),
    ( '' ),
    'SwSTEP 2.0',
    'SolidWorks 2020',
    '' );
FILE_SCHEMA (( 'AUTOMOTIVE_DESIGN' ));
ENDSEC;

DATA;
#1 = MECHANICAL_DESIGN_GEOMETRIC_PRESENTATION_REPRESENTATION (  '', ( #158 ), #50 ) ;
#2 = ORIENTED_EDGE ( 'NONE', *, *, #104, .F. ) ;
#3 =( NAMED_UNIT ( * ) SI_UNIT ( $, .STERADIAN. ) SOLID_ANGLE_UNIT ( ) );
#4 = DIRECTION ( 'NONE',  ( 0.0000000000000000000, 0.0000000000000000000, -1.000000000000000000 ) ) ;
#5 = DIRECTION ( 'NONE',  ( 0.0000000000000000000, 0.0000000000000000000, -1.000000000000000000 ) ) ;
#6 = VECTOR ( 'NONE', #133, 39.37007874015748143 ) ;
#7 = MANIFOLD_SOLID_BREP ( 'Cut-Revolve1', #126 ) ;
#8 = CARTESIAN_POINT ( 'NONE',  ( -0.1248749999999999166, 1.529277690435257475E-17, 0.7500000000000001110 ) ) ;
#9 =( NAMED_UNIT ( * ) SI_UNIT ( $, .STERADIAN. ) SOLID_ANGLE_UNIT ( ) );
#10 = CARTESIAN_POINT ( 'NONE',  ( 0.0000000000000000000, 0.0000000000000000000, 2.500000000000000000 ) ) ;
#11 = DIRECTION ( 'NONE',  ( 0.0000000000000000000, 0.0000000000000000000, 1.000000000000000000 ) ) ;
#12 = DIRECTION ( 'NONE',  ( 0.0000000000000000000, 0.0000000000000000000, -1.000000000000000000 ) ) ;
#13 = AXIS2_PLACEMENT_3D ( 'NONE', #16, #265, #40 ) ;
#14 = APPLICATION_PROTOCOL_DEFINITION ( 'draft international standard', 'automotive_design', 1998, #19 ) ;
#15 = DIRECTION ( 'NONE',  ( -0.0000000000000000000, -0.0000000000000000000, -1.000000000000000000 ) ) ;
#16 = CARTESIAN_POINT ( 'NONE',  ( 0.0000000000000000000, 0.0000000000000000000, 2.500000000000000000 ) ) ;
#17 = PRODUCT_DEFINITION ( 'UNKNOWN', '', #31, #268 ) ;
#18 = FACE_OUTER_BOUND ( 'NONE', #254, .T. ) ;
#19 = APPLICATION_CONTEXT ( 'automotive_design' ) ;
#20 = CIRCLE ( 'NONE', #295, 0.1248749999999999999 ) ;
#21 = LINE ( 'NONE', #273, #234 ) ;
#22 = ORIENTED_EDGE ( 'NONE', *, *, #101, .F. ) ;
#23 = EDGE_LOOP ( 'NONE', ( #106, #124 ) ) ;
#24 =( GEOMETRIC_REPRESENTATION_CONTEXT ( 3 ) GLOBAL_UNCERTAINTY_ASSIGNED_CONTEXT ( ( #44 ) ) GLOBAL_UNIT_ASSIGNED_CONTEXT ( ( #238, #157, #3 ) ) REPRESENTATION_CONTEXT ( 'NONE', 'WORKASPACE' ) );
#25 = VECTOR ( 'NONE', #61, 39.37007874015748143 ) ;
#26 = EDGE_LOOP ( 'NONE', ( #2, #277, #231, #76 ) ) ;
#27 = ADVANCED_FACE ( 'NONE', ( #284 ), #36, .T. ) ;
#28 = ORIENTED_EDGE ( 'NONE', *, *, #209, .T. ) ;
#29 = EDGE_CURVE ( 'NONE', #113, #102, #196, .T. ) ;
#30 = ORIENTED_EDGE ( 'NONE', *, *, #111, .F. ) ;
#31 = PRODUCT_DEFINITION_FORMATION_WITH_SPECIFIED_SOURCE ( 'ANY', '', #70, .NOT_KNOWN. ) ;
#32 = CARTESIAN_POINT ( 'NONE',  ( 9.184850993605150903E-17, 0.0000000000000000000, 0.7500000000000001110 ) ) ;
#33 = DIRECTION ( 'NONE',  ( -1.000000000000000000, 0.0000000000000000000, 0.0000000000000000000 ) ) ;
#34 = FILL_AREA_STYLE ('',( #78 ) ) ;
#35 = DIRECTION ( 'NONE',  ( 0.0000000000000000000, 0.0000000000000000000, 1.000000000000000000 ) ) ;
#36 = CONICAL_SURFACE ( 'NONE', #94, 0.1100000000000001948, 0.7853981633974517207 ) ;
#37 = APPLICATION_PROTOCOL_DEFINITION ( 'draft international standard', 'automotive_design', 1998, #161 ) ;
#38 = DIRECTION ( 'NONE',  ( -1.224646799147353207E-16, -0.0000000000000000000, -1.000000000000000000 ) ) ;
#39 = SURFACE_STYLE_USAGE ( .BOTH. , #266 ) ;
#40 = DIRECTION ( 'NONE',  ( 1.000000000000000000, 0.0000000000000000000, 0.0000000000000000000 ) ) ;
#41 =( NAMED_UNIT ( * ) PLANE_ANGLE_UNIT ( ) SI_UNIT ( $, .RADIAN. ) );
#42 = DIRECTION ( 'NONE',  ( 0.1736481776669314969, 0.0000000000000000000, 0.9848077530122077983 ) ) ;
#43 = CIRCLE ( 'NONE', #130, 0.1100000000000001948 ) ;
#44 = UNCERTAINTY_MEASURE_WITH_UNIT (LENGTH_MEASURE( 1.000000000000000082E-05 ), #238, 'distance_accuracy_value', 'NONE');
#45 =( NAMED_UNIT ( * ) SI_UNIT ( $, .STERADIAN. ) SOLID_ANGLE_UNIT ( ) );
#46 = CARTESIAN_POINT ( 'NONE',  ( 0.0000000000000000000, 0.0000000000000000000, 2.500000000000000000 ) ) ;
#47 =( CONVERSION_BASED_UNIT ( 'INCH', #91 ) LENGTH_UNIT ( ) NAMED_UNIT ( #80 ) );
#48 = CARTESIAN_POINT ( 'NONE',  ( 0.1250000000000000000, 1.530808498934191509E-17, 2.500000000000000000 ) ) ;
#49 = EDGE_CURVE ( 'NONE', #128, #237, #242, .T. ) ;
#50 =( GEOMETRIC_REPRESENTATION_CONTEXT ( 3 ) GLOBAL_UNCERTAINTY_ASSIGNED_CONTEXT ( ( #226 ) ) GLOBAL_UNIT_ASSIGNED_CONTEXT ( ( #246, #224, #45 ) ) REPRESENTATION_CONTEXT ( 'NONE', 'WORKASPACE' ) );
#51 = CIRCLE ( 'NONE', #99, 0.1248749999999999999 ) ;
#52 = ORIENTED_EDGE ( 'NONE', *, *, #164, .T. ) ;
#53 = ADVANCED_FACE ( 'NONE', ( #263 ), #198, .T. ) ;
#54 = AXIS2_PLACEMENT_3D ( 'NONE', #165, #249, #97 ) ;
#55 = EDGE_LOOP ( 'NONE', ( #151, #252, #147, #30 ) ) ;
#56 = DIRECTION ( 'NONE',  ( -1.224646799147353207E-16, -0.0000000000000000000, -1.000000000000000000 ) ) ;
#57 = CIRCLE ( 'NONE', #13, 0.1100000000000001948 ) ;
#58 = CARTESIAN_POINT ( 'NONE',  ( 0.1248749999999999999, 1.529277690435257475E-17, 0.0000000000000000000 ) ) ;
#59 = LINE ( 'NONE', #156, #105 ) ;
#60 = EDGE_CURVE ( 'NONE', #215, #74, #62, .T. ) ;
#61 = DIRECTION ( 'NONE',  ( -0.1736481776669312749, 2.126576849575784241E-17, 0.9848077530122077983 ) ) ;
#62 = CIRCLE ( 'NONE', #207, 0.1250000000000000000 ) ;
#63 = CARTESIAN_POINT ( 'NONE',  ( 0.1100000000000001948, 1.438959988998141146E-17, 2.500000000000000000 ) ) ;
#64 = DIRECTION ( 'NONE',  ( -1.224646799147353207E-16, -0.0000000000000000000, -1.000000000000000000 ) ) ;
#65 = DIRECTION ( 'NONE',  ( -1.224646799147353207E-16, -0.0000000000000000000, -1.000000000000000000 ) ) ;
#66 = VECTOR ( 'NONE', #227, 39.37007874015748143 ) ;
#67 = CARTESIAN_POINT ( 'NONE',  ( 0.0000000000000000000, 0.0000000000000000000, 0.0000000000000000000 ) ) ;
#68 = CYLINDRICAL_SURFACE ( 'NONE', #54, 0.1250000000000000000 ) ;
#69 = DIRECTION ( 'NONE',  ( 1.000000000000000000, 0.0000000000000000000, 0.0000000000000000000 ) ) ;
#70 = PRODUCT ( 'Micro_RDC-70', 'Micro_RDC-70', '', ( #134 ) ) ;
#71 = CYLINDRICAL_SURFACE ( 'NONE', #291, 0.1248749999999999999 ) ;
#72 = AXIS2_PLACEMENT_3D ( 'NONE', #138, #11, #202 ) ;
#73 = EDGE_LOOP ( 'NONE', ( #191, #52, #173, #253 ) ) ;
#74 = VERTEX_POINT ( 'NONE', #194 ) ;
#75 = EDGE_CURVE ( 'NONE', #113, #215, #195, .T. ) ;
#76 = ORIENTED_EDGE ( 'NONE', *, *, #84, .F. ) ;
#77 = VECTOR ( 'NONE', #56, 39.37007874015748143 ) ;
#78 = FILL_AREA_STYLE_COLOUR ( '', #93 ) ;
#79 =( LENGTH_UNIT ( ) NAMED_UNIT ( * ) SI_UNIT ( $, .METRE. ) );
#80 = DIMENSIONAL_EXPONENTS ( 1.000000000000000000, 0.0000000000000000000, 0.0000000000000000000, 0.0000000000000000000, 0.0000000000000000000, 0.0000000000000000000, 0.0000000000000000000 ) ;
#81 = AXIS2_PLACEMENT_3D ( 'NONE', #287, #15, #162 ) ;
#82 = EDGE_CURVE ( 'NONE', #237, #215, #176, .T. ) ;
#83 = CARTESIAN_POINT ( 'NONE',  ( -0.1250000000000000000, 0.0000000000000000000, 2.500000000000000000 ) ) ;
#84 = EDGE_CURVE ( 'NONE', #98, #216, #20, .T. ) ;
#85 =( LENGTH_UNIT ( ) NAMED_UNIT ( * ) SI_UNIT ( $, .METRE. ) );
#86 = SURFACE_STYLE_FILL_AREA ( #34 ) ;
#87 = AXIS2_PLACEMENT_3D ( 'NONE', #122, #292, #90 ) ;
#88 = DIRECTION ( 'NONE',  ( 1.000000000000000000, 0.0000000000000000000, 0.0000000000000000000 ) ) ;
#89 = FACE_OUTER_BOUND ( 'NONE', #258, .T. ) ;
#90 = DIRECTION ( 'NONE',  ( 1.000000000000000000, 0.0000000000000000000, 0.0000000000000000000 ) ) ;
#91 = LENGTH_MEASURE_WITH_UNIT ( LENGTH_MEASURE( 0.02539999999999999897 ), #204 );
#92 = FACE_OUTER_BOUND ( 'NONE', #129, .T. ) ;
#93 = COLOUR_RGB ( '',0.7921568627450980005, 0.8196078431372548767, 0.9333333333333333481 ) ;
#94 = AXIS2_PLACEMENT_3D ( 'NONE', #260, #4, #240 ) ;
#95 = DIRECTION ( 'NONE',  ( 0.7071067811865499042, 8.659560562354961208E-17, -0.7071067811865451302 ) ) ;
#96 = EDGE_CURVE ( 'NONE', #237, #216, #262, .T. ) ;
#97 = DIRECTION ( 'NONE',  ( -1.000000000000000000, 0.0000000000000000000, 0.0000000000000000000 ) ) ;
#98 = VERTEX_POINT ( 'NONE', #58 ) ;
#99 = AXIS2_PLACEMENT_3D ( 'NONE', #269, #65, #248 ) ;
#100 = VERTEX_POINT ( 'NONE', #154 ) ;
#101 = EDGE_CURVE ( 'NONE', #237, #128, #175, .T. ) ;
#102 = VERTEX_POINT ( 'NONE', #135 ) ;
#103 = EDGE_LOOP ( 'NONE', ( #232, #172 ) ) ;
#104 = EDGE_CURVE ( 'NONE', #128, #98, #59, .T. ) ;
#105 = VECTOR ( 'NONE', #118, 39.37007874015748143 ) ;
#106 = ORIENTED_EDGE ( 'NONE', *, *, #243, .T. ) ;
#107 = CARTESIAN_POINT ( 'NONE',  ( 9.193532640014472135E-17, 0.0000000000000000000, 0.7507089102274522308 ) ) ;
#108 = ADVANCED_FACE ( 'NONE', ( #18 ), #276, .T. ) ;
#109 = DIRECTION ( 'NONE',  ( -1.000000000000000000, 0.0000000000000000000, 0.0000000000000000000 ) ) ;
#110 = AXIS2_PLACEMENT_3D ( 'NONE', #205, #186, #160 ) ;
#111 = EDGE_CURVE ( 'NONE', #102, #113, #132, .T. ) ;
#112 = PRESENTATION_STYLE_ASSIGNMENT (( #219 ) ) ;
#113 = VERTEX_POINT ( 'NONE', #187 ) ;
#114 = SURFACE_STYLE_FILL_AREA ( #184 ) ;
#115 = DIRECTION ( 'NONE',  ( 1.000000000000000000, 0.0000000000000000000, -0.0000000000000000000 ) ) ;
#116 = STYLED_ITEM ( 'NONE', ( #112 ), #7 ) ;
#117 = LENGTH_MEASURE_WITH_UNIT ( LENGTH_MEASURE( 0.02539999999999999897 ), #85 );
#118 = DIRECTION ( 'NONE',  ( -1.224646799147353207E-16, -0.0000000000000000000, -1.000000000000000000 ) ) ;
#119 = LINE ( 'NONE', #48, #66 ) ;
#120 = FILL_AREA_STYLE_COLOUR ( '', #280 ) ;
#121 = DIRECTION ( 'NONE',  ( 1.000000000000000000, 0.0000000000000000000, 0.0000000000000000000 ) ) ;
#122 = CARTESIAN_POINT ( 'NONE',  ( 9.184850993605150903E-17, 0.0000000000000000000, 0.7500000000000001110 ) ) ;
#123 = DIRECTION ( 'NONE',  ( -1.224646799147353207E-16, -0.0000000000000000000, -1.000000000000000000 ) ) ;
#124 = ORIENTED_EDGE ( 'NONE', *, *, #84, .T. ) ;
#125 = EDGE_LOOP ( 'NONE', ( #127, #296, #169, #235 ) ) ;
#126 = CLOSED_SHELL ( 'NONE', ( #236, #108, #233, #152, #259, #53, #27, #142, #289, #178 ) ) ;
#127 = ORIENTED_EDGE ( 'NONE', *, *, #101, .T. ) ;
#128 = VERTEX_POINT ( 'NONE', #146 ) ;
#129 = EDGE_LOOP ( 'NONE', ( #285, #189, #299, #170 ) ) ;
#130 = AXIS2_PLACEMENT_3D ( 'NONE', #46, #143, #121 ) ;
#131 = LENGTH_MEASURE_WITH_UNIT ( LENGTH_MEASURE( 0.02539999999999999897 ), #79 );
#132 = CIRCLE ( 'NONE', #218, 0.1250000000000000000 ) ;
#133 = DIRECTION ( 'NONE',  ( -0.0000000000000000000, -0.0000000000000000000, -1.000000000000000000 ) ) ;
#134 = PRODUCT_CONTEXT ( 'NONE', #161, 'mechanical' ) ;
#135 = CARTESIAN_POINT ( 'NONE',  ( 0.1250000000000000000, 1.530808498934191509E-17, 2.485000000000000320 ) ) ;
#136 = PRESENTATION_STYLE_ASSIGNMENT (( #39 ) ) ;
#137 = CARTESIAN_POINT ( 'NONE',  ( -0.1249999999999999167, 0.0000000000000000000, 0.7507089102274522308 ) ) ;
#138 = CARTESIAN_POINT ( 'NONE',  ( 0.0000000000000000000, 0.0000000000000000000, 0.0000000000000000000 ) ) ;
#139 = AXIS2_PLACEMENT_3D ( 'NONE', #32, #282, #109 ) ;
#140 = CARTESIAN_POINT ( 'NONE',  ( 0.1248750000000000970, 0.0000000000000000000, 0.7500000000000001110 ) ) ;
#141 = DIMENSIONAL_EXPONENTS ( 1.000000000000000000, 0.0000000000000000000, 0.0000000000000000000, 0.0000000000000000000, 0.0000000000000000000, 0.0000000000000000000, 0.0000000000000000000 ) ;
#142 = ADVANCED_FACE ( 'NONE', ( #272 ), #192, .T. ) ;
#143 = DIRECTION ( 'NONE',  ( 0.0000000000000000000, 0.0000000000000000000, 1.000000000000000000 ) ) ;
#144 = UNCERTAINTY_MEASURE_WITH_UNIT (LENGTH_MEASURE( 1.000000000000000082E-05 ), #47, 'distance_accuracy_value', 'NONE');
#145 = DIRECTION ( 'NONE',  ( -1.000000000000000000, 0.0000000000000000000, 0.0000000000000000000 ) ) ;
#146 = CARTESIAN_POINT ( 'NONE',  ( 0.1248750000000000970, 0.0000000000000000000, 0.7500000000000001110 ) ) ;
#147 = ORIENTED_EDGE ( 'NONE', *, *, #281, .T. ) ;
#148 = ORIENTED_EDGE ( 'NONE', *, *, #200, .T. ) ;
#149 = EDGE_LOOP ( 'NONE', ( #168, #255, #28, #148 ) ) ;
#150 = AXIS2_PLACEMENT_3D ( 'NONE', #290, #123, #69 ) ;
#151 = ORIENTED_EDGE ( 'NONE', *, *, #190, .F. ) ;
#152 = ADVANCED_FACE ( 'NONE', ( #225 ), #245, .T. ) ;
#153 = VECTOR ( 'NONE', #42, 39.37007874015748143 ) ;
#154 = CARTESIAN_POINT ( 'NONE',  ( -0.1100000000000001948, 0.0000000000000000000, 2.500000000000000000 ) ) ;
#155 = DIMENSIONAL_EXPONENTS ( 1.000000000000000000, 0.0000000000000000000, 0.0000000000000000000, 0.0000000000000000000, 0.0000000000000000000, 0.0000000000000000000, 0.0000000000000000000 ) ;
#156 = CARTESIAN_POINT ( 'NONE',  ( 0.1248749999999999999, 1.529277690435257475E-17, -1.529277690435257475E-17 ) ) ;
#157 =( NAMED_UNIT ( * ) PLANE_ANGLE_UNIT ( ) SI_UNIT ( $, .RADIAN. ) );
#158 = STYLED_ITEM ( 'NONE', ( #136 ), #297 ) ;
#159 = CARTESIAN_POINT ( 'NONE',  ( 1.872825028598994811E-33, 0.0000000000000000000, 1.529277690435257475E-17 ) ) ;
#160 = DIRECTION ( 'NONE',  ( 1.000000000000000000, 0.0000000000000000000, -0.0000000000000000000 ) ) ;
#161 = APPLICATION_CONTEXT ( 'automotive_design' ) ;
#162 = DIRECTION ( 'NONE',  ( -1.000000000000000000, 0.0000000000000000000, 0.0000000000000000000 ) ) ;
#163 = PLANE ( 'NONE',  #110 ) ;
#164 = EDGE_CURVE ( 'NONE', #102, #74, #119, .T. ) ;
#165 = CARTESIAN_POINT ( 'NONE',  ( 0.0000000000000000000, 0.0000000000000000000, 2.500000000000000000 ) ) ;
#166 = DIRECTION ( 'NONE',  ( 1.224646799147353207E-16, 0.0000000000000000000, 1.000000000000000000 ) ) ;
#167 =( GEOMETRIC_REPRESENTATION_CONTEXT ( 3 ) GLOBAL_UNCERTAINTY_ASSIGNED_CONTEXT ( ( #144 ) ) GLOBAL_UNIT_ASSIGNED_CONTEXT ( ( #47, #41, #9 ) ) REPRESENTATION_CONTEXT ( 'NONE', 'WORKASPACE' ) );
#168 = ORIENTED_EDGE ( 'NONE', *, *, #82, .F. ) ;
#169 = ORIENTED_EDGE ( 'NONE', *, *, #243, .F. ) ;
#170 = ORIENTED_EDGE ( 'NONE', *, *, #200, .F. ) ;
#171 = ORIENTED_EDGE ( 'NONE', *, *, #281, .F. ) ;
#172 = ORIENTED_EDGE ( 'NONE', *, *, #214, .T. ) ;
#173 = ORIENTED_EDGE ( 'NONE', *, *, #60, .F. ) ;
#174 = DIRECTION ( 'NONE',  ( -1.224646799147353207E-16, -0.0000000000000000000, -1.000000000000000000 ) ) ;
#175 = CIRCLE ( 'NONE', #270, 0.1248749999999999999 ) ;
#176 = LINE ( 'NONE', #8, #25 ) ;
#177 = DIRECTION ( 'NONE',  ( 1.000000000000000000, 0.0000000000000000000, 0.0000000000000000000 ) ) ;
#178 = ADVANCED_FACE ( 'NONE', ( #180 ), #163, .F. ) ;
#179 = CIRCLE ( 'NONE', #150, 0.1250000000000000000 ) ;
#180 = FACE_OUTER_BOUND ( 'NONE', #23, .T. ) ;
#181 = DIRECTION ( 'NONE',  ( -1.000000000000000000, 0.0000000000000000000, 1.224646799147353454E-16 ) ) ;
#182 = FACE_OUTER_BOUND ( 'NONE', #125, .T. ) ;
#183 = DIRECTION ( 'NONE',  ( -1.000000000000000000, 0.0000000000000000000, 1.224646799147353454E-16 ) ) ;
#184 = FILL_AREA_STYLE ('',( #120 ) ) ;
#185 = AXIS2_PLACEMENT_3D ( 'NONE', #208, #166, #250 ) ;
#186 = DIRECTION ( 'NONE',  ( 0.0000000000000000000, 0.0000000000000000000, 1.000000000000000000 ) ) ;
#187 = CARTESIAN_POINT ( 'NONE',  ( -0.1250000000000000000, 0.0000000000000000000, 2.485000000000000320 ) ) ;
#188 = CARTESIAN_POINT ( 'NONE',  ( -0.1100000000000001948, 0.0000000000000000000, 2.500000000000000000 ) ) ;
#189 = ORIENTED_EDGE ( 'NONE', *, *, #111, .T. ) ;
#190 = EDGE_CURVE ( 'NONE', #213, #102, #21, .T. ) ;
#191 = ORIENTED_EDGE ( 'NONE', *, *, #29, .T. ) ;
#192 = CONICAL_SURFACE ( 'NONE', #87, 0.1248749999999999999, 0.1745329251994340025 ) ;
#193 = ORIENTED_EDGE ( 'NONE', *, *, #60, .T. ) ;
#194 = CARTESIAN_POINT ( 'NONE',  ( 0.1250000000000000833, 1.530808498934192433E-17, 0.7507089102274522308 ) ) ;
#195 = LINE ( 'NONE', #83, #6 ) ;
#196 = CIRCLE ( 'NONE', #212, 0.1250000000000000000 ) ;
#197 = AXIS2_PLACEMENT_3D ( 'NONE', #10, #35, #115 ) ;
#198 = PLANE ( 'NONE',  #197 ) ;
#199 = DIRECTION ( 'NONE',  ( 1.000000000000000000, 0.0000000000000000000, 0.0000000000000000000 ) ) ;
#200 = EDGE_CURVE ( 'NONE', #74, #215, #179, .T. ) ;
#201 = PRESENTATION_LAYER_ASSIGNMENT (  '', '', ( #158 ) ) ;
#202 = DIRECTION ( 'NONE',  ( 1.000000000000000000, 0.0000000000000000000, 0.0000000000000000000 ) ) ;
#203 = CARTESIAN_POINT ( 'NONE',  ( 0.0000000000000000000, 0.0000000000000000000, 2.485000000000000320 ) ) ;
#204 =( LENGTH_UNIT ( ) NAMED_UNIT ( * ) SI_UNIT ( $, .METRE. ) );
#205 = CARTESIAN_POINT ( 'NONE',  ( 0.0000000000000000000, 0.0000000000000000000, 0.0000000000000000000 ) ) ;
#206 = DIRECTION ( 'NONE',  ( 0.0000000000000000000, 0.0000000000000000000, -1.000000000000000000 ) ) ;
#207 = AXIS2_PLACEMENT_3D ( 'NONE', #107, #264, #177 ) ;
#208 = CARTESIAN_POINT ( 'NONE',  ( 9.184850993605150903E-17, 0.0000000000000000000, 0.7500000000000001110 ) ) ;
#209 = EDGE_CURVE ( 'NONE', #128, #74, #230, .T. ) ;
#210 = FACE_OUTER_BOUND ( 'NONE', #26, .T. ) ;
#211 = ORIENTED_EDGE ( 'NONE', *, *, #29, .F. ) ;
#212 = AXIS2_PLACEMENT_3D ( 'NONE', #241, #5, #199 ) ;
#213 = VERTEX_POINT ( 'NONE', #63 ) ;
#214 = EDGE_CURVE ( 'NONE', #213, #100, #57, .T. ) ;
#215 = VERTEX_POINT ( 'NONE', #137 ) ;
#216 = VERTEX_POINT ( 'NONE', #222 ) ;
#217 = ORIENTED_EDGE ( 'NONE', *, *, #82, .T. ) ;
#218 = AXIS2_PLACEMENT_3D ( 'NONE', #203, #206, #88 ) ;
#219 = SURFACE_STYLE_USAGE ( .BOTH. , #221 ) ;
#220 = VECTOR ( 'NONE', #293, 39.37007874015748143 ) ;
#221 = SURFACE_SIDE_STYLE ('',( #86 ) ) ;
#222 = CARTESIAN_POINT ( 'NONE',  ( -0.1248749999999999999, 0.0000000000000000000, 3.058555380870514950E-17 ) ) ;
#223 = CONICAL_SURFACE ( 'NONE', #286, 0.1100000000000001948, 0.7853981633974517207 ) ;
#224 =( NAMED_UNIT ( * ) PLANE_ANGLE_UNIT ( ) SI_UNIT ( $, .RADIAN. ) );
#225 = FACE_OUTER_BOUND ( 'NONE', #73, .T. ) ;
#226 = UNCERTAINTY_MEASURE_WITH_UNIT (LENGTH_MEASURE( 1.000000000000000082E-05 ), #246, 'distance_accuracy_value', 'NONE');
#227 = DIRECTION ( 'NONE',  ( -0.0000000000000000000, -0.0000000000000000000, -1.000000000000000000 ) ) ;
#228 = DIRECTION ( 'NONE',  ( -1.224646799147353207E-16, -0.0000000000000000000, -1.000000000000000000 ) ) ;
#229 = CARTESIAN_POINT ( 'NONE',  ( 0.0000000000000000000, 0.0000000000000000000, 2.500000000000000000 ) ) ;
#230 = LINE ( 'NONE', #140, #153 ) ;
#231 = ORIENTED_EDGE ( 'NONE', *, *, #96, .T. ) ;
#232 = ORIENTED_EDGE ( 'NONE', *, *, #257, .T. ) ;
#233 = ADVANCED_FACE ( 'NONE', ( #89 ), #223, .T. ) ;
#234 = VECTOR ( 'NONE', #95, 39.37007874015748143 ) ;
#235 = ORIENTED_EDGE ( 'NONE', *, *, #96, .F. ) ;
#236 = ADVANCED_FACE ( 'NONE', ( #182 ), #267, .T. ) ;
#237 = VERTEX_POINT ( 'NONE', #247 ) ;
#238 =( CONVERSION_BASED_UNIT ( 'INCH', #131 ) LENGTH_UNIT ( ) NAMED_UNIT ( #141 ) );
#239 = CARTESIAN_POINT ( 'NONE',  ( 9.184850993605150903E-17, 0.0000000000000000000, 0.7500000000000001110 ) ) ;
#240 = DIRECTION ( 'NONE',  ( -1.000000000000000000, 0.0000000000000000000, 0.0000000000000000000 ) ) ;
#241 = CARTESIAN_POINT ( 'NONE',  ( 0.0000000000000000000, 0.0000000000000000000, 2.485000000000000320 ) ) ;
#242 = CIRCLE ( 'NONE', #139, 0.1248749999999999999 ) ;
#243 = EDGE_CURVE ( 'NONE', #216, #98, #51, .T. ) ;
#244 = DIRECTION ( 'NONE',  ( -1.000000000000000000, 0.0000000000000000000, 1.224646799147353454E-16 ) ) ;
#245 = CYLINDRICAL_SURFACE ( 'NONE', #81, 0.1250000000000000000 ) ;
#246 =( CONVERSION_BASED_UNIT ( 'INCH', #117 ) LENGTH_UNIT ( ) NAMED_UNIT ( #155 ) );
#247 = CARTESIAN_POINT ( 'NONE',  ( -0.1248749999999999166, 1.530043094684724646E-17, 0.7500000000000001110 ) ) ;
#248 = DIRECTION ( 'NONE',  ( -1.000000000000000000, 0.0000000000000000000, 1.224646799147353454E-16 ) ) ;
#249 = DIRECTION ( 'NONE',  ( -0.0000000000000000000, -0.0000000000000000000, -1.000000000000000000 ) ) ;
#250 = DIRECTION ( 'NONE',  ( 1.000000000000000000, 0.0000000000000000000, 0.0000000000000000000 ) ) ;
#251 = AXIS2_PLACEMENT_3D ( 'NONE', #288, #64, #183 ) ;
#252 = ORIENTED_EDGE ( 'NONE', *, *, #257, .F. ) ;
#253 = ORIENTED_EDGE ( 'NONE', *, *, #75, .F. ) ;
#254 = EDGE_LOOP ( 'NONE', ( #22, #217, #193, #294 ) ) ;
#255 = ORIENTED_EDGE ( 'NONE', *, *, #49, .F. ) ;
#256 = PRODUCT_RELATED_PRODUCT_CATEGORY ( 'part', '', ( #70 ) ) ;
#257 = EDGE_CURVE ( 'NONE', #100, #213, #43, .T. ) ;
#258 = EDGE_LOOP ( 'NONE', ( #278, #279, #211, #171 ) ) ;
#259 = ADVANCED_FACE ( 'NONE', ( #92 ), #68, .T. ) ;
#260 = CARTESIAN_POINT ( 'NONE',  ( 0.0000000000000000000, 0.0000000000000000000, 2.500000000000000000 ) ) ;
#261 = CARTESIAN_POINT ( 'NONE',  ( -0.1248749999999999999, 0.0000000000000000000, 1.529277690435257475E-17 ) ) ;
#262 = LINE ( 'NONE', #261, #77 ) ;
#263 = FACE_OUTER_BOUND ( 'NONE', #103, .T. ) ;
#264 = DIRECTION ( 'NONE',  ( -1.224646799147353207E-16, -0.0000000000000000000, -1.000000000000000000 ) ) ;
#265 = DIRECTION ( 'NONE',  ( 0.0000000000000000000, 0.0000000000000000000, 1.000000000000000000 ) ) ;
#266 = SURFACE_SIDE_STYLE ('',( #114 ) ) ;
#267 = CYLINDRICAL_SURFACE ( 'NONE', #251, 0.1248749999999999999 ) ;
#268 = PRODUCT_DEFINITION_CONTEXT ( 'detailed design', #19, 'design' ) ;
#269 = CARTESIAN_POINT ( 'NONE',  ( 1.872825028598994811E-33, 0.0000000000000000000, 1.529277690435257475E-17 ) ) ;
#270 = AXIS2_PLACEMENT_3D ( 'NONE', #239, #38, #33 ) ;
#271 = SHAPE_DEFINITION_REPRESENTATION ( #298, #297 ) ;
#272 = FACE_OUTER_BOUND ( 'NONE', #149, .T. ) ;
#273 = CARTESIAN_POINT ( 'NONE',  ( 0.1100000000000001948, 1.347111479062090784E-17, 2.500000000000000000 ) ) ;
#274 = LINE ( 'NONE', #188, #220 ) ;
#275 = MECHANICAL_DESIGN_GEOMETRIC_PRESENTATION_REPRESENTATION (  '', ( #116 ), #24 ) ;
#276 = CONICAL_SURFACE ( 'NONE', #185, 0.1248749999999999999, 0.1745329251994340025 ) ;
#277 = ORIENTED_EDGE ( 'NONE', *, *, #49, .T. ) ;
#278 = ORIENTED_EDGE ( 'NONE', *, *, #214, .F. ) ;
#279 = ORIENTED_EDGE ( 'NONE', *, *, #190, .T. ) ;
#280 = COLOUR_RGB ( '',0.7921568627450980005, 0.8196078431372548767, 0.9333333333333333481 ) ;
#281 = EDGE_CURVE ( 'NONE', #100, #113, #274, .T. ) ;
#282 = DIRECTION ( 'NONE',  ( -1.224646799147353207E-16, -0.0000000000000000000, -1.000000000000000000 ) ) ;
#283 = PRESENTATION_LAYER_ASSIGNMENT (  '', '', ( #116 ) ) ;
#284 = FACE_OUTER_BOUND ( 'NONE', #55, .T. ) ;
#285 = ORIENTED_EDGE ( 'NONE', *, *, #164, .F. ) ;
#286 = AXIS2_PLACEMENT_3D ( 'NONE', #229, #12, #145 ) ;
#287 = CARTESIAN_POINT ( 'NONE',  ( 0.0000000000000000000, 0.0000000000000000000, 2.500000000000000000 ) ) ;
#288 = CARTESIAN_POINT ( 'NONE',  ( 0.0000000000000000000, 0.0000000000000000000, 0.0000000000000000000 ) ) ;
#289 = ADVANCED_FACE ( 'NONE', ( #210 ), #71, .T. ) ;
#290 = CARTESIAN_POINT ( 'NONE',  ( 9.193532640014472135E-17, 0.0000000000000000000, 0.7507089102274522308 ) ) ;
#291 = AXIS2_PLACEMENT_3D ( 'NONE', #67, #228, #181 ) ;
#292 = DIRECTION ( 'NONE',  ( 1.224646799147353207E-16, 0.0000000000000000000, 1.000000000000000000 ) ) ;
#293 = DIRECTION ( 'NONE',  ( -0.7071067811865499042, 0.0000000000000000000, -0.7071067811865451302 ) ) ;
#294 = ORIENTED_EDGE ( 'NONE', *, *, #209, .F. ) ;
#295 = AXIS2_PLACEMENT_3D ( 'NONE', #159, #174, #244 ) ;
#296 = ORIENTED_EDGE ( 'NONE', *, *, #104, .T. ) ;
#297 = ADVANCED_BREP_SHAPE_REPRESENTATION ( 'Micro_RDC-70', ( #7, #72 ), #167 ) ;
#298 = PRODUCT_DEFINITION_SHAPE ( 'NONE', 'NONE',  #17 ) ;
#299 = ORIENTED_EDGE ( 'NONE', *, *, #75, .T. ) ;
ENDSEC;
END-ISO-10303-21;
