ISO-10303-21;
HEADER;
FILE_DESCRIPTION (( 'STEP AP214' ),
    '1' );
FILE_NAME ('Micro_BMSM-004-2.STEP',
    '2021-09-03T15:25:45',
    ( '' ),
    ( '' ),
    'SwSTEP 2.0',
    'SolidWorks 2020',
    '' );
FILE_SCHEMA (( 'AUTOMOTIVE_DESIGN' ));
ENDSEC;

DATA;
#1 = DIRECTION ( 'NONE',  ( 0.0000000000000000000, 1.000000000000000000, 0.0000000000000000000 ) ) ;
#2 = CARTESIAN_POINT ( 'NONE',  ( 9.633226027589772019E-19, 0.0000000000000000000, 0.007866125999999999327 ) ) ;
#3 = DIRECTION ( 'NONE',  ( -1.224646799147353207E-16, -0.0000000000000000000, -1.000000000000000000 ) ) ;
#4 = EDGE_CURVE ( 'NONE', #12, #92, #204, .T. ) ;
#5 = ORIENTED_EDGE ( 'NONE', *, *, #298, .F. ) ;
#6 = DIRECTION ( 'NONE',  ( 0.0000000000000000000, 0.0000000000000000000, -1.000000000000000000 ) ) ;
#7 = CLOSED_SHELL ( 'NONE', ( #34, #188, #82, #191, #180, #153, #128, #215, #65, #311, #59 ) ) ;
#8 = VECTOR ( 'NONE', #44, 39.37007874015748143 ) ;
#9 = SURFACE_STYLE_FILL_AREA ( #162 ) ;
#10 = PRESENTATION_LAYER_ASSIGNMENT (  '', '', ( #151 ) ) ;
#11 = EDGE_CURVE ( 'NONE', #238, #66, #88, .T. ) ;
#12 = VERTEX_POINT ( 'NONE', #301 ) ;
#13 = ORIENTED_EDGE ( 'NONE', *, *, #120, .F. ) ;
#14 = MECHANICAL_DESIGN_GEOMETRIC_PRESENTATION_REPRESENTATION (  '', ( #134 ), #268 ) ;
#15 = DIRECTION ( 'NONE',  ( -1.000000000000000000, 0.0000000000000000000, 1.356612038155888783E-16 ) ) ;
#16 = APPLICATION_CONTEXT ( 'automotive_design' ) ;
#17 = LINE ( 'NONE', #317, #289 ) ;
#18 = CARTESIAN_POINT ( 'NONE',  ( 2.892860668945877938E-18, 0.0000000000000000000, 0.02362200000000000064 ) ) ;
#19 = VERTEX_POINT ( 'NONE', #146 ) ;
#20 = AXIS2_PLACEMENT_3D ( 'NONE', #89, #271, #256 ) ;
#21 = PLANE ( 'NONE',  #169 ) ;
#22 = ORIENTED_EDGE ( 'NONE', *, *, #104, .F. ) ;
#23 = FACE_OUTER_BOUND ( 'NONE', #252, .T. ) ;
#24 = CARTESIAN_POINT ( 'NONE',  ( 0.007866125999999999327, 9.633226027589772019E-19, 0.007866125999999997592 ) ) ;
#25 = DIRECTION ( 'NONE',  ( 1.000000000000000000, 0.0000000000000000000, 0.0000000000000000000 ) ) ;
#26 = EDGE_LOOP ( 'NONE', ( #22, #13, #54, #96 ) ) ;
#27 = LINE ( 'NONE', #73, #167 ) ;
#28 = AXIS2_PLACEMENT_3D ( 'NONE', #32, #250, #127 ) ;
#29 = FACE_OUTER_BOUND ( 'NONE', #320, .T. ) ;
#30 = DIRECTION ( 'NONE',  ( -0.7071067811865482389, 0.0000000000000000000, -0.7071067811865469066 ) ) ;
#31 = ORIENTED_EDGE ( 'NONE', *, *, #120, .T. ) ;
#32 = CARTESIAN_POINT ( 'NONE',  ( 0.0000000000000000000, 0.0000000000000000000, 1.496062999999999921 ) ) ;
#33 = CIRCLE ( 'NONE', #70, 0.05905500000000000332 ) ;
#34 = ADVANCED_FACE ( 'NONE', ( #76 ), #143, .T. ) ;
#35 = ORIENTED_EDGE ( 'NONE', *, *, #4, .T. ) ;
#36 = CIRCLE ( 'NONE', #229, 0.007866125999999999327 ) ;
#37 = DIRECTION ( 'NONE',  ( 1.224646799147353207E-16, 0.0000000000000000000, 1.000000000000000000 ) ) ;
#38 = DIRECTION ( 'NONE',  ( 0.0000000000000000000, 0.0000000000000000000, 1.000000000000000000 ) ) ;
#39 = CARTESIAN_POINT ( 'NONE',  ( -0.05905500000000000332, 0.0000000000000000000, 1.481062999999999574 ) ) ;
#40 =( LENGTH_UNIT ( ) NAMED_UNIT ( * ) SI_UNIT ( $, .METRE. ) );
#41 = CIRCLE ( 'NONE', #313, 0.05905500000000000332 ) ;
#42 = DIRECTION ( 'NONE',  ( -1.000000000000000000, 0.0000000000000000000, 1.356612038155888783E-16 ) ) ;
#43 = EDGE_LOOP ( 'NONE', ( #52, #278, #187, #233 ) ) ;
#44 = DIRECTION ( 'NONE',  ( -1.224646799147353207E-16, -0.0000000000000000000, -1.000000000000000000 ) ) ;
#45 = DIRECTION ( 'NONE',  ( 1.224646799147353207E-16, 0.0000000000000000000, 1.000000000000000000 ) ) ;
#46 = DIRECTION ( 'NONE',  ( -1.224646799147353207E-16, -0.0000000000000000000, -1.000000000000000000 ) ) ;
#47 = ORIENTED_EDGE ( 'NONE', *, *, #104, .T. ) ;
#48 = EDGE_CURVE ( 'NONE', #117, #218, #27, .T. ) ;
#49 = EDGE_LOOP ( 'NONE', ( #253, #165, #35, #304 ) ) ;
#50 = CARTESIAN_POINT ( 'NONE',  ( 0.007866125999999999327, 9.633226027589772019E-19, -9.633226027589772019E-19 ) ) ;
#51 = AXIS2_PLACEMENT_3D ( 'NONE', #176, #273, #222 ) ;
#52 = ORIENTED_EDGE ( 'NONE', *, *, #106, .T. ) ;
#53 = CARTESIAN_POINT ( 'NONE',  ( -0.007866125999999999327, 0.0000000000000000000, 9.633226027589772019E-19 ) ) ;
#54 = ORIENTED_EDGE ( 'NONE', *, *, #166, .T. ) ;
#55 = SURFACE_SIDE_STYLE ('',( #9 ) ) ;
#56 = SHAPE_DEFINITION_REPRESENTATION ( #308, #267 ) ;
#57 =( GEOMETRIC_REPRESENTATION_CONTEXT ( 3 ) GLOBAL_UNCERTAINTY_ASSIGNED_CONTEXT ( ( #264 ) ) GLOBAL_UNIT_ASSIGNED_CONTEXT ( ( #307, #234, #97 ) ) REPRESENTATION_CONTEXT ( 'NONE', 'WORKASPACE' ) );
#58 = UNCERTAINTY_MEASURE_WITH_UNIT (LENGTH_MEASURE( 1.000000000000000082E-05 ), #296, 'distance_accuracy_value', 'NONE');
#59 = ADVANCED_FACE ( 'NONE', ( #284 ), #324, .T. ) ;
#60 = VECTOR ( 'NONE', #263, 39.37007874015748143 ) ;
#61 = LINE ( 'NONE', #137, #286 ) ;
#62 = ORIENTED_EDGE ( 'NONE', *, *, #217, .F. ) ;
#63 = CONICAL_SURFACE ( 'NONE', #211, 0.04405499999999973326, 0.7853981633974491672 ) ;
#64 = CARTESIAN_POINT ( 'NONE',  ( 0.007866126000000002796, 0.0000000000000000000, 0.02362200000000000064 ) ) ;
#65 = ADVANCED_FACE ( 'NONE', ( #306 ), #236, .T. ) ;
#66 = VERTEX_POINT ( 'NONE', #227 ) ;
#67 = VERTEX_POINT ( 'NONE', #282 ) ;
#68 = LINE ( 'NONE', #53, #8 ) ;
#69 = CARTESIAN_POINT ( 'NONE',  ( -0.04405499999999973326, 0.0000000000000000000, 1.496062999999999921 ) ) ;
#70 = AXIS2_PLACEMENT_3D ( 'NONE', #71, #80, #210 ) ;
#71 = CARTESIAN_POINT ( 'NONE',  ( 0.0000000000000000000, 0.0000000000000000000, 1.481062999999999574 ) ) ;
#72 = EDGE_CURVE ( 'NONE', #232, #66, #184, .T. ) ;
#73 = CARTESIAN_POINT ( 'NONE',  ( 0.04405499999999973326, 5.395181473643630390E-18, 1.496062999999999921 ) ) ;
#74 = ORIENTED_EDGE ( 'NONE', *, *, #276, .F. ) ;
#75 = DIRECTION ( 'NONE',  ( 0.0000000000000000000, 0.0000000000000000000, -1.000000000000000000 ) ) ;
#76 = FACE_OUTER_BOUND ( 'NONE', #171, .T. ) ;
#77 = FACE_OUTER_BOUND ( 'NONE', #43, .T. ) ;
#78 = AXIS2_PLACEMENT_3D ( 'NONE', #85, #37, #194 ) ;
#79 = ORIENTED_EDGE ( 'NONE', *, *, #217, .T. ) ;
#80 = DIRECTION ( 'NONE',  ( 0.0000000000000000000, 0.0000000000000000000, -1.000000000000000000 ) ) ;
#81 = VECTOR ( 'NONE', #149, 39.37007874015748143 ) ;
#82 = ADVANCED_FACE ( 'NONE', ( #23 ), #274, .T. ) ;
#83 = CARTESIAN_POINT ( 'NONE',  ( -0.05905499999999996169, 0.0000000000000000000, 0.3139285304829000367 ) ) ;
#84 = PRODUCT_DEFINITION_CONTEXT ( 'detailed design', #16, 'design' ) ;
#85 = CARTESIAN_POINT ( 'NONE',  ( 2.892860668945877938E-18, 0.0000000000000000000, 0.02362200000000000064 ) ) ;
#86 = ORIENTED_EDGE ( 'NONE', *, *, #270, .T. ) ;
#87 = ORIENTED_EDGE ( 'NONE', *, *, #111, .T. ) ;
#88 = CIRCLE ( 'NONE', #123, 0.007866125999999999327 ) ;
#89 = CARTESIAN_POINT ( 'NONE',  ( 0.0000000000000000000, 0.0000000000000000000, 1.496062999999999921 ) ) ;
#90 = CIRCLE ( 'NONE', #294, 0.007866125999999999327 ) ;
#91 = DIRECTION ( 'NONE',  ( -1.000000000000000000, 0.0000000000000000000, 0.0000000000000000000 ) ) ;
#92 = VERTEX_POINT ( 'NONE', #39 ) ;
#93 = DIRECTION ( 'NONE',  ( 0.0000000000000000000, 0.0000000000000000000, -1.000000000000000000 ) ) ;
#94 = EDGE_LOOP ( 'NONE', ( #239, #79, #275 ) ) ;
#95 = DIRECTION ( 'NONE',  ( -1.000000000000000000, 0.0000000000000000000, 0.0000000000000000000 ) ) ;
#96 = ORIENTED_EDGE ( 'NONE', *, *, #228, .T. ) ;
#97 =( NAMED_UNIT ( * ) SI_UNIT ( $, .STERADIAN. ) SOLID_ANGLE_UNIT ( ) );
#98 = ORIENTED_EDGE ( 'NONE', *, *, #11, .T. ) ;
#99 = CARTESIAN_POINT ( 'NONE',  ( 0.0000000000000000000, 0.0000000000000000000, 1.496062999999999921 ) ) ;
#100 = CARTESIAN_POINT ( 'NONE',  ( 0.0000000000000000000, 0.0000000000000000000, 0.0000000000000000000 ) ) ;
#101 = SURFACE_STYLE_USAGE ( .BOTH. , #55 ) ;
#102 = DIMENSIONAL_EXPONENTS ( 1.000000000000000000, 0.0000000000000000000, 0.0000000000000000000, 0.0000000000000000000, 0.0000000000000000000, 0.0000000000000000000, 0.0000000000000000000 ) ;
#103 = APPLICATION_PROTOCOL_DEFINITION ( 'draft international standard', 'automotive_design', 1998, #288 ) ;
#104 = EDGE_CURVE ( 'NONE', #121, #148, #61, .T. ) ;
#105 =( NAMED_UNIT ( * ) PLANE_ANGLE_UNIT ( ) SI_UNIT ( $, .RADIAN. ) );
#106 = EDGE_CURVE ( 'NONE', #92, #218, #41, .T. ) ;
#107 = EDGE_LOOP ( 'NONE', ( #247, #114, #155, #160 ) ) ;
#108 = CARTESIAN_POINT ( 'NONE',  ( 0.0000000000000000000, 0.0000000000000000000, 1.481062999999999574 ) ) ;
#109 = DIRECTION ( 'NONE',  ( -1.224646799147353207E-16, -0.0000000000000000000, -1.000000000000000000 ) ) ;
#110 = FACE_OUTER_BOUND ( 'NONE', #281, .T. ) ;
#111 = EDGE_CURVE ( 'NONE', #148, #19, #185, .T. ) ;
#112 = COLOUR_RGB ( '',0.7921568627450980005, 0.8196078431372548767, 0.9333333333333333481 ) ;
#113 = DIRECTION ( 'NONE',  ( 1.000000000000000000, 0.0000000000000000000, -0.0000000000000000000 ) ) ;
#114 = ORIENTED_EDGE ( 'NONE', *, *, #276, .T. ) ;
#115 = FACE_OUTER_BOUND ( 'NONE', #168, .T. ) ;
#116 = EDGE_CURVE ( 'NONE', #66, #232, #133, .T. ) ;
#117 = VERTEX_POINT ( 'NONE', #242 ) ;
#118 = CARTESIAN_POINT ( 'NONE',  ( 1.444983904138465514E-18, 0.0000000000000000000, 0.0000000000000000000 ) ) ;
#119 = ORIENTED_EDGE ( 'NONE', *, *, #116, .T. ) ;
#120 = EDGE_CURVE ( 'NONE', #67, #121, #90, .T. ) ;
#121 = VERTEX_POINT ( 'NONE', #141 ) ;
#122 = CARTESIAN_POINT ( 'NONE',  ( 0.05905500000000000332, 7.232151672364695422E-18, 1.481062999999999574 ) ) ;
#123 = AXIS2_PLACEMENT_3D ( 'NONE', #173, #277, #249 ) ;
#124 = DIRECTION ( 'NONE',  ( 0.7071067811865482389, 8.659560562354941486E-17, -0.7071067811865469066 ) ) ;
#125 = COLOUR_RGB ( '',0.7921568627450980005, 0.8196078431372548767, 0.9333333333333333481 ) ;
#126 = DIRECTION ( 'NONE',  ( -1.224646799147353207E-16, -0.0000000000000000000, -1.000000000000000000 ) ) ;
#127 = DIRECTION ( 'NONE',  ( 1.000000000000000000, 0.0000000000000000000, 0.0000000000000000000 ) ) ;
#128 = ADVANCED_FACE ( 'NONE', ( #200 ), #21, .T. ) ;
#129 = MANIFOLD_SOLID_BREP ( 'Fillet1', #7 ) ;
#130 = PRESENTATION_LAYER_ASSIGNMENT (  '', '', ( #134 ) ) ;
#131 = FILL_AREA_STYLE_COLOUR ( '', #125 ) ;
#132 = FILL_AREA_STYLE_COLOUR ( '', #112 ) ;
#133 = CIRCLE ( 'NONE', #265, 0.007866125999999999327 ) ;
#134 = STYLED_ITEM ( 'NONE', ( #177 ), #129 ) ;
#135 = EDGE_CURVE ( 'NONE', #12, #117, #136, .T. ) ;
#136 = CIRCLE ( 'NONE', #158, 0.04405499999999973326 ) ;
#137 = CARTESIAN_POINT ( 'NONE',  ( -0.007866125999999997592, 9.633226027589773945E-19, 0.02362200000000000064 ) ) ;
#138 = SURFACE_STYLE_USAGE ( .BOTH. , #291 ) ;
#139 = DIRECTION ( 'NONE',  ( -1.000000000000000000, 0.0000000000000000000, 1.224646799147353207E-16 ) ) ;
#140 = AXIS2_PLACEMENT_3D ( 'NONE', #142, #254, #139 ) ;
#141 = CARTESIAN_POINT ( 'NONE',  ( -0.007866125999999997592, 4.097737137561835638E-18, 0.02362200000000000064 ) ) ;
#142 = CARTESIAN_POINT ( 'NONE',  ( 0.0000000000000000000, 0.0000000000000000000, 0.0000000000000000000 ) ) ;
#143 = SPHERICAL_SURFACE ( 'NONE', #235, 0.007866125999999999327 ) ;
#144 = ORIENTED_EDGE ( 'NONE', *, *, #266, .F. ) ;
#145 = CYLINDRICAL_SURFACE ( 'NONE', #302, 0.007866125999999999327 ) ;
#146 = CARTESIAN_POINT ( 'NONE',  ( 0.05905500000000004496, 7.232151672364700045E-18, 0.3139285304829000367 ) ) ;
#147 = CARTESIAN_POINT ( 'NONE',  ( 9.633226027589772019E-19, 0.0000000000000000000, 0.007866125999999999327 ) ) ;
#148 = VERTEX_POINT ( 'NONE', #83 ) ;
#149 = DIRECTION ( 'NONE',  ( -1.224646799147353207E-16, -0.0000000000000000000, -1.000000000000000000 ) ) ;
#150 = CARTESIAN_POINT ( 'NONE',  ( 2.892860668945877938E-18, 0.0000000000000000000, 0.02362200000000000064 ) ) ;
#151 = STYLED_ITEM ( 'NONE', ( #159 ), #267 ) ;
#152 = AXIS2_PLACEMENT_3D ( 'NONE', #257, #161, #261 ) ;
#153 = ADVANCED_FACE ( 'NONE', ( #110 ), #221, .T. ) ;
#154 = DIRECTION ( 'NONE',  ( 1.000000000000000000, 0.0000000000000000000, 0.0000000000000000000 ) ) ;
#155 = ORIENTED_EDGE ( 'NONE', *, *, #72, .T. ) ;
#156 =( LENGTH_UNIT ( ) NAMED_UNIT ( * ) SI_UNIT ( $, .METRE. ) );
#157 =( LENGTH_UNIT ( ) NAMED_UNIT ( * ) SI_UNIT ( $, .METRE. ) );
#158 = AXIS2_PLACEMENT_3D ( 'NONE', #314, #38, #316 ) ;
#159 = PRESENTATION_STYLE_ASSIGNMENT (( #101 ) ) ;
#160 = ORIENTED_EDGE ( 'NONE', *, *, #206, .F. ) ;
#161 = DIRECTION ( 'NONE',  ( 0.0000000000000000000, 0.0000000000000000000, 1.000000000000000000 ) ) ;
#162 = FILL_AREA_STYLE ('',( #131 ) ) ;
#163 = AXIS2_PLACEMENT_3D ( 'NONE', #248, #245, #75 ) ;
#164 = EDGE_CURVE ( 'NONE', #218, #19, #17, .T. ) ;
#165 = ORIENTED_EDGE ( 'NONE', *, *, #135, .F. ) ;
#166 = EDGE_CURVE ( 'NONE', #67, #19, #295, .T. ) ;
#167 = VECTOR ( 'NONE', #124, 39.37007874015748143 ) ;
#168 = EDGE_LOOP ( 'NONE', ( #5, #287, #196, #182 ) ) ;
#169 = AXIS2_PLACEMENT_3D ( 'NONE', #297, #170, #113 ) ;
#170 = DIRECTION ( 'NONE',  ( 0.0000000000000000000, 0.0000000000000000000, 1.000000000000000000 ) ) ;
#171 = EDGE_LOOP ( 'NONE', ( #62, #98, #209 ) ) ;
#172 = DIRECTION ( 'NONE',  ( -1.000000000000000000, 0.0000000000000000000, 1.224646799147353207E-16 ) ) ;
#173 = CARTESIAN_POINT ( 'NONE',  ( 9.633226027589772019E-19, 0.0000000000000000000, 0.007866125999999999327 ) ) ;
#174 = CARTESIAN_POINT ( 'NONE',  ( 0.0000000000000000000, 0.0000000000000000000, 1.496062999999999921 ) ) ;
#175 = DIRECTION ( 'NONE',  ( 1.000000000000000000, 0.0000000000000000000, 0.0000000000000000000 ) ) ;
#176 = CARTESIAN_POINT ( 'NONE',  ( 3.844515700169158931E-17, 0.0000000000000000000, 0.3139285304829000367 ) ) ;
#177 = PRESENTATION_STYLE_ASSIGNMENT (( #138 ) ) ;
#178 = CARTESIAN_POINT ( 'NONE',  ( 3.844515700169158931E-17, 0.0000000000000000000, 0.3139285304829000367 ) ) ;
#179 = DIRECTION ( 'NONE',  ( 1.000000000000000000, 0.0000000000000000000, 0.0000000000000000000 ) ) ;
#180 = ADVANCED_FACE ( 'NONE', ( #77 ), #203, .T. ) ;
#181 =( NAMED_UNIT ( * ) PLANE_ANGLE_UNIT ( ) SI_UNIT ( $, .RADIAN. ) );
#182 = ORIENTED_EDGE ( 'NONE', *, *, #4, .F. ) ;
#183 = DIRECTION ( 'NONE',  ( -1.000000000000000000, 0.0000000000000000000, 0.0000000000000000000 ) ) ;
#184 = CIRCLE ( 'NONE', #243, 0.007866125999999999327 ) ;
#185 = CIRCLE ( 'NONE', #51, 0.05905500000000000332 ) ;
#186 = PRODUCT_DEFINITION_FORMATION_WITH_SPECIFIED_SOURCE ( 'ANY', '', #231, .NOT_KNOWN. ) ;
#187 = ORIENTED_EDGE ( 'NONE', *, *, #111, .F. ) ;
#188 = ADVANCED_FACE ( 'NONE', ( #321 ), #300, .T. ) ;
#189 = AXIS2_PLACEMENT_3D ( 'NONE', #178, #46, #154 ) ;
#190 =( NAMED_UNIT ( * ) SI_UNIT ( $, .STERADIAN. ) SOLID_ANGLE_UNIT ( ) );
#191 = ADVANCED_FACE ( 'NONE', ( #115 ), #63, .T. ) ;
#192 = VECTOR ( 'NONE', #30, 39.37007874015748143 ) ;
#193 = CONICAL_SURFACE ( 'NONE', #216, 0.04405499999999973326, 0.7853981633974491672 ) ;
#194 = DIRECTION ( 'NONE',  ( 1.000000000000000000, 0.0000000000000000000, 0.0000000000000000000 ) ) ;
#195 = SURFACE_STYLE_FILL_AREA ( #219 ) ;
#196 = ORIENTED_EDGE ( 'NONE', *, *, #106, .F. ) ;
#197 = DIRECTION ( 'NONE',  ( 1.000000000000000000, 0.0000000000000000000, 0.0000000000000000000 ) ) ;
#198 = DIRECTION ( 'NONE',  ( -0.0000000000000000000, -0.0000000000000000000, -1.000000000000000000 ) ) ;
#199 = MECHANICAL_DESIGN_GEOMETRIC_PRESENTATION_REPRESENTATION (  '', ( #151 ), #319 ) ;
#200 = FACE_OUTER_BOUND ( 'NONE', #260, .T. ) ;
#201 = ORIENTED_EDGE ( 'NONE', *, *, #164, .F. ) ;
#202 = CARTESIAN_POINT ( 'NONE',  ( -0.05905500000000000332, 0.0000000000000000000, 1.496062999999999921 ) ) ;
#203 = CYLINDRICAL_SURFACE ( 'NONE', #325, 0.05905500000000000332 ) ;
#204 = LINE ( 'NONE', #69, #192 ) ;
#205 = ORIENTED_EDGE ( 'NONE', *, *, #206, .T. ) ;
#206 = EDGE_CURVE ( 'NONE', #121, #66, #68, .T. ) ;
#207 = CARTESIAN_POINT ( 'NONE',  ( 9.633226027589772019E-19, 0.0000000000000000000, 0.007866125999999999327 ) ) ;
#208 = LENGTH_MEASURE_WITH_UNIT ( LENGTH_MEASURE( 0.02539999999999999897 ), #40 );
#209 = ORIENTED_EDGE ( 'NONE', *, *, #72, .F. ) ;
#210 = DIRECTION ( 'NONE',  ( 1.000000000000000000, 0.0000000000000000000, 0.0000000000000000000 ) ) ;
#211 = AXIS2_PLACEMENT_3D ( 'NONE', #305, #6, #183 ) ;
#212 = DIMENSIONAL_EXPONENTS ( 1.000000000000000000, 0.0000000000000000000, 0.0000000000000000000, 0.0000000000000000000, 0.0000000000000000000, 0.0000000000000000000, 0.0000000000000000000 ) ;
#213 = CIRCLE ( 'NONE', #189, 0.05905500000000000332 ) ;
#214 = APPLICATION_PROTOCOL_DEFINITION ( 'draft international standard', 'automotive_design', 1998, #16 ) ;
#215 = ADVANCED_FACE ( 'NONE', ( #224 ), #193, .T. ) ;
#216 = AXIS2_PLACEMENT_3D ( 'NONE', #174, #93, #95 ) ;
#217 = EDGE_CURVE ( 'NONE', #238, #232, #318, .T. ) ;
#218 = VERTEX_POINT ( 'NONE', #122 ) ;
#219 = FILL_AREA_STYLE ('',( #132 ) ) ;
#220 =( NAMED_UNIT ( * ) SI_UNIT ( $, .STERADIAN. ) SOLID_ANGLE_UNIT ( ) );
#221 = CYLINDRICAL_SURFACE ( 'NONE', #20, 0.05905500000000000332 ) ;
#222 = DIRECTION ( 'NONE',  ( 1.000000000000000000, 0.0000000000000000000, 0.0000000000000000000 ) ) ;
#223 = AXIS2_PLACEMENT_3D ( 'NONE', #150, #45, #25 ) ;
#224 = FACE_OUTER_BOUND ( 'NONE', #49, .T. ) ;
#225 = PRODUCT_RELATED_PRODUCT_CATEGORY ( 'part', '', ( #231 ) ) ;
#226 = DIRECTION ( 'NONE',  ( -0.0000000000000000000, -0.0000000000000000000, -1.000000000000000000 ) ) ;
#227 = CARTESIAN_POINT ( 'NONE',  ( -0.007866125999999997592, 0.0000000000000000000, 0.007866125999999999327 ) ) ;
#228 = EDGE_CURVE ( 'NONE', #19, #148, #213, .T. ) ;
#229 = AXIS2_PLACEMENT_3D ( 'NONE', #283, #3, #323 ) ;
#230 = UNCERTAINTY_MEASURE_WITH_UNIT (LENGTH_MEASURE( 1.000000000000000082E-05 ), #259, 'distance_accuracy_value', 'NONE');
#231 = PRODUCT ( 'Micro_BMSM-004-2', 'Micro_BMSM-004-2', '', ( #310 ) ) ;
#232 = VERTEX_POINT ( 'NONE', #24 ) ;
#233 = ORIENTED_EDGE ( 'NONE', *, *, #270, .F. ) ;
#234 =( NAMED_UNIT ( * ) PLANE_ANGLE_UNIT ( ) SI_UNIT ( $, .RADIAN. ) );
#235 = AXIS2_PLACEMENT_3D ( 'NONE', #280, #246, #179 ) ;
#236 = CONICAL_SURFACE ( 'NONE', #223, 0.007866125999999999327, 0.1745329251994339192 ) ;
#237 = PRODUCT_DEFINITION ( 'UNKNOWN', '', #186, #84 ) ;
#238 = VERTEX_POINT ( 'NONE', #118 ) ;
#239 = ORIENTED_EDGE ( 'NONE', *, *, #11, .F. ) ;
#240 = DIRECTION ( 'NONE',  ( 1.224646799147353207E-16, 0.0000000000000000000, 1.000000000000000000 ) ) ;
#241 = DIRECTION ( 'NONE',  ( -0.1736481776669312194, 2.126576849575783625E-17, 0.9848077530122080203 ) ) ;
#242 = CARTESIAN_POINT ( 'NONE',  ( 0.04405499999999973326, 6.313666573004162521E-18, 1.496062999999999921 ) ) ;
#243 = AXIS2_PLACEMENT_3D ( 'NONE', #2, #240, #15 ) ;
#244 = DIRECTION ( 'NONE',  ( -0.0000000000000000000, -0.0000000000000000000, -1.000000000000000000 ) ) ;
#245 = DIRECTION ( 'NONE',  ( 0.0000000000000000000, -1.000000000000000000, 0.0000000000000000000 ) ) ;
#246 = DIRECTION ( 'NONE',  ( 0.0000000000000000000, 1.000000000000000000, 0.0000000000000000000 ) ) ;
#247 = ORIENTED_EDGE ( 'NONE', *, *, #266, .T. ) ;
#248 = CARTESIAN_POINT ( 'NONE',  ( 9.633226027589772019E-19, 0.0000000000000000000, 0.007866125999999999327 ) ) ;
#249 = DIRECTION ( 'NONE',  ( -1.000000000000000000, 1.224646799147353207E-16, 0.0000000000000000000 ) ) ;
#250 = DIRECTION ( 'NONE',  ( 0.0000000000000000000, 0.0000000000000000000, 1.000000000000000000 ) ) ;
#251 = VECTOR ( 'NONE', #226, 39.37007874015748143 ) ;
#252 = EDGE_LOOP ( 'NONE', ( #144, #47, #87, #299 ) ) ;
#253 = ORIENTED_EDGE ( 'NONE', *, *, #48, .F. ) ;
#254 = DIRECTION ( 'NONE',  ( -1.224646799147353207E-16, -0.0000000000000000000, -1.000000000000000000 ) ) ;
#255 = DIMENSIONAL_EXPONENTS ( 1.000000000000000000, 0.0000000000000000000, 0.0000000000000000000, 0.0000000000000000000, 0.0000000000000000000, 0.0000000000000000000, 0.0000000000000000000 ) ;
#256 = DIRECTION ( 'NONE',  ( -1.000000000000000000, 0.0000000000000000000, 0.0000000000000000000 ) ) ;
#257 = CARTESIAN_POINT ( 'NONE',  ( 0.0000000000000000000, 0.0000000000000000000, 0.0000000000000000000 ) ) ;
#258 = CIRCLE ( 'NONE', #28, 0.04405499999999973326 ) ;
#259 =( CONVERSION_BASED_UNIT ( 'INCH', #262 ) LENGTH_UNIT ( ) NAMED_UNIT ( #255 ) );
#260 = EDGE_LOOP ( 'NONE', ( #292, #322 ) ) ;
#261 = DIRECTION ( 'NONE',  ( 1.000000000000000000, 0.0000000000000000000, 0.0000000000000000000 ) ) ;
#262 = LENGTH_MEASURE_WITH_UNIT ( LENGTH_MEASURE( 0.02539999999999999897 ), #156 );
#263 = DIRECTION ( 'NONE',  ( 0.1736481776669314137, 0.0000000000000000000, 0.9848077530122077983 ) ) ;
#264 = UNCERTAINTY_MEASURE_WITH_UNIT (LENGTH_MEASURE( 1.000000000000000082E-05 ), #307, 'distance_accuracy_value', 'NONE');
#265 = AXIS2_PLACEMENT_3D ( 'NONE', #147, #269, #42 ) ;
#266 = EDGE_CURVE ( 'NONE', #121, #67, #36, .T. ) ;
#267 = ADVANCED_BREP_SHAPE_REPRESENTATION ( 'Micro_BMSM-004-2', ( #129, #152 ), #57 ) ;
#268 =( GEOMETRIC_REPRESENTATION_CONTEXT ( 3 ) GLOBAL_UNCERTAINTY_ASSIGNED_CONTEXT ( ( #58 ) ) GLOBAL_UNIT_ASSIGNED_CONTEXT ( ( #296, #181, #220 ) ) REPRESENTATION_CONTEXT ( 'NONE', 'WORKASPACE' ) );
#269 = DIRECTION ( 'NONE',  ( 1.224646799147353207E-16, 0.0000000000000000000, 1.000000000000000000 ) ) ;
#270 = EDGE_CURVE ( 'NONE', #92, #148, #303, .T. ) ;
#271 = DIRECTION ( 'NONE',  ( -0.0000000000000000000, -0.0000000000000000000, -1.000000000000000000 ) ) ;
#272 = ORIENTED_EDGE ( 'NONE', *, *, #228, .F. ) ;
#273 = DIRECTION ( 'NONE',  ( -1.224646799147353207E-16, -0.0000000000000000000, -1.000000000000000000 ) ) ;
#274 = CONICAL_SURFACE ( 'NONE', #78, 0.007866125999999999327, 0.1745329251994339192 ) ;
#275 = ORIENTED_EDGE ( 'NONE', *, *, #116, .F. ) ;
#276 = EDGE_CURVE ( 'NONE', #67, #232, #309, .T. ) ;
#277 = DIRECTION ( 'NONE',  ( 1.224646799147353207E-16, 1.000000000000000000, -0.0000000000000000000 ) ) ;
#278 = ORIENTED_EDGE ( 'NONE', *, *, #164, .T. ) ;
#279 = DIRECTION ( 'NONE',  ( -1.000000000000000000, 0.0000000000000000000, 0.0000000000000000000 ) ) ;
#280 = CARTESIAN_POINT ( 'NONE',  ( 9.633226027589772019E-19, 0.0000000000000000000, 0.007866125999999999327 ) ) ;
#281 = EDGE_LOOP ( 'NONE', ( #201, #285, #86, #272 ) ) ;
#282 = CARTESIAN_POINT ( 'NONE',  ( 0.007866126000000002796, 0.0000000000000000000, 0.02362200000000000064 ) ) ;
#283 = CARTESIAN_POINT ( 'NONE',  ( 2.892860668945877938E-18, 0.0000000000000000000, 0.02362200000000000064 ) ) ;
#284 = FACE_OUTER_BOUND ( 'NONE', #94, .T. ) ;
#285 = ORIENTED_EDGE ( 'NONE', *, *, #290, .T. ) ;
#286 = VECTOR ( 'NONE', #241, 39.37007874015747433 ) ;
#287 = ORIENTED_EDGE ( 'NONE', *, *, #48, .T. ) ;
#288 = APPLICATION_CONTEXT ( 'automotive_design' ) ;
#289 = VECTOR ( 'NONE', #198, 39.37007874015748143 ) ;
#290 = EDGE_CURVE ( 'NONE', #218, #92, #33, .T. ) ;
#291 = SURFACE_SIDE_STYLE ('',( #195 ) ) ;
#292 = ORIENTED_EDGE ( 'NONE', *, *, #135, .T. ) ;
#293 = AXIS2_PLACEMENT_3D ( 'NONE', #207, #1, #175 ) ;
#294 = AXIS2_PLACEMENT_3D ( 'NONE', #18, #109, #91 ) ;
#295 = LINE ( 'NONE', #64, #60 ) ;
#296 =( CONVERSION_BASED_UNIT ( 'INCH', #312 ) LENGTH_UNIT ( ) NAMED_UNIT ( #212 ) );
#297 = CARTESIAN_POINT ( 'NONE',  ( 0.0000000000000000000, 0.0000000000000000000, 1.496062999999999921 ) ) ;
#298 = EDGE_CURVE ( 'NONE', #117, #12, #258, .T. ) ;
#299 = ORIENTED_EDGE ( 'NONE', *, *, #166, .F. ) ;
#300 = CYLINDRICAL_SURFACE ( 'NONE', #140, 0.007866125999999999327 ) ;
#301 = CARTESIAN_POINT ( 'NONE',  ( -0.04405499999999973326, 0.0000000000000000000, 1.496062999999999921 ) ) ;
#302 = AXIS2_PLACEMENT_3D ( 'NONE', #100, #126, #172 ) ;
#303 = LINE ( 'NONE', #202, #251 ) ;
#304 = ORIENTED_EDGE ( 'NONE', *, *, #290, .F. ) ;
#305 = CARTESIAN_POINT ( 'NONE',  ( 0.0000000000000000000, 0.0000000000000000000, 1.496062999999999921 ) ) ;
#306 = FACE_OUTER_BOUND ( 'NONE', #26, .T. ) ;
#307 =( CONVERSION_BASED_UNIT ( 'INCH', #208 ) LENGTH_UNIT ( ) NAMED_UNIT ( #102 ) );
#308 = PRODUCT_DEFINITION_SHAPE ( 'NONE', 'NONE',  #237 ) ;
#309 = LINE ( 'NONE', #50, #81 ) ;
#310 = PRODUCT_CONTEXT ( 'NONE', #288, 'mechanical' ) ;
#311 = ADVANCED_FACE ( 'NONE', ( #29 ), #145, .T. ) ;
#312 = LENGTH_MEASURE_WITH_UNIT ( LENGTH_MEASURE( 0.02539999999999999897 ), #157 );
#313 = AXIS2_PLACEMENT_3D ( 'NONE', #108, #315, #197 ) ;
#314 = CARTESIAN_POINT ( 'NONE',  ( 0.0000000000000000000, 0.0000000000000000000, 1.496062999999999921 ) ) ;
#315 = DIRECTION ( 'NONE',  ( 0.0000000000000000000, 0.0000000000000000000, -1.000000000000000000 ) ) ;
#316 = DIRECTION ( 'NONE',  ( 1.000000000000000000, 0.0000000000000000000, 0.0000000000000000000 ) ) ;
#317 = CARTESIAN_POINT ( 'NONE',  ( 0.05905500000000000332, 7.232151672364695422E-18, 1.496062999999999921 ) ) ;
#318 = CIRCLE ( 'NONE', #163, 0.007866125999999999327 ) ;
#319 =( GEOMETRIC_REPRESENTATION_CONTEXT ( 3 ) GLOBAL_UNCERTAINTY_ASSIGNED_CONTEXT ( ( #230 ) ) GLOBAL_UNIT_ASSIGNED_CONTEXT ( ( #259, #105, #190 ) ) REPRESENTATION_CONTEXT ( 'NONE', 'WORKASPACE' ) );
#320 = EDGE_LOOP ( 'NONE', ( #74, #31, #205, #119 ) ) ;
#321 = FACE_OUTER_BOUND ( 'NONE', #107, .T. ) ;
#322 = ORIENTED_EDGE ( 'NONE', *, *, #298, .T. ) ;
#323 = DIRECTION ( 'NONE',  ( -1.000000000000000000, 0.0000000000000000000, 0.0000000000000000000 ) ) ;
#324 = SPHERICAL_SURFACE ( 'NONE', #293, 0.007866125999999999327 ) ;
#325 = AXIS2_PLACEMENT_3D ( 'NONE', #99, #244, #279 ) ;
ENDSEC;
END-ISO-10303-21;
