ISO-10303-21;
HEADER;
FILE_DESCRIPTION (( 'STEP AP214' ),
    '1' );
FILE_NAME ('06135.STEP',
    '2023-07-05T16:00:43',
    ( '' ),
    ( '' ),
    'SwSTEP 2.0',
    'SolidWorks 2023',
    '' );
FILE_SCHEMA (( 'AUTOMOTIVE_DESIGN' ));
ENDSEC;

DATA;
#1 = PRESENTATION_STYLE_ASSIGNMENT (( #103 ) ) ;
#2 = DIRECTION ( 'NONE',  ( 0.000000000000000000, 1.000000000000000000, 0.000000000000000000 ) ) ;
#3 = SURFACE_STYLE_FILL_AREA ( #244 ) ;
#4 =( GEOMETRIC_REPRESENTATION_CONTEXT ( 3 ) GLOBAL_UNCERTAINTY_ASSIGNED_CONTEXT ( ( #112 ) ) GLOBAL_UNIT_ASSIGNED_CONTEXT ( ( #88, #235, #192 ) ) REPRESENTATION_CONTEXT ( 'NONE', 'WORKASPACE' ) );
#5 = SHAPE_DEFINITION_REPRESENTATION ( #149, #130 ) ;
#6 = ORIENTED_EDGE ( 'NONE', *, *, #119, .T. ) ;
#7 =( NAMED_UNIT ( * ) SI_UNIT ( $, .STERADIAN. ) SOLID_ANGLE_UNIT ( ) );
#8 = ORIENTED_EDGE ( 'NONE', *, *, #201, .F. ) ;
#9 = PRESENTATION_STYLE_ASSIGNMENT (( #45 ) ) ;
#10 = ORIENTED_EDGE ( 'NONE', *, *, #145, .T. ) ;
#11 = ORIENTED_EDGE ( 'NONE', *, *, #175, .T. ) ;
#12 = EDGE_CURVE ( 'NONE', #156, #46, #231, .T. ) ;
#13 = CYLINDRICAL_SURFACE ( 'NONE', #250, 0.1249999999999999029 ) ;
#14 = DIRECTION ( 'NONE',  ( 0.000000000000000000, 0.000000000000000000, 1.000000000000000000 ) ) ;
#15 = DIRECTION ( 'NONE',  ( -0.000000000000000000, -1.000000000000000000, -0.000000000000000000 ) ) ;
#16 = DIMENSIONAL_EXPONENTS ( 1.000000000000000000, 0.000000000000000000, 0.000000000000000000, 0.000000000000000000, 0.000000000000000000, 0.000000000000000000, 0.000000000000000000 ) ;
#17 = LINE ( 'NONE', #259, #89 ) ;
#18 =( LENGTH_UNIT ( ) NAMED_UNIT ( * ) SI_UNIT ( $, .METRE. ) );
#19 = CARTESIAN_POINT ( 'NONE',  ( 0.000000000000000000, 0.1249999999999995559, 0.000000000000000000 ) ) ;
#20 = SURFACE_STYLE_FILL_AREA ( #202 ) ;
#21 = AXIS2_PLACEMENT_3D ( 'NONE', #147, #39, #164 ) ;
#22 = ORIENTED_EDGE ( 'NONE', *, *, #201, .T. ) ;
#23 = DIRECTION ( 'NONE',  ( -1.228345323885430886E-16, 1.000000000000000000, -0.000000000000000000 ) ) ;
#24 = CLOSED_SHELL ( 'NONE', ( #158, #47, #64, #258 ) ) ;
#25 = PRODUCT_DEFINITION_CONTEXT ( 'detailed design', #70, 'design' ) ;
#26 = DIRECTION ( 'NONE',  ( 1.000000000000000000, 1.228345323885430886E-16, 0.000000000000000000 ) ) ;
#27 = PRESENTATION_STYLE_ASSIGNMENT (( #138 ) ) ;
#28 = ORIENTED_EDGE ( 'NONE', *, *, #243, .F. ) ;
#29 = SURFACE_SIDE_STYLE ('',( #105 ) ) ;
#30 = VERTEX_POINT ( 'NONE', #74 ) ;
#31 =( NAMED_UNIT ( * ) PLANE_ANGLE_UNIT ( ) SI_UNIT ( $, .RADIAN. ) );
#32 = DIMENSIONAL_EXPONENTS ( 1.000000000000000000, 0.000000000000000000, 0.000000000000000000, 0.000000000000000000, 0.000000000000000000, 0.000000000000000000, 0.000000000000000000 ) ;
#33 = COLOUR_RGB ( '',1.000000000000000000, 0.000000000000000000, 0.000000000000000000 ) ;
#34 = DIRECTION ( 'NONE',  ( 0.000000000000000000, 0.7071067811865462405, 0.7071067811865486830 ) ) ;
#35 = CARTESIAN_POINT ( 'NONE',  ( 0.000000000000000000, 0.000000000000000000, 0.000000000000000000 ) ) ;
#36 = AXIS2_PLACEMENT_3D ( 'NONE', #181, #2, #85 ) ;
#37 = LENGTH_MEASURE_WITH_UNIT ( LENGTH_MEASURE( 0.02539999999999999897 ), #264 );
#38 = ADVANCED_FACE ( 'NONE', ( #210 ), #189, .T. ) ;
#39 = DIRECTION ( 'NONE',  ( -1.228345323885430886E-16, 1.000000000000000000, -0.000000000000000000 ) ) ;
#40 = SURFACE_STYLE_USAGE ( .BOTH. , #56 ) ;
#41 =( NAMED_UNIT ( * ) SI_UNIT ( $, .STERADIAN. ) SOLID_ANGLE_UNIT ( ) );
#42 = PLANE ( 'NONE',  #179 ) ;
#43 = AXIS2_PLACEMENT_3D ( 'NONE', #173, #54, #14 ) ;
#44 = VERTEX_POINT ( 'NONE', #249 ) ;
#45 = SURFACE_STYLE_USAGE ( .BOTH. , #115 ) ;
#46 = VERTEX_POINT ( 'NONE', #165 ) ;
#47 = ADVANCED_FACE ( 'NONE', ( #227 ), #42, .F. ) ;
#48 = VECTOR ( 'NONE', #69, 39.37007874015748143 ) ;
#49 = COLOUR_RGB ( '',0.7921568627450980005, 0.8196078431372548767, 0.9333333333333333481 ) ;
#50 =( CONVERSION_BASED_UNIT ( 'INCH', #198 ) LENGTH_UNIT ( ) NAMED_UNIT ( #123 ) );
#51 = DIRECTION ( 'NONE',  ( -1.228345323885430886E-16, 1.000000000000000000, -0.000000000000000000 ) ) ;
#52 = DIRECTION ( 'NONE',  ( -1.228345323885430886E-16, 1.000000000000000000, 0.000000000000000000 ) ) ;
#53 =( GEOMETRIC_REPRESENTATION_CONTEXT ( 3 ) GLOBAL_UNCERTAINTY_ASSIGNED_CONTEXT ( ( #63 ) ) GLOBAL_UNIT_ASSIGNED_CONTEXT ( ( #127, #177, #41 ) ) REPRESENTATION_CONTEXT ( 'NONE', 'WORKASPACE' ) );
#54 = DIRECTION ( 'NONE',  ( 0.000000000000000000, 1.000000000000000000, 0.000000000000000000 ) ) ;
#55 = SURFACE_STYLE_USAGE ( .BOTH. , #124 ) ;
#56 = SURFACE_SIDE_STYLE ('',( #3 ) ) ;
#57 = CONICAL_SURFACE ( 'NONE', #43, 39.37007874015762354, 0.7853981633974500554 ) ;
#58 = DIRECTION ( 'NONE',  ( 0.000000000000000000, 1.000000000000000000, 0.000000000000000000 ) ) ;
#59 = PLANE ( 'NONE',  #126 ) ;
#60 = EDGE_CURVE ( 'NONE', #135, #155, #125, .T. ) ;
#61 =( CONVERSION_BASED_UNIT ( 'INCH', #86 ) LENGTH_UNIT ( ) NAMED_UNIT ( #79 ) );
#62 =( GEOMETRIC_REPRESENTATION_CONTEXT ( 3 ) GLOBAL_UNCERTAINTY_ASSIGNED_CONTEXT ( ( #107 ) ) GLOBAL_UNIT_ASSIGNED_CONTEXT ( ( #61, #144, #151 ) ) REPRESENTATION_CONTEXT ( 'NONE', 'WORKASPACE' ) );
#63 = UNCERTAINTY_MEASURE_WITH_UNIT (LENGTH_MEASURE( 1.000000000000000082E-05 ), #127, 'distance_accuracy_value', 'NONE');
#64 = ADVANCED_FACE ( 'NONE', ( #141 ), #13, .T. ) ;
#65 = EDGE_LOOP ( 'NONE', ( #117, #28 ) ) ;
#66 = VECTOR ( 'NONE', #102, 39.37007874015748143 ) ;
#67 = CONICAL_SURFACE ( 'NONE', #257, 39.37007874015762354, 0.7853981633974500554 ) ;
#68 = APPLICATION_PROTOCOL_DEFINITION ( 'draft international standard', 'automotive_design', 1998, #128 ) ;
#69 = DIRECTION ( 'NONE',  ( -1.228345323885430886E-16, 1.000000000000000000, -0.000000000000000000 ) ) ;
#70 = APPLICATION_CONTEXT ( 'automotive_design' ) ;
#71 =( CONVERSION_BASED_UNIT ( 'INCH', #208 ) LENGTH_UNIT ( ) NAMED_UNIT ( #142 ) );
#72 = EDGE_CURVE ( 'NONE', #135, #156, #97, .T. ) ;
#73 = EDGE_LOOP ( 'NONE', ( #95, #94, #111, #193 ) ) ;
#74 = CARTESIAN_POINT ( 'NONE',  ( 1.530808498934191509E-17, 0.1249999999999995559, -0.1249999999999999861 ) ) ;
#75 = CIRCLE ( 'NONE', #203, 0.1249999999999997641 ) ;
#76 = DIRECTION ( 'NONE',  ( -1.000000000000000000, 0.000000000000000000, 0.000000000000000000 ) ) ;
#77 = PRODUCT_DEFINITION ( 'UNKNOWN', '', #132, #25 ) ;
#78 = CARTESIAN_POINT ( 'NONE',  ( -6.123233995736766036E-17, 2.500000000000000000, 0.000000000000000000 ) ) ;
#79 = DIMENSIONAL_EXPONENTS ( 1.000000000000000000, 0.000000000000000000, 0.000000000000000000, 0.000000000000000000, 0.000000000000000000, 0.000000000000000000, 0.000000000000000000 ) ;
#80 = FILL_AREA_STYLE ('',( #216 ) ) ;
#81 = PRESENTATION_STYLE_ASSIGNMENT (( #40 ) ) ;
#82 = STYLED_ITEM ( 'NONE', ( #1 ), #163 ) ;
#83 = DIRECTION ( 'NONE',  ( -1.000000000000000000, -1.365923996832134074E-16, 0.000000000000000000 ) ) ;
#84 = DIRECTION ( 'NONE',  ( 0.000000000000000000, 0.000000000000000000, -1.000000000000000000 ) ) ;
#85 = DIRECTION ( 'NONE',  ( 0.000000000000000000, -0.000000000000000000, 1.000000000000000000 ) ) ;
#86 = LENGTH_MEASURE_WITH_UNIT ( LENGTH_MEASURE( 0.02539999999999999897 ), #18 );
#87 = FILL_AREA_STYLE_COLOUR ( '', #241 ) ;
#88 =( CONVERSION_BASED_UNIT ( 'INCH', #150 ) LENGTH_UNIT ( ) NAMED_UNIT ( #197 ) );
#89 = VECTOR ( 'NONE', #34, 39.37007874015748854 ) ;
#90 = FILL_AREA_STYLE_COLOUR ( '', #176 ) ;
#91 = MECHANICAL_DESIGN_GEOMETRIC_PRESENTATION_REPRESENTATION (  '', ( #212 ), #4 ) ;
#92 = AXIS2_PLACEMENT_3D ( 'NONE', #19, #131, #84 ) ;
#93 =( CONVERSION_BASED_UNIT ( 'INCH', #190 ) LENGTH_UNIT ( ) NAMED_UNIT ( #32 ) );
#94 = ORIENTED_EDGE ( 'NONE', *, *, #12, .T. ) ;
#95 = ORIENTED_EDGE ( 'NONE', *, *, #72, .T. ) ;
#96 = DIRECTION ( 'NONE',  ( -1.228345323885430886E-16, 1.000000000000000000, -0.000000000000000000 ) ) ;
#97 = CIRCLE ( 'NONE', #157, 0.1249999999999997641 ) ;
#98 = PRESENTATION_LAYER_ASSIGNMENT (  '', '', ( #129 ) ) ;
#99 = FACE_OUTER_BOUND ( 'NONE', #187, .T. ) ;
#100 = CARTESIAN_POINT ( 'NONE',  ( -0.1249999999999995143, 0.1249999999999996114, 0.000000000000000000 ) ) ;
#101 = PRESENTATION_LAYER_ASSIGNMENT (  '', '', ( #223 ) ) ;
#102 = DIRECTION ( 'NONE',  ( -1.228345323885430886E-16, 1.000000000000000000, -0.000000000000000000 ) ) ;
#103 = SURFACE_STYLE_USAGE ( .BOTH. , #178 ) ;
#104 = CARTESIAN_POINT ( 'NONE',  ( 0.000000000000000000, 0.000000000000000000, 0.000000000000000000 ) ) ;
#105 = SURFACE_STYLE_FILL_AREA ( #233 ) ;
#106 = LINE ( 'NONE', #104, #152 ) ;
#107 = UNCERTAINTY_MEASURE_WITH_UNIT (LENGTH_MEASURE( 1.000000000000000082E-05 ), #61, 'distance_accuracy_value', 'NONE');
#108 = CARTESIAN_POINT ( 'NONE',  ( 0.1249999999999999584, 2.500000000000000000, 0.000000000000000000 ) ) ;
#109 = ADVANCED_FACE ( 'NONE', ( #99 ), #57, .T. ) ;
#110 = AXIS2_PLACEMENT_3D ( 'NONE', #260, #15, #239 ) ;
#111 = ORIENTED_EDGE ( 'NONE', *, *, #247, .F. ) ;
#112 = UNCERTAINTY_MEASURE_WITH_UNIT (LENGTH_MEASURE( 1.000000000000000082E-05 ), #88, 'distance_accuracy_value', 'NONE');
#113 = EDGE_LOOP ( 'NONE', ( #172, #6 ) ) ;
#114 = EDGE_CURVE ( 'NONE', #44, #30, #238, .T. ) ;
#115 = SURFACE_SIDE_STYLE ('',( #20 ) ) ;
#116 = PRODUCT_CONTEXT ( 'NONE', #128, 'mechanical' ) ;
#117 = ORIENTED_EDGE ( 'NONE', *, *, #72, .F. ) ;
#118 = ORIENTED_EDGE ( 'NONE', *, *, #114, .F. ) ;
#119 = EDGE_CURVE ( 'NONE', #46, #155, #229, .T. ) ;
#120 =( LENGTH_UNIT ( ) NAMED_UNIT ( * ) SI_UNIT ( $, .METRE. ) );
#121 = PRESENTATION_LAYER_ASSIGNMENT (  '', '', ( #82 ) ) ;
#122 = CARTESIAN_POINT ( 'NONE',  ( 2.304996744654222029E-16, 0.1249999999999995559, 0.000000000000000000 ) ) ;
#123 = DIMENSIONAL_EXPONENTS ( 1.000000000000000000, 0.000000000000000000, 0.000000000000000000, 0.000000000000000000, 0.000000000000000000, 0.000000000000000000, 0.000000000000000000 ) ;
#124 = SURFACE_SIDE_STYLE ('',( #199 ) ) ;
#125 = LINE ( 'NONE', #261, #66 ) ;
#126 = AXIS2_PLACEMENT_3D ( 'NONE', #108, #136, #26 ) ;
#127 =( CONVERSION_BASED_UNIT ( 'INCH', #37 ) LENGTH_UNIT ( ) NAMED_UNIT ( #16 ) );
#128 = APPLICATION_CONTEXT ( 'automotive_design' ) ;
#129 = STYLED_ITEM ( 'NONE', ( #9 ), #254 ) ;
#130 = ADVANCED_BREP_SHAPE_REPRESENTATION ( '06135', ( #254, #163, #219 ), #265 ) ;
#131 = DIRECTION ( 'NONE',  ( -0.000000000000000000, -1.000000000000000000, -0.000000000000000000 ) ) ;
#132 = PRODUCT_DEFINITION_FORMATION_WITH_SPECIFIED_SOURCE ( 'ANY', '', #182, .NOT_KNOWN. ) ;
#133 = ORIENTED_EDGE ( 'NONE', *, *, #243, .T. ) ;
#134 =( LENGTH_UNIT ( ) NAMED_UNIT ( * ) SI_UNIT ( $, .METRE. ) );
#135 = VERTEX_POINT ( 'NONE', #100 ) ;
#136 = DIRECTION ( 'NONE',  ( 1.228345323885430886E-16, -1.000000000000000000, 0.000000000000000000 ) ) ;
#137 = VERTEX_POINT ( 'NONE', #35 ) ;
#138 = SURFACE_STYLE_USAGE ( .BOTH. , #29 ) ;
#139 = PRODUCT_RELATED_PRODUCT_CATEGORY ( 'part', '', ( #182 ) ) ;
#140 = DIRECTION ( 'NONE',  ( -1.000000000000000000, 0.000000000000000000, 0.000000000000000000 ) ) ;
#141 = FACE_OUTER_BOUND ( 'NONE', #153, .T. ) ;
#142 = DIMENSIONAL_EXPONENTS ( 1.000000000000000000, 0.000000000000000000, 0.000000000000000000, 0.000000000000000000, 0.000000000000000000, 0.000000000000000000, 0.000000000000000000 ) ;
#143 = CARTESIAN_POINT ( 'NONE',  ( -6.123233995736766036E-17, 2.500000000000000000, 0.000000000000000000 ) ) ;
#144 =( NAMED_UNIT ( * ) PLANE_ANGLE_UNIT ( ) SI_UNIT ( $, .RADIAN. ) );
#145 = EDGE_CURVE ( 'NONE', #137, #44, #17, .T. ) ;
#146 = DIRECTION ( 'NONE',  ( 0.000000000000000000, 0.000000000000000000, 1.000000000000000000 ) ) ;
#147 = CARTESIAN_POINT ( 'NONE',  ( -6.123233995736766036E-17, 2.500000000000000000, 0.000000000000000000 ) ) ;
#148 = FILL_AREA_STYLE ('',( #87 ) ) ;
#149 = PRODUCT_DEFINITION_SHAPE ( 'NONE', 'NONE',  #77 ) ;
#150 = LENGTH_MEASURE_WITH_UNIT ( LENGTH_MEASURE( 0.02539999999999999897 ), #214 );
#151 =( NAMED_UNIT ( * ) SI_UNIT ( $, .STERADIAN. ) SOLID_ANGLE_UNIT ( ) );
#152 = VECTOR ( 'NONE', #222, 39.37007874015748854 ) ;
#153 = EDGE_LOOP ( 'NONE', ( #232, #133, #169, #253 ) ) ;
#154 = DIRECTION ( 'NONE',  ( 1.000000000000000000, 0.000000000000000000, 0.000000000000000000 ) ) ;
#155 = VERTEX_POINT ( 'NONE', #174 ) ;
#156 = VERTEX_POINT ( 'NONE', #161 ) ;
#157 = AXIS2_PLACEMENT_3D ( 'NONE', #162, #96, #218 ) ;
#158 = ADVANCED_FACE ( 'NONE', ( #240 ), #159, .T. ) ;
#159 = CYLINDRICAL_SURFACE ( 'NONE', #205, 0.1249999999999999029 ) ;
#160 = PRESENTATION_STYLE_ASSIGNMENT (( #55 ) ) ;
#161 = CARTESIAN_POINT ( 'NONE',  ( 0.1249999999999999584, 0.1249999999999996392, 1.530808498934190893E-17 ) ) ;
#162 = CARTESIAN_POINT ( 'NONE',  ( 2.304996744654222029E-16, 0.1249999999999996253, 0.000000000000000000 ) ) ;
#163 = MANIFOLD_SOLID_BREP ( 'Revolve - Tool Body (Pointed)', #24 ) ;
#164 = DIRECTION ( 'NONE',  ( -1.000000000000000000, 0.000000000000000000, 0.000000000000000000 ) ) ;
#165 = CARTESIAN_POINT ( 'NONE',  ( 0.1249999999999999445, 2.500000000000000000, 1.530808498934190893E-17 ) ) ;
#166 = CLOSED_SHELL ( 'NONE', ( #109, #38, #211 ) ) ;
#167 = CARTESIAN_POINT ( 'NONE',  ( 0.000000000000000000, 0.000000000000000000, 0.000000000000000000 ) ) ;
#168 = UNCERTAINTY_MEASURE_WITH_UNIT (LENGTH_MEASURE( 1.000000000000000082E-05 ), #93, 'distance_accuracy_value', 'NONE');
#169 = ORIENTED_EDGE ( 'NONE', *, *, #60, .T. ) ;
#170 =( NAMED_UNIT ( * ) PLANE_ANGLE_UNIT ( ) SI_UNIT ( $, .RADIAN. ) );
#171 = ORIENTED_EDGE ( 'NONE', *, *, #114, .T. ) ;
#172 = ORIENTED_EDGE ( 'NONE', *, *, #247, .T. ) ;
#173 = CARTESIAN_POINT ( 'NONE',  ( 0.000000000000000000, 39.37007874015748143, 0.000000000000000000 ) ) ;
#174 = CARTESIAN_POINT ( 'NONE',  ( -0.1250000000000001110, 2.500000000000000000, 0.000000000000000000 ) ) ;
#175 = EDGE_CURVE ( 'NONE', #30, #44, #206, .T. ) ;
#176 = COLOUR_RGB ( '',1.000000000000000000, 0.000000000000000000, 0.000000000000000000 ) ;
#177 =( NAMED_UNIT ( * ) PLANE_ANGLE_UNIT ( ) SI_UNIT ( $, .RADIAN. ) );
#178 = SURFACE_SIDE_STYLE ('',( #183 ) ) ;
#179 = AXIS2_PLACEMENT_3D ( 'NONE', #122, #52, #262 ) ;
#180 = PRESENTATION_LAYER_ASSIGNMENT (  '', '', ( #196 ) ) ;
#181 = CARTESIAN_POINT ( 'NONE',  ( 0.000000000000000000, 0.1249999999999995559, 0.000000000000000000 ) ) ;
#182 = PRODUCT ( '06135', '06135', '', ( #116 ) ) ;
#183 = SURFACE_STYLE_FILL_AREA ( #148 ) ;
#184 = FILL_AREA_STYLE_COLOUR ( '', #33 ) ;
#185 =( GEOMETRIC_REPRESENTATION_CONTEXT ( 3 ) GLOBAL_UNCERTAINTY_ASSIGNED_CONTEXT ( ( #248 ) ) GLOBAL_UNIT_ASSIGNED_CONTEXT ( ( #50, #31, #195 ) ) REPRESENTATION_CONTEXT ( 'NONE', 'WORKASPACE' ) );
#186 = APPLICATION_PROTOCOL_DEFINITION ( 'draft international standard', 'automotive_design', 1998, #70 ) ;
#187 = EDGE_LOOP ( 'NONE', ( #251, #22, #11 ) ) ;
#188 =( NAMED_UNIT ( * ) PLANE_ANGLE_UNIT ( ) SI_UNIT ( $, .RADIAN. ) );
#189 = PLANE ( 'NONE',  #36 ) ;
#190 = LENGTH_MEASURE_WITH_UNIT ( LENGTH_MEASURE( 0.02539999999999999897 ), #228 );
#191 = MECHANICAL_DESIGN_GEOMETRIC_PRESENTATION_REPRESENTATION (  '', ( #196 ), #53 ) ;
#192 =( NAMED_UNIT ( * ) SI_UNIT ( $, .STERADIAN. ) SOLID_ANGLE_UNIT ( ) );
#193 = ORIENTED_EDGE ( 'NONE', *, *, #60, .F. ) ;
#194 = COLOUR_RGB ( '',1.000000000000000000, 0.000000000000000000, 0.000000000000000000 ) ;
#195 =( NAMED_UNIT ( * ) SI_UNIT ( $, .STERADIAN. ) SOLID_ANGLE_UNIT ( ) );
#196 = STYLED_ITEM ( 'NONE', ( #81 ), #211 ) ;
#197 = DIMENSIONAL_EXPONENTS ( 1.000000000000000000, 0.000000000000000000, 0.000000000000000000, 0.000000000000000000, 0.000000000000000000, 0.000000000000000000, 0.000000000000000000 ) ;
#198 = LENGTH_MEASURE_WITH_UNIT ( LENGTH_MEASURE( 0.02539999999999999897 ), #120 );
#199 = SURFACE_STYLE_FILL_AREA ( #80 ) ;
#200 = PRESENTATION_LAYER_ASSIGNMENT (  '', '', ( #212 ) ) ;
#201 = EDGE_CURVE ( 'NONE', #137, #30, #106, .T. ) ;
#202 = FILL_AREA_STYLE ('',( #225 ) ) ;
#203 = AXIS2_PLACEMENT_3D ( 'NONE', #224, #23, #83 ) ;
#204 = FACE_OUTER_BOUND ( 'NONE', #207, .T. ) ;
#205 = AXIS2_PLACEMENT_3D ( 'NONE', #236, #51, #140 ) ;
#206 = CIRCLE ( 'NONE', #92, 0.1249999999999999861 ) ;
#207 = EDGE_LOOP ( 'NONE', ( #8, #10, #171 ) ) ;
#208 = LENGTH_MEASURE_WITH_UNIT ( LENGTH_MEASURE( 0.02539999999999999897 ), #134 );
#209 = ORIENTED_EDGE ( 'NONE', *, *, #175, .F. ) ;
#210 = FACE_OUTER_BOUND ( 'NONE', #215, .T. ) ;
#211 = ADVANCED_FACE ( 'NONE', ( #204 ), #67, .T. ) ;
#212 = STYLED_ITEM ( 'NONE', ( #27 ), #38 ) ;
#213 =( NAMED_UNIT ( * ) SI_UNIT ( $, .STERADIAN. ) SOLID_ANGLE_UNIT ( ) );
#214 =( LENGTH_UNIT ( ) NAMED_UNIT ( * ) SI_UNIT ( $, .METRE. ) );
#215 = EDGE_LOOP ( 'NONE', ( #118, #209 ) ) ;
#216 = FILL_AREA_STYLE_COLOUR ( '', #194 ) ;
#217 = MECHANICAL_DESIGN_GEOMETRIC_PRESENTATION_REPRESENTATION (  '', ( #82 ), #62 ) ;
#218 = DIRECTION ( 'NONE',  ( -1.000000000000000000, -1.365923996832134074E-16, 0.000000000000000000 ) ) ;
#219 = AXIS2_PLACEMENT_3D ( 'NONE', #167, #246, #154 ) ;
#220 = DIRECTION ( 'NONE',  ( -1.228345323885430886E-16, 1.000000000000000000, -0.000000000000000000 ) ) ;
#221 = DIRECTION ( 'NONE',  ( -1.000000000000000000, 0.000000000000000000, 0.000000000000000000 ) ) ;
#222 = DIRECTION ( 'NONE',  ( 8.659560562354947649E-17, 0.7071067811865462405, -0.7071067811865486830 ) ) ;
#223 = STYLED_ITEM ( 'NONE', ( #160 ), #109 ) ;
#224 = CARTESIAN_POINT ( 'NONE',  ( 2.304996744654222029E-16, 0.1249999999999996253, 0.000000000000000000 ) ) ;
#225 = FILL_AREA_STYLE_COLOUR ( '', #49 ) ;
#226 = UNCERTAINTY_MEASURE_WITH_UNIT (LENGTH_MEASURE( 1.000000000000000082E-05 ), #71, 'distance_accuracy_value', 'NONE');
#227 = FACE_OUTER_BOUND ( 'NONE', #65, .T. ) ;
#228 =( LENGTH_UNIT ( ) NAMED_UNIT ( * ) SI_UNIT ( $, .METRE. ) );
#229 = CIRCLE ( 'NONE', #256, 0.1250000000000000278 ) ;
#230 =( GEOMETRIC_REPRESENTATION_CONTEXT ( 3 ) GLOBAL_UNCERTAINTY_ASSIGNED_CONTEXT ( ( #168 ) ) GLOBAL_UNIT_ASSIGNED_CONTEXT ( ( #93, #170, #213 ) ) REPRESENTATION_CONTEXT ( 'NONE', 'WORKASPACE' ) );
#231 = LINE ( 'NONE', #255, #48 ) ;
#232 = ORIENTED_EDGE ( 'NONE', *, *, #12, .F. ) ;
#233 = FILL_AREA_STYLE ('',( #90 ) ) ;
#234 = CIRCLE ( 'NONE', #21, 0.1250000000000000278 ) ;
#235 =( NAMED_UNIT ( * ) PLANE_ANGLE_UNIT ( ) SI_UNIT ( $, .RADIAN. ) );
#236 = CARTESIAN_POINT ( 'NONE',  ( -6.123233995736766036E-17, 2.500000000000000000, 0.000000000000000000 ) ) ;
#237 = DIRECTION ( 'NONE',  ( -1.228345323885430886E-16, 1.000000000000000000, -0.000000000000000000 ) ) ;
#238 = CIRCLE ( 'NONE', #110, 0.1249999999999999861 ) ;
#239 = DIRECTION ( 'NONE',  ( 0.000000000000000000, 0.000000000000000000, -1.000000000000000000 ) ) ;
#240 = FACE_OUTER_BOUND ( 'NONE', #73, .T. ) ;
#241 = COLOUR_RGB ( '',0.7921568627450980005, 0.8196078431372548767, 0.9333333333333333481 ) ;
#242 = MECHANICAL_DESIGN_GEOMETRIC_PRESENTATION_REPRESENTATION (  '', ( #129 ), #230 ) ;
#243 = EDGE_CURVE ( 'NONE', #156, #135, #75, .T. ) ;
#244 = FILL_AREA_STYLE ('',( #184 ) ) ;
#245 = MECHANICAL_DESIGN_GEOMETRIC_PRESENTATION_REPRESENTATION (  '', ( #223 ), #185 ) ;
#246 = DIRECTION ( 'NONE',  ( 0.000000000000000000, 0.000000000000000000, 1.000000000000000000 ) ) ;
#247 = EDGE_CURVE ( 'NONE', #155, #46, #234, .T. ) ;
#248 = UNCERTAINTY_MEASURE_WITH_UNIT (LENGTH_MEASURE( 1.000000000000000082E-05 ), #50, 'distance_accuracy_value', 'NONE');
#249 = CARTESIAN_POINT ( 'NONE',  ( 0.000000000000000000, 0.1249999999999995559, 0.1249999999999999861 ) ) ;
#250 = AXIS2_PLACEMENT_3D ( 'NONE', #78, #237, #221 ) ;
#251 = ORIENTED_EDGE ( 'NONE', *, *, #145, .F. ) ;
#252 = FACE_OUTER_BOUND ( 'NONE', #113, .T. ) ;
#253 = ORIENTED_EDGE ( 'NONE', *, *, #119, .F. ) ;
#254 = MANIFOLD_SOLID_BREP ( 'Revolve - Cutting Edge', #166 ) ;
#255 = CARTESIAN_POINT ( 'NONE',  ( 0.1249999999999998335, 2.500000000000000000, 1.530808498934190276E-17 ) ) ;
#256 = AXIS2_PLACEMENT_3D ( 'NONE', #143, #220, #76 ) ;
#257 = AXIS2_PLACEMENT_3D ( 'NONE', #263, #58, #146 ) ;
#258 = ADVANCED_FACE ( 'NONE', ( #252 ), #59, .F. ) ;
#259 = CARTESIAN_POINT ( 'NONE',  ( 0.000000000000000000, 0.000000000000000000, 0.000000000000000000 ) ) ;
#260 = CARTESIAN_POINT ( 'NONE',  ( 0.000000000000000000, 0.1249999999999995559, 0.000000000000000000 ) ) ;
#261 = CARTESIAN_POINT ( 'NONE',  ( -0.1249999999999999584, 2.500000000000000000, 0.000000000000000000 ) ) ;
#262 = DIRECTION ( 'NONE',  ( -1.000000000000000000, -1.228345323885430886E-16, 0.000000000000000000 ) ) ;
#263 = CARTESIAN_POINT ( 'NONE',  ( 0.000000000000000000, 39.37007874015748143, 0.000000000000000000 ) ) ;
#264 =( LENGTH_UNIT ( ) NAMED_UNIT ( * ) SI_UNIT ( $, .METRE. ) );
#265 =( GEOMETRIC_REPRESENTATION_CONTEXT ( 3 ) GLOBAL_UNCERTAINTY_ASSIGNED_CONTEXT ( ( #226 ) ) GLOBAL_UNIT_ASSIGNED_CONTEXT ( ( #71, #188, #7 ) ) REPRESENTATION_CONTEXT ( 'NONE', 'WORKASPACE' ) );
ENDSEC;
END-ISO-10303-21;
