ISO-10303-21;
HEADER;
FILE_DESCRIPTION (( 'STEP AP214' ),
    '1' );
FILE_NAME ('Micro_GEMM-060-4.STEP',
    '2021-09-01T21:43:57',
    ( '' ),
    ( '' ),
    'SwSTEP 2.0',
    'SolidWorks 2020',
    '' );
FILE_SCHEMA (( 'AUTOMOTIVE_DESIGN' ));
ENDSEC;

DATA;
#1 = LINE ( 'NONE', #157, #246 ) ;
#2 = DIRECTION ( 'NONE',  ( -0.0000000000000000000, -0.0000000000000000000, -1.000000000000000000 ) ) ;
#3 = DIRECTION ( 'NONE',  ( -0.0000000000000000000, -0.0000000000000000000, -1.000000000000000000 ) ) ;
#4 = DIRECTION ( 'NONE',  ( -1.224646799147353207E-16, -0.0000000000000000000, -1.000000000000000000 ) ) ;
#5 = PRESENTATION_LAYER_ASSIGNMENT (  '', '', ( #264 ) ) ;
#6 = PRODUCT_DEFINITION ( 'UNKNOWN', '', #38, #22 ) ;
#7 = CARTESIAN_POINT ( 'NONE',  ( 0.0000000000000000000, 0.0000000000000000000, 2.244094000000000033 ) ) ;
#8 = DIRECTION ( 'NONE',  ( -1.000000000000000000, 0.0000000000000000000, 0.0000000000000000000 ) ) ;
#9 = ADVANCED_BREP_SHAPE_REPRESENTATION ( 'Micro_GEMM-060-4', ( #48, #269 ), #294 ) ;
#10 = EDGE_CURVE ( 'NONE', #63, #82, #108, .T. ) ;
#11 = AXIS2_PLACEMENT_3D ( 'NONE', #179, #275, #112 ) ;
#12 = ORIENTED_EDGE ( 'NONE', *, *, #285, .T. ) ;
#13 = ORIENTED_EDGE ( 'NONE', *, *, #95, .T. ) ;
#14 = EDGE_CURVE ( 'NONE', #63, #243, #214, .T. ) ;
#15 = FACE_OUTER_BOUND ( 'NONE', #247, .T. ) ;
#16 = ORIENTED_EDGE ( 'NONE', *, *, #257, .F. ) ;
#17 = SURFACE_SIDE_STYLE ('',( #248 ) ) ;
#18 = EDGE_LOOP ( 'NONE', ( #61, #197, #119, #99 ) ) ;
#19 = SURFACE_STYLE_USAGE ( .BOTH. , #17 ) ;
#20 = ORIENTED_EDGE ( 'NONE', *, *, #291, .F. ) ;
#21 = DIRECTION ( 'NONE',  ( 1.000000000000000000, 0.0000000000000000000, 0.0000000000000000000 ) ) ;
#22 = PRODUCT_DEFINITION_CONTEXT ( 'detailed design', #145, 'design' ) ;
#23 = DIRECTION ( 'NONE',  ( 1.000000000000000000, 0.0000000000000000000, 0.0000000000000000000 ) ) ;
#24 = CARTESIAN_POINT ( 'NONE',  ( 1.769594913022618037E-33, 0.0000000000000000000, 1.444983904138465938E-17 ) ) ;
#25 =( LENGTH_UNIT ( ) NAMED_UNIT ( * ) SI_UNIT ( $, .METRE. ) );
#26 = VECTOR ( 'NONE', #105, 39.37007874015748143 ) ;
#27 = FACE_OUTER_BOUND ( 'NONE', #169, .T. ) ;
#28 = DIRECTION ( 'NONE',  ( 0.0000000000000000000, 0.0000000000000000000, 1.000000000000000000 ) ) ;
#29 = CARTESIAN_POINT ( 'NONE',  ( 0.1181100000000000066, 1.446430334472939084E-17, 2.229093999999999465 ) ) ;
#30 = DIRECTION ( 'NONE',  ( -0.0000000000000000000, -0.0000000000000000000, -1.000000000000000000 ) ) ;
#31 = CIRCLE ( 'NONE', #74, 0.1179918899999999882 ) ;
#32 = ORIENTED_EDGE ( 'NONE', *, *, #291, .T. ) ;
#33 = AXIS2_PLACEMENT_3D ( 'NONE', #190, #148, #54 ) ;
#34 = DIRECTION ( 'NONE',  ( 1.000000000000000000, 0.0000000000000000000, -0.0000000000000000000 ) ) ;
#35 = VERTEX_POINT ( 'NONE', #295 ) ;
#36 = FACE_OUTER_BOUND ( 'NONE', #152, .T. ) ;
#37 = ORIENTED_EDGE ( 'NONE', *, *, #141, .F. ) ;
#38 = PRODUCT_DEFINITION_FORMATION_WITH_SPECIFIED_SOURCE ( 'ANY', '', #281, .NOT_KNOWN. ) ;
#39 = ORIENTED_EDGE ( 'NONE', *, *, #237, .F. ) ;
#40 = VECTOR ( 'NONE', #182, 39.37007874015748143 ) ;
#41 = EDGE_LOOP ( 'NONE', ( #37, #32, #195, #268 ) ) ;
#42 = CARTESIAN_POINT ( 'NONE',  ( 1.769594913022618037E-33, 0.0000000000000000000, 1.444983904138465938E-17 ) ) ;
#43 = AXIS2_PLACEMENT_3D ( 'NONE', #144, #239, #34 ) ;
#44 = PRESENTATION_STYLE_ASSIGNMENT (( #19 ) ) ;
#45 = MECHANICAL_DESIGN_GEOMETRIC_PRESENTATION_REPRESENTATION (  '', ( #97 ), #133 ) ;
#46 = DIRECTION ( 'NONE',  ( -1.224646799147353207E-16, -0.0000000000000000000, -1.000000000000000000 ) ) ;
#47 = ADVANCED_FACE ( 'NONE', ( #270 ), #177, .T. ) ;
#48 = MANIFOLD_SOLID_BREP ( 'Cut-Revolve1', #166 ) ;
#49 = CARTESIAN_POINT ( 'NONE',  ( 0.0000000000000000000, 0.0000000000000000000, 0.0000000000000000000 ) ) ;
#50 = SURFACE_STYLE_USAGE ( .BOTH. , #158 ) ;
#51 = EDGE_CURVE ( 'NONE', #292, #82, #171, .T. ) ;
#52 = CYLINDRICAL_SURFACE ( 'NONE', #107, 0.1179918899999999882 ) ;
#53 = CARTESIAN_POINT ( 'NONE',  ( 0.0000000000000000000, 0.0000000000000000000, 2.244094000000000033 ) ) ;
#54 = DIRECTION ( 'NONE',  ( 1.000000000000000000, 0.0000000000000000000, -0.0000000000000000000 ) ) ;
#55 = CONICAL_SURFACE ( 'NONE', #202, 0.1031100000000002570, 0.7853981633974318477 ) ;
#56 = CARTESIAN_POINT ( 'NONE',  ( 0.0000000000000000000, 0.0000000000000000000, 2.244094000000000033 ) ) ;
#57 = PLANE ( 'NONE',  #43 ) ;
#58 = EDGE_CURVE ( 'NONE', #123, #244, #262, .T. ) ;
#59 = VERTEX_POINT ( 'NONE', #88 ) ;
#60 = LINE ( 'NONE', #283, #147 ) ;
#61 = ORIENTED_EDGE ( 'NONE', *, *, #76, .F. ) ;
#62 = PRODUCT_CONTEXT ( 'NONE', #111, 'mechanical' ) ;
#63 = VERTEX_POINT ( 'NONE', #86 ) ;
#64 = ORIENTED_EDGE ( 'NONE', *, *, #186, .T. ) ;
#65 = CIRCLE ( 'NONE', #94, 0.1179918899999999882 ) ;
#66 = DIRECTION ( 'NONE',  ( -1.224646799147353207E-16, -0.0000000000000000000, -1.000000000000000000 ) ) ;
#67 = SURFACE_STYLE_FILL_AREA ( #69 ) ;
#68 = DIRECTION ( 'NONE',  ( -0.7071067811865358044, 0.0000000000000000000, -0.7071067811865590080 ) ) ;
#69 = FILL_AREA_STYLE ('',( #251 ) ) ;
#70 = CARTESIAN_POINT ( 'NONE',  ( -0.1031100000000002570, 0.0000000000000000000, 2.244094000000000033 ) ) ;
#71 = EDGE_CURVE ( 'NONE', #244, #123, #167, .T. ) ;
#72 = DIRECTION ( 'NONE',  ( 1.000000000000000000, 0.0000000000000000000, 0.0000000000000000000 ) ) ;
#73 = FACE_OUTER_BOUND ( 'NONE', #146, .T. ) ;
#74 = AXIS2_PLACEMENT_3D ( 'NONE', #24, #90, #87 ) ;
#75 = DIMENSIONAL_EXPONENTS ( 1.000000000000000000, 0.0000000000000000000, 0.0000000000000000000, 0.0000000000000000000, 0.0000000000000000000, 0.0000000000000000000, 0.0000000000000000000 ) ;
#76 = EDGE_CURVE ( 'NONE', #63, #59, #229, .T. ) ;
#77 = DIRECTION ( 'NONE',  ( 0.0000000000000000000, 0.0000000000000000000, -1.000000000000000000 ) ) ;
#78 = AXIS2_PLACEMENT_3D ( 'NONE', #261, #28, #242 ) ;
#79 = ORIENTED_EDGE ( 'NONE', *, *, #186, .F. ) ;
#80 = EDGE_LOOP ( 'NONE', ( #20, #265, #193, #64 ) ) ;
#81 = AXIS2_PLACEMENT_3D ( 'NONE', #7, #77, #8 ) ;
#82 = VERTEX_POINT ( 'NONE', #134 ) ;
#83 = DIRECTION ( 'NONE',  ( -1.000000000000000000, 0.0000000000000000000, 0.0000000000000000000 ) ) ;
#84 = ADVANCED_FACE ( 'NONE', ( #206 ), #178, .T. ) ;
#85 = ORIENTED_EDGE ( 'NONE', *, *, #237, .T. ) ;
#86 = CARTESIAN_POINT ( 'NONE',  ( 0.1179918900000000576, 0.0000000000000000000, 0.5118110000000000159 ) ) ;
#87 = DIRECTION ( 'NONE',  ( -1.000000000000000000, 0.0000000000000000000, 1.224646799147353454E-16 ) ) ;
#88 = CARTESIAN_POINT ( 'NONE',  ( 0.1179918899999999882, 1.444983904138465938E-17, 0.0000000000000000000 ) ) ;
#89 = COLOUR_RGB ( '',0.7921568627450980005, 0.8196078431372548767, 0.9333333333333333481 ) ;
#90 = DIRECTION ( 'NONE',  ( -1.224646799147353207E-16, -0.0000000000000000000, -1.000000000000000000 ) ) ;
#91 = DIRECTION ( 'NONE',  ( -1.000000000000000000, 0.0000000000000000000, 0.0000000000000000000 ) ) ;
#92 = CARTESIAN_POINT ( 'NONE',  ( -0.1179918899999999882, 0.0000000000000000000, 1.444983904138465938E-17 ) ) ;
#93 = PLANE ( 'NONE',  #33 ) ;
#94 = AXIS2_PLACEMENT_3D ( 'NONE', #42, #233, #213 ) ;
#95 = EDGE_CURVE ( 'NONE', #35, #59, #31, .T. ) ;
#96 = ORIENTED_EDGE ( 'NONE', *, *, #117, .F. ) ;
#97 = STYLED_ITEM ( 'NONE', ( #131 ), #48 ) ;
#98 = CARTESIAN_POINT ( 'NONE',  ( 0.1031100000000002570, 1.354581824536888722E-17, 2.244094000000000033 ) ) ;
#99 = ORIENTED_EDGE ( 'NONE', *, *, #159, .F. ) ;
#100 = DIRECTION ( 'NONE',  ( -1.000000000000000000, 0.0000000000000000000, 0.0000000000000000000 ) ) ;
#101 = ORIENTED_EDGE ( 'NONE', *, *, #221, .F. ) ;
#102 = APPLICATION_PROTOCOL_DEFINITION ( 'draft international standard', 'automotive_design', 1998, #145 ) ;
#103 = EDGE_LOOP ( 'NONE', ( #39, #149, #174, #96 ) ) ;
#104 = AXIS2_PLACEMENT_3D ( 'NONE', #224, #228, #23 ) ;
#105 = DIRECTION ( 'NONE',  ( 0.1736481776669314414, 0.0000000000000000000, 0.9848077530122077983 ) ) ;
#106 = APPLICATION_PROTOCOL_DEFINITION ( 'draft international standard', 'automotive_design', 1998, #111 ) ;
#107 = AXIS2_PLACEMENT_3D ( 'NONE', #192, #165, #280 ) ;
#108 = LINE ( 'NONE', #219, #26 ) ;
#109 = FILL_AREA_STYLE ('',( #154 ) ) ;
#110 = AXIS2_PLACEMENT_3D ( 'NONE', #137, #282, #72 ) ;
#111 = APPLICATION_CONTEXT ( 'automotive_design' ) ;
#112 = DIRECTION ( 'NONE',  ( 1.000000000000000000, 0.0000000000000000000, 0.0000000000000000000 ) ) ;
#113 = AXIS2_PLACEMENT_3D ( 'NONE', #299, #298, #21 ) ;
#114 = CARTESIAN_POINT ( 'NONE',  ( 0.0000000000000000000, 0.0000000000000000000, 2.244094000000000033 ) ) ;
#115 = FACE_OUTER_BOUND ( 'NONE', #80, .T. ) ;
#116 = CARTESIAN_POINT ( 'NONE',  ( 0.1031100000000002570, 1.262733314600838667E-17, 2.244094000000000033 ) ) ;
#117 = EDGE_CURVE ( 'NONE', #172, #123, #1, .T. ) ;
#118 = CARTESIAN_POINT ( 'NONE',  ( -0.1179918899999999188, 1.445707119305702357E-17, 0.5118110000000000159 ) ) ;
#119 = ORIENTED_EDGE ( 'NONE', *, *, #257, .T. ) ;
#120 = CONICAL_SURFACE ( 'NONE', #110, 0.1179918899999999882, 0.1745329251994339470 ) ;
#121 = ORIENTED_EDGE ( 'NONE', *, *, #159, .T. ) ;
#122 = CARTESIAN_POINT ( 'NONE',  ( -0.1181100000000000066, 0.0000000000000000000, 2.244094000000000033 ) ) ;
#123 = VERTEX_POINT ( 'NONE', #249 ) ;
#124 = ADVANCED_FACE ( 'NONE', ( #255 ), #161, .T. ) ;
#125 = DIRECTION ( 'NONE',  ( 0.0000000000000000000, 0.0000000000000000000, 1.000000000000000000 ) ) ;
#126 = ORIENTED_EDGE ( 'NONE', *, *, #71, .T. ) ;
#127 = PRESENTATION_LAYER_ASSIGNMENT (  '', '', ( #97 ) ) ;
#128 =( NAMED_UNIT ( * ) PLANE_ANGLE_UNIT ( ) SI_UNIT ( $, .RADIAN. ) );
#129 = ORIENTED_EDGE ( 'NONE', *, *, #285, .F. ) ;
#130 = ADVANCED_FACE ( 'NONE', ( #27 ), #207, .T. ) ;
#131 = PRESENTATION_STYLE_ASSIGNMENT (( #50 ) ) ;
#132 = UNCERTAINTY_MEASURE_WITH_UNIT (LENGTH_MEASURE( 1.000000000000000082E-05 ), #135, 'distance_accuracy_value', 'NONE');
#133 =( GEOMETRIC_REPRESENTATION_CONTEXT ( 3 ) GLOBAL_UNCERTAINTY_ASSIGNED_CONTEXT ( ( #132 ) ) GLOBAL_UNIT_ASSIGNED_CONTEXT ( ( #135, #180, #278 ) ) REPRESENTATION_CONTEXT ( 'NONE', 'WORKASPACE' ) );
#134 = CARTESIAN_POINT ( 'NONE',  ( 0.1181100000000000899, 1.446430334472940009E-17, 0.5124808350957151815 ) ) ;
#135 =( CONVERSION_BASED_UNIT ( 'INCH', #223 ) LENGTH_UNIT ( ) NAMED_UNIT ( #284 ) );
#136 = AXIS2_PLACEMENT_3D ( 'NONE', #162, #235, #258 ) ;
#137 = CARTESIAN_POINT ( 'NONE',  ( 6.267877029184060992E-17, 0.0000000000000000000, 0.5118110000000000159 ) ) ;
#138 = DIRECTION ( 'NONE',  ( 0.0000000000000000000, 0.0000000000000000000, 1.000000000000000000 ) ) ;
#139 = CARTESIAN_POINT ( 'NONE',  ( -0.1181099999999999373, 0.0000000000000000000, 0.5124808350957151815 ) ) ;
#140 = VECTOR ( 'NONE', #211, 39.37007874015748143 ) ;
#141 = EDGE_CURVE ( 'NONE', #243, #63, #191, .T. ) ;
#142 = ORIENTED_EDGE ( 'NONE', *, *, #141, .T. ) ;
#143 = DIMENSIONAL_EXPONENTS ( 1.000000000000000000, 0.0000000000000000000, 0.0000000000000000000, 0.0000000000000000000, 0.0000000000000000000, 0.0000000000000000000, 0.0000000000000000000 ) ;
#144 = CARTESIAN_POINT ( 'NONE',  ( 0.0000000000000000000, 0.0000000000000000000, 0.0000000000000000000 ) ) ;
#145 = APPLICATION_CONTEXT ( 'automotive_design' ) ;
#146 = EDGE_LOOP ( 'NONE', ( #142, #150, #241, #16 ) ) ;
#147 = VECTOR ( 'NONE', #30, 39.37007874015748143 ) ;
#148 = DIRECTION ( 'NONE',  ( 0.0000000000000000000, 0.0000000000000000000, 1.000000000000000000 ) ) ;
#149 = ORIENTED_EDGE ( 'NONE', *, *, #221, .T. ) ;
#150 = ORIENTED_EDGE ( 'NONE', *, *, #76, .T. ) ;
#151 =( NAMED_UNIT ( * ) PLANE_ANGLE_UNIT ( ) SI_UNIT ( $, .RADIAN. ) );
#152 = EDGE_LOOP ( 'NONE', ( #101, #129, #209, #215 ) ) ;
#153 = DIRECTION ( 'NONE',  ( -1.000000000000000000, 0.0000000000000000000, 0.0000000000000000000 ) ) ;
#154 = FILL_AREA_STYLE_COLOUR ( '', #230 ) ;
#155 = UNCERTAINTY_MEASURE_WITH_UNIT (LENGTH_MEASURE( 1.000000000000000082E-05 ), #204, 'distance_accuracy_value', 'NONE');
#156 = LENGTH_MEASURE_WITH_UNIT ( LENGTH_MEASURE( 0.02539999999999999897 ), #297 );
#157 = CARTESIAN_POINT ( 'NONE',  ( -0.1031100000000002570, 0.0000000000000000000, 2.244094000000000033 ) ) ;
#158 = SURFACE_SIDE_STYLE ('',( #67 ) ) ;
#159 = EDGE_CURVE ( 'NONE', #59, #35, #65, .T. ) ;
#160 = CIRCLE ( 'NONE', #78, 0.1031100000000002570 ) ;
#161 = CYLINDRICAL_SURFACE ( 'NONE', #196, 0.1179918899999999882 ) ;
#162 = CARTESIAN_POINT ( 'NONE',  ( 6.276080143243302007E-17, 0.0000000000000000000, 0.5124808350957151815 ) ) ;
#163 = AXIS2_PLACEMENT_3D ( 'NONE', #56, #2, #276 ) ;
#164 = CARTESIAN_POINT ( 'NONE',  ( -0.1179918899999999188, 1.444983904138465938E-17, 0.5118110000000000159 ) ) ;
#165 = DIRECTION ( 'NONE',  ( -1.224646799147353207E-16, -0.0000000000000000000, -1.000000000000000000 ) ) ;
#166 = CLOSED_SHELL ( 'NONE', ( #279, #84, #274, #47, #130, #226, #245, #194, #124, #296 ) ) ;
#167 = CIRCLE ( 'NONE', #11, 0.1181100000000000066 ) ;
#168 = CARTESIAN_POINT ( 'NONE',  ( 0.0000000000000000000, 0.0000000000000000000, 2.244094000000000033 ) ) ;
#169 = EDGE_LOOP ( 'NONE', ( #289, #126, #293, #79 ) ) ;
#170 = FACE_OUTER_BOUND ( 'NONE', #103, .T. ) ;
#171 = CIRCLE ( 'NONE', #253, 0.1181100000000000066 ) ;
#172 = VERTEX_POINT ( 'NONE', #70 ) ;
#173 =( NAMED_UNIT ( * ) SI_UNIT ( $, .STERADIAN. ) SOLID_ANGLE_UNIT ( ) );
#174 = ORIENTED_EDGE ( 'NONE', *, *, #58, .F. ) ;
#175 = VECTOR ( 'NONE', #286, 39.37007874015748143 ) ;
#176 = EDGE_LOOP ( 'NONE', ( #287, #238, #217, #267 ) ) ;
#177 = CYLINDRICAL_SURFACE ( 'NONE', #163, 0.1181100000000000066 ) ;
#178 = CONICAL_SURFACE ( 'NONE', #104, 0.1179918899999999882, 0.1745329251994339470 ) ;
#179 = CARTESIAN_POINT ( 'NONE',  ( 0.0000000000000000000, 0.0000000000000000000, 2.229093999999999465 ) ) ;
#180 =( NAMED_UNIT ( * ) PLANE_ANGLE_UNIT ( ) SI_UNIT ( $, .RADIAN. ) );
#181 = PRODUCT_RELATED_PRODUCT_CATEGORY ( 'part', '', ( #281 ) ) ;
#182 = DIRECTION ( 'NONE',  ( -1.224646799147353207E-16, -0.0000000000000000000, -1.000000000000000000 ) ) ;
#183 = AXIS2_PLACEMENT_3D ( 'NONE', #198, #200, #83 ) ;
#184 = CARTESIAN_POINT ( 'NONE',  ( 0.1179918899999999882, 1.444983904138465938E-17, -1.444983904138465938E-17 ) ) ;
#185 = LINE ( 'NONE', #92, #240 ) ;
#186 = EDGE_CURVE ( 'NONE', #82, #292, #271, .T. ) ;
#187 = LINE ( 'NONE', #164, #175 ) ;
#188 = PRODUCT_DEFINITION_SHAPE ( 'NONE', 'NONE',  #6 ) ;
#189 = CIRCLE ( 'NONE', #203, 0.1031100000000002570 ) ;
#190 = CARTESIAN_POINT ( 'NONE',  ( 0.0000000000000000000, 0.0000000000000000000, 2.244094000000000033 ) ) ;
#191 = CIRCLE ( 'NONE', #225, 0.1179918899999999882 ) ;
#192 = CARTESIAN_POINT ( 'NONE',  ( 0.0000000000000000000, 0.0000000000000000000, 0.0000000000000000000 ) ) ;
#193 = ORIENTED_EDGE ( 'NONE', *, *, #10, .T. ) ;
#194 = ADVANCED_FACE ( 'NONE', ( #115 ), #120, .T. ) ;
#195 = ORIENTED_EDGE ( 'NONE', *, *, #51, .T. ) ;
#196 = AXIS2_PLACEMENT_3D ( 'NONE', #49, #256, #231 ) ;
#197 = ORIENTED_EDGE ( 'NONE', *, *, #14, .T. ) ;
#198 = CARTESIAN_POINT ( 'NONE',  ( 6.267877029184060992E-17, 0.0000000000000000000, 0.5118110000000000159 ) ) ;
#199 = SHAPE_DEFINITION_REPRESENTATION ( #188, #9 ) ;
#200 = DIRECTION ( 'NONE',  ( -1.224646799147353207E-16, -0.0000000000000000000, -1.000000000000000000 ) ) ;
#201 = EDGE_CURVE ( 'NONE', #123, #292, #288, .T. ) ;
#202 = AXIS2_PLACEMENT_3D ( 'NONE', #168, #260, #100 ) ;
#203 = AXIS2_PLACEMENT_3D ( 'NONE', #53, #138, #232 ) ;
#204 =( CONVERSION_BASED_UNIT ( 'INCH', #266 ) LENGTH_UNIT ( ) NAMED_UNIT ( #143 ) );
#205 = CARTESIAN_POINT ( 'NONE',  ( 6.276080143243302007E-17, 0.0000000000000000000, 0.5124808350957151815 ) ) ;
#206 = FACE_OUTER_BOUND ( 'NONE', #41, .T. ) ;
#207 = CYLINDRICAL_SURFACE ( 'NONE', #277, 0.1181100000000000066 ) ;
#208 = DIRECTION ( 'NONE',  ( 0.7071067811865358044, 8.659560562354788645E-17, -0.7071067811865590080 ) ) ;
#209 = ORIENTED_EDGE ( 'NONE', *, *, #117, .T. ) ;
#210 = MECHANICAL_DESIGN_GEOMETRIC_PRESENTATION_REPRESENTATION (  '', ( #264 ), #234 ) ;
#211 = DIRECTION ( 'NONE',  ( -0.0000000000000000000, -0.0000000000000000000, -1.000000000000000000 ) ) ;
#212 = CONICAL_SURFACE ( 'NONE', #81, 0.1031100000000002570, 0.7853981633974318477 ) ;
#213 = DIRECTION ( 'NONE',  ( -1.000000000000000000, 0.0000000000000000000, 1.224646799147353454E-16 ) ) ;
#214 = CIRCLE ( 'NONE', #183, 0.1179918899999999882 ) ;
#215 = ORIENTED_EDGE ( 'NONE', *, *, #71, .F. ) ;
#216 =( LENGTH_UNIT ( ) NAMED_UNIT ( * ) SI_UNIT ( $, .METRE. ) );
#217 = ORIENTED_EDGE ( 'NONE', *, *, #51, .F. ) ;
#218 = LINE ( 'NONE', #116, #259 ) ;
#219 = CARTESIAN_POINT ( 'NONE',  ( 0.1179918900000000576, 0.0000000000000000000, 0.5118110000000000159 ) ) ;
#220 = VERTEX_POINT ( 'NONE', #98 ) ;
#221 = EDGE_CURVE ( 'NONE', #220, #244, #218, .T. ) ;
#222 = EDGE_LOOP ( 'NONE', ( #13, #121 ) ) ;
#223 = LENGTH_MEASURE_WITH_UNIT ( LENGTH_MEASURE( 0.02539999999999999897 ), #25 );
#224 = CARTESIAN_POINT ( 'NONE',  ( 6.267877029184060992E-17, 0.0000000000000000000, 0.5118110000000000159 ) ) ;
#225 = AXIS2_PLACEMENT_3D ( 'NONE', #272, #66, #153 ) ;
#226 = ADVANCED_FACE ( 'NONE', ( #15 ), #93, .T. ) ;
#227 = CARTESIAN_POINT ( 'NONE',  ( 0.0000000000000000000, 0.0000000000000000000, 0.0000000000000000000 ) ) ;
#228 = DIRECTION ( 'NONE',  ( 1.224646799147353207E-16, 0.0000000000000000000, 1.000000000000000000 ) ) ;
#229 = LINE ( 'NONE', #184, #40 ) ;
#230 = COLOUR_RGB ( '',0.7921568627450980005, 0.8196078431372548767, 0.9333333333333333481 ) ;
#231 = DIRECTION ( 'NONE',  ( -1.000000000000000000, 0.0000000000000000000, 1.224646799147353454E-16 ) ) ;
#232 = DIRECTION ( 'NONE',  ( 1.000000000000000000, 0.0000000000000000000, 0.0000000000000000000 ) ) ;
#233 = DIRECTION ( 'NONE',  ( -1.224646799147353207E-16, -0.0000000000000000000, -1.000000000000000000 ) ) ;
#234 =( GEOMETRIC_REPRESENTATION_CONTEXT ( 3 ) GLOBAL_UNCERTAINTY_ASSIGNED_CONTEXT ( ( #254 ) ) GLOBAL_UNIT_ASSIGNED_CONTEXT ( ( #250, #151, #273 ) ) REPRESENTATION_CONTEXT ( 'NONE', 'WORKASPACE' ) );
#235 = DIRECTION ( 'NONE',  ( -1.224646799147353207E-16, -0.0000000000000000000, -1.000000000000000000 ) ) ;
#236 = EDGE_CURVE ( 'NONE', #244, #82, #60, .T. ) ;
#237 = EDGE_CURVE ( 'NONE', #220, #172, #189, .T. ) ;
#238 = ORIENTED_EDGE ( 'NONE', *, *, #236, .T. ) ;
#239 = DIRECTION ( 'NONE',  ( 0.0000000000000000000, 0.0000000000000000000, 1.000000000000000000 ) ) ;
#240 = VECTOR ( 'NONE', #4, 39.37007874015748143 ) ;
#241 = ORIENTED_EDGE ( 'NONE', *, *, #95, .F. ) ;
#242 = DIRECTION ( 'NONE',  ( 1.000000000000000000, 0.0000000000000000000, 0.0000000000000000000 ) ) ;
#243 = VERTEX_POINT ( 'NONE', #118 ) ;
#244 = VERTEX_POINT ( 'NONE', #29 ) ;
#245 = ADVANCED_FACE ( 'NONE', ( #36 ), #212, .T. ) ;
#246 = VECTOR ( 'NONE', #68, 39.37007874015748854 ) ;
#247 = EDGE_LOOP ( 'NONE', ( #12, #85 ) ) ;
#248 = SURFACE_STYLE_FILL_AREA ( #109 ) ;
#249 = CARTESIAN_POINT ( 'NONE',  ( -0.1181100000000000066, 0.0000000000000000000, 2.229093999999999465 ) ) ;
#250 =( CONVERSION_BASED_UNIT ( 'INCH', #156 ) LENGTH_UNIT ( ) NAMED_UNIT ( #75 ) );
#251 = FILL_AREA_STYLE_COLOUR ( '', #89 ) ;
#252 = DIRECTION ( 'NONE',  ( 1.000000000000000000, 0.0000000000000000000, 0.0000000000000000000 ) ) ;
#253 = AXIS2_PLACEMENT_3D ( 'NONE', #205, #46, #252 ) ;
#254 = UNCERTAINTY_MEASURE_WITH_UNIT (LENGTH_MEASURE( 1.000000000000000082E-05 ), #250, 'distance_accuracy_value', 'NONE');
#255 = FACE_OUTER_BOUND ( 'NONE', #18, .T. ) ;
#256 = DIRECTION ( 'NONE',  ( -1.224646799147353207E-16, -0.0000000000000000000, -1.000000000000000000 ) ) ;
#257 = EDGE_CURVE ( 'NONE', #243, #35, #185, .T. ) ;
#258 = DIRECTION ( 'NONE',  ( 1.000000000000000000, 0.0000000000000000000, 0.0000000000000000000 ) ) ;
#259 = VECTOR ( 'NONE', #208, 39.37007874015748854 ) ;
#260 = DIRECTION ( 'NONE',  ( 0.0000000000000000000, 0.0000000000000000000, -1.000000000000000000 ) ) ;
#261 = CARTESIAN_POINT ( 'NONE',  ( 0.0000000000000000000, 0.0000000000000000000, 2.244094000000000033 ) ) ;
#262 = CIRCLE ( 'NONE', #113, 0.1181100000000000066 ) ;
#263 = FACE_OUTER_BOUND ( 'NONE', #222, .T. ) ;
#264 = STYLED_ITEM ( 'NONE', ( #44 ), #9 ) ;
#265 = ORIENTED_EDGE ( 'NONE', *, *, #14, .F. ) ;
#266 = LENGTH_MEASURE_WITH_UNIT ( LENGTH_MEASURE( 0.02539999999999999897 ), #216 );
#267 = ORIENTED_EDGE ( 'NONE', *, *, #201, .F. ) ;
#268 = ORIENTED_EDGE ( 'NONE', *, *, #10, .F. ) ;
#269 = AXIS2_PLACEMENT_3D ( 'NONE', #227, #125, #290 ) ;
#270 = FACE_OUTER_BOUND ( 'NONE', #176, .T. ) ;
#271 = CIRCLE ( 'NONE', #136, 0.1181100000000000066 ) ;
#272 = CARTESIAN_POINT ( 'NONE',  ( 6.267877029184060992E-17, 0.0000000000000000000, 0.5118110000000000159 ) ) ;
#273 =( NAMED_UNIT ( * ) SI_UNIT ( $, .STERADIAN. ) SOLID_ANGLE_UNIT ( ) );
#274 = ADVANCED_FACE ( 'NONE', ( #170 ), #55, .T. ) ;
#275 = DIRECTION ( 'NONE',  ( 0.0000000000000000000, 0.0000000000000000000, -1.000000000000000000 ) ) ;
#276 = DIRECTION ( 'NONE',  ( -1.000000000000000000, 0.0000000000000000000, 0.0000000000000000000 ) ) ;
#277 = AXIS2_PLACEMENT_3D ( 'NONE', #114, #3, #91 ) ;
#278 =( NAMED_UNIT ( * ) SI_UNIT ( $, .STERADIAN. ) SOLID_ANGLE_UNIT ( ) );
#279 = ADVANCED_FACE ( 'NONE', ( #73 ), #52, .T. ) ;
#280 = DIRECTION ( 'NONE',  ( -1.000000000000000000, 0.0000000000000000000, 1.224646799147353454E-16 ) ) ;
#281 = PRODUCT ( 'Micro_GEMM-060-4', 'Micro_GEMM-060-4', '', ( #62 ) ) ;
#282 = DIRECTION ( 'NONE',  ( 1.224646799147353207E-16, 0.0000000000000000000, 1.000000000000000000 ) ) ;
#283 = CARTESIAN_POINT ( 'NONE',  ( 0.1181100000000000066, 1.446430334472939084E-17, 2.244094000000000033 ) ) ;
#284 = DIMENSIONAL_EXPONENTS ( 1.000000000000000000, 0.0000000000000000000, 0.0000000000000000000, 0.0000000000000000000, 0.0000000000000000000, 0.0000000000000000000, 0.0000000000000000000 ) ;
#285 = EDGE_CURVE ( 'NONE', #172, #220, #160, .T. ) ;
#286 = DIRECTION ( 'NONE',  ( -0.1736481776669312194, 2.126576849575783625E-17, 0.9848077530122077983 ) ) ;
#287 = ORIENTED_EDGE ( 'NONE', *, *, #58, .T. ) ;
#288 = LINE ( 'NONE', #122, #140 ) ;
#289 = ORIENTED_EDGE ( 'NONE', *, *, #236, .F. ) ;
#290 = DIRECTION ( 'NONE',  ( 1.000000000000000000, 0.0000000000000000000, 0.0000000000000000000 ) ) ;
#291 = EDGE_CURVE ( 'NONE', #243, #292, #187, .T. ) ;
#292 = VERTEX_POINT ( 'NONE', #139 ) ;
#293 = ORIENTED_EDGE ( 'NONE', *, *, #201, .T. ) ;
#294 =( GEOMETRIC_REPRESENTATION_CONTEXT ( 3 ) GLOBAL_UNCERTAINTY_ASSIGNED_CONTEXT ( ( #155 ) ) GLOBAL_UNIT_ASSIGNED_CONTEXT ( ( #204, #128, #173 ) ) REPRESENTATION_CONTEXT ( 'NONE', 'WORKASPACE' ) );
#295 = CARTESIAN_POINT ( 'NONE',  ( -0.1179918899999999882, 0.0000000000000000000, 2.889967808276931875E-17 ) ) ;
#296 = ADVANCED_FACE ( 'NONE', ( #263 ), #57, .F. ) ;
#297 =( LENGTH_UNIT ( ) NAMED_UNIT ( * ) SI_UNIT ( $, .METRE. ) );
#298 = DIRECTION ( 'NONE',  ( 0.0000000000000000000, 0.0000000000000000000, -1.000000000000000000 ) ) ;
#299 = CARTESIAN_POINT ( 'NONE',  ( 0.0000000000000000000, 0.0000000000000000000, 2.229093999999999465 ) ) ;
ENDSEC;
END-ISO-10303-21;
