ISO-10303-21;
HEADER;
FILE_DESCRIPTION (( 'STEP AP214' ),
    '1' );
FILE_NAME ('59608.STEP',
    '2023-07-24T15:14:58',
    ( '' ),
    ( '' ),
    'SwSTEP 2.0',
    'SolidWorks 2023',
    '' );
FILE_SCHEMA (( 'AUTOMOTIVE_DESIGN' ));
ENDSEC;

DATA;
#1 = UNCERTAINTY_MEASURE_WITH_UNIT (LENGTH_MEASURE( 1.000000000000000082E-05 ), #345, 'distance_accuracy_value', 'NONE');
#2 = ORIENTED_EDGE ( 'NONE', *, *, #343, .T. ) ;
#3 =( LENGTH_UNIT ( ) NAMED_UNIT ( * ) SI_UNIT ( .MILLI., .METRE. ) );
#4 = ORIENTED_EDGE ( 'NONE', *, *, #184, .T. ) ;
#5 = FACE_OUTER_BOUND ( 'NONE', #222, .T. ) ;
#6 = FACE_OUTER_BOUND ( 'NONE', #315, .T. ) ;
#7 = SURFACE_SIDE_STYLE ('',( #229 ) ) ;
#8 = AXIS2_PLACEMENT_3D ( 'NONE', #97, #128, #155 ) ;
#9 = PRESENTATION_LAYER_ASSIGNMENT (  '', '', ( #101 ) ) ;
#10 =( NAMED_UNIT ( * ) SI_UNIT ( $, .STERADIAN. ) SOLID_ANGLE_UNIT ( ) );
#11 =( NAMED_UNIT ( * ) PLANE_ANGLE_UNIT ( ) SI_UNIT ( $, .RADIAN. ) );
#12 =( LENGTH_UNIT ( ) NAMED_UNIT ( * ) SI_UNIT ( .MILLI., .METRE. ) );
#13 = PRESENTATION_LAYER_ASSIGNMENT (  '', '', ( #199 ) ) ;
#14 = SURFACE_SIDE_STYLE ('',( #270 ) ) ;
#15 = CIRCLE ( 'NONE', #365, 9.500000000000000000 ) ;
#16 = DIRECTION ( 'NONE',  ( 1.000000000000000000, 1.236440607496819135E-16, 0.000000000000000000 ) ) ;
#17 = DIRECTION ( 'NONE',  ( 1.000000000000000000, 0.000000000000000000, 0.000000000000000000 ) ) ;
#18 = SURFACE_SIDE_STYLE ('',( #279 ) ) ;
#19 = PRESENTATION_STYLE_ASSIGNMENT (( #104 ) ) ;
#20 = SURFACE_STYLE_USAGE ( .BOTH. , #273 ) ;
#21 = SURFACE_SIDE_STYLE ('',( #149 ) ) ;
#22 = EDGE_LOOP ( 'NONE', ( #26, #2, #4, #81 ) ) ;
#23 = DIRECTION ( 'NONE',  ( -0.000000000000000000, -1.000000000000000000, -0.000000000000000000 ) ) ;
#24 = ORIENTED_EDGE ( 'NONE', *, *, #319, .T. ) ;
#25 = CARTESIAN_POINT ( 'NONE',  ( 0.000000000000000000, 40.00000000000000000, 0.000000000000000000 ) ) ;
#26 = ORIENTED_EDGE ( 'NONE', *, *, #347, .F. ) ;
#27 = CARTESIAN_POINT ( 'NONE',  ( 0.000000000000000000, 0.000000000000000000, -10.00000000000000000 ) ) ;
#28 = COLOUR_RGB ( '',1.000000000000000000, 0.000000000000000000, 0.000000000000000000 ) ;
#29 = CIRCLE ( 'NONE', #271, 10.00000000000000355 ) ;
#30 = VERTEX_POINT ( 'NONE', #87 ) ;
#31 = CARTESIAN_POINT ( 'NONE',  ( 0.000000000000000000, 0.5000000000000000000, -10.00000000000000000 ) ) ;
#32 = AXIS2_PLACEMENT_3D ( 'NONE', #298, #153, #188 ) ;
#33 = EDGE_CURVE ( 'NONE', #287, #52, #355, .T. ) ;
#34 = FILL_AREA_STYLE_COLOUR ( '', #265 ) ;
#35 = DIRECTION ( 'NONE',  ( 0.000000000000000000, 1.000000000000000000, 0.000000000000000000 ) ) ;
#36 = AXIS2_PLACEMENT_3D ( 'NONE', #231, #318, #209 ) ;
#37 = TOROIDAL_SURFACE ( 'NONE', #132, 9.500000000000000000, 0.5000000000000002220 ) ;
#38 = CARTESIAN_POINT ( 'NONE',  ( 0.000000000000000000, 0.000000000000000000, -9.500000000000000000 ) ) ;
#39 = ADVANCED_FACE ( 'NONE', ( #56 ), #178, .F. ) ;
#40 = DIRECTION ( 'NONE',  ( 0.000000000000000000, 0.000000000000000000, -1.000000000000000000 ) ) ;
#41 = AXIS2_PLACEMENT_3D ( 'NONE', #338, #196, #58 ) ;
#42 = CARTESIAN_POINT ( 'NONE',  ( 6.071532165918824830E-15, 40.00000000000000000, 0.000000000000000000 ) ) ;
#43 = DIRECTION ( 'NONE',  ( 0.000000000000000000, 0.000000000000000000, -1.000000000000000000 ) ) ;
#44 = LINE ( 'NONE', #247, #240 ) ;
#45 = DIRECTION ( 'NONE',  ( -0.000000000000000000, -1.000000000000000000, -0.000000000000000000 ) ) ;
#46 = ORIENTED_EDGE ( 'NONE', *, *, #121, .F. ) ;
#47 = AXIS2_PLACEMENT_3D ( 'NONE', #353, #296, #16 ) ;
#48 = VERTEX_POINT ( 'NONE', #31 ) ;
#49 = PRODUCT_DEFINITION ( 'UNKNOWN', '', #91, #174 ) ;
#50 = VERTEX_POINT ( 'NONE', #263 ) ;
#51 = FACE_OUTER_BOUND ( 'NONE', #370, .T. ) ;
#52 = VERTEX_POINT ( 'NONE', #235 ) ;
#53 = LINE ( 'NONE', #27, #239 ) ;
#54 = COLOUR_RGB ( '',0.7921568627450980005, 0.8196078431372548767, 0.9333333333333333481 ) ;
#55 = CYLINDRICAL_SURFACE ( 'NONE', #131, 10.00000000000000000 ) ;
#56 = FACE_OUTER_BOUND ( 'NONE', #138, .T. ) ;
#57 = DIRECTION ( 'NONE',  ( 0.000000000000000000, 0.000000000000000000, 1.000000000000000000 ) ) ;
#58 = DIRECTION ( 'NONE',  ( -1.000000000000000000, 0.000000000000000000, 0.000000000000000000 ) ) ;
#59 = AXIS2_PLACEMENT_3D ( 'NONE', #274, #135, #123 ) ;
#60 = CIRCLE ( 'NONE', #69, 10.00000000000000000 ) ;
#61 = SURFACE_SIDE_STYLE ('',( #295 ) ) ;
#62 = CARTESIAN_POINT ( 'NONE',  ( 0.000000000000000000, 40.00000000000000000, 0.000000000000000000 ) ) ;
#63 = MECHANICAL_DESIGN_GEOMETRIC_PRESENTATION_REPRESENTATION (  '', ( #77 ), #89 ) ;
#64 = COLOUR_RGB ( '',1.000000000000000000, 0.000000000000000000, 0.000000000000000000 ) ;
#65 = DIRECTION ( 'NONE',  ( -0.000000000000000000, -1.000000000000000000, -0.000000000000000000 ) ) ;
#66 = FILL_AREA_STYLE ('',( #237 ) ) ;
#67 = DIRECTION ( 'NONE',  ( -0.000000000000000000, -1.000000000000000000, -0.000000000000000000 ) ) ;
#68 = PRODUCT_DEFINITION_SHAPE ( 'NONE', 'NONE',  #49 ) ;
#69 = AXIS2_PLACEMENT_3D ( 'NONE', #197, #45, #43 ) ;
#70 = SURFACE_STYLE_USAGE ( .BOTH. , #21 ) ;
#71 =( NAMED_UNIT ( * ) SI_UNIT ( $, .STERADIAN. ) SOLID_ANGLE_UNIT ( ) );
#72 = LINE ( 'NONE', #223, #180 ) ;
#73 = CARTESIAN_POINT ( 'NONE',  ( 0.000000000000000000, 0.000000000000000000, 0.000000000000000000 ) ) ;
#74 = UNCERTAINTY_MEASURE_WITH_UNIT (LENGTH_MEASURE( 1.000000000000000082E-05 ), #130, 'distance_accuracy_value', 'NONE');
#75 = PRODUCT ( '59608', '59608', '', ( #302 ) ) ;
#76 = ORIENTED_EDGE ( 'NONE', *, *, #343, .F. ) ;
#77 = STYLED_ITEM ( 'NONE', ( #163 ), #93 ) ;
#78 = CIRCLE ( 'NONE', #157, 0.5000000000000004441 ) ;
#79 = CARTESIAN_POINT ( 'NONE',  ( -10.00000000000000000, 100.0000000000000000, 0.000000000000000000 ) ) ;
#80 = DIRECTION ( 'NONE',  ( -0.000000000000000000, -1.000000000000000000, -0.000000000000000000 ) ) ;
#81 = ORIENTED_EDGE ( 'NONE', *, *, #204, .F. ) ;
#82 = DIRECTION ( 'NONE',  ( -1.236440607496819135E-16, 1.000000000000000000, -0.000000000000000000 ) ) ;
#83 = UNCERTAINTY_MEASURE_WITH_UNIT (LENGTH_MEASURE( 1.000000000000000082E-05 ), #366, 'distance_accuracy_value', 'NONE');
#84 = EDGE_LOOP ( 'NONE', ( #203, #175 ) ) ;
#85 = ADVANCED_FACE ( 'NONE', ( #6 ), #117, .T. ) ;
#86 = FACE_OUTER_BOUND ( 'NONE', #331, .T. ) ;
#87 = CARTESIAN_POINT ( 'NONE',  ( 10.00000000000000355, 100.0000000000000000, 1.224646799147353651E-15 ) ) ;
#88 = SURFACE_SIDE_STYLE ('',( #260 ) ) ;
#89 =( GEOMETRIC_REPRESENTATION_CONTEXT ( 3 ) GLOBAL_UNCERTAINTY_ASSIGNED_CONTEXT ( ( #74 ) ) GLOBAL_UNIT_ASSIGNED_CONTEXT ( ( #130, #191, #71 ) ) REPRESENTATION_CONTEXT ( 'NONE', 'WORKASPACE' ) );
#90 = STYLED_ITEM ( 'NONE', ( #264 ), #162 ) ;
#91 = PRODUCT_DEFINITION_FORMATION_WITH_SPECIFIED_SOURCE ( 'ANY', '', #75, .NOT_KNOWN. ) ;
#92 = ADVANCED_BREP_SHAPE_REPRESENTATION ( '59608', ( #232, #348, #357 ), #245 ) ;
#93 = ADVANCED_FACE ( 'NONE', ( #86 ), #55, .T. ) ;
#94 = FACE_OUTER_BOUND ( 'NONE', #207, .T. ) ;
#95 = EDGE_CURVE ( 'NONE', #254, #50, #125, .T. ) ;
#96 = CIRCLE ( 'NONE', #32, 10.00000000000000000 ) ;
#97 = CARTESIAN_POINT ( 'NONE',  ( 1.163414459189985485E-15, 0.5000000000000000000, 9.500000000000000000 ) ) ;
#98 =( NAMED_UNIT ( * ) SI_UNIT ( $, .STERADIAN. ) SOLID_ANGLE_UNIT ( ) );
#99 =( NAMED_UNIT ( * ) SI_UNIT ( $, .STERADIAN. ) SOLID_ANGLE_UNIT ( ) );
#100 = PRESENTATION_STYLE_ASSIGNMENT (( #310 ) ) ;
#101 = STYLED_ITEM ( 'NONE', ( #129 ), #262 ) ;
#102 = FACE_OUTER_BOUND ( 'NONE', #312, .T. ) ;
#103 = VERTEX_POINT ( 'NONE', #364 ) ;
#104 = SURFACE_STYLE_USAGE ( .BOTH. , #14 ) ;
#105 = ADVANCED_FACE ( 'NONE', ( #248 ), #217, .F. ) ;
#106 = ORIENTED_EDGE ( 'NONE', *, *, #95, .T. ) ;
#107 =( NAMED_UNIT ( * ) PLANE_ANGLE_UNIT ( ) SI_UNIT ( $, .RADIAN. ) );
#108 =( LENGTH_UNIT ( ) NAMED_UNIT ( * ) SI_UNIT ( .MILLI., .METRE. ) );
#109 = ORIENTED_EDGE ( 'NONE', *, *, #33, .T. ) ;
#110 = COLOUR_RGB ( '',1.000000000000000000, 0.000000000000000000, 0.000000000000000000 ) ;
#111 = CYLINDRICAL_SURFACE ( 'NONE', #36, 10.00000000000000000 ) ;
#112 = ORIENTED_EDGE ( 'NONE', *, *, #121, .T. ) ;
#113 = ADVANCED_FACE ( 'NONE', ( #102 ), #268, .T. ) ;
#114 = DIRECTION ( 'NONE',  ( -1.000000000000000000, 0.000000000000000000, 0.000000000000000000 ) ) ;
#115 = CARTESIAN_POINT ( 'NONE',  ( 6.071532165918824830E-15, 40.00000000000000000, 0.000000000000000000 ) ) ;
#116 =( NAMED_UNIT ( * ) SI_UNIT ( $, .STERADIAN. ) SOLID_ANGLE_UNIT ( ) );
#117 = CYLINDRICAL_SURFACE ( 'NONE', #41, 9.999999999999998224 ) ;
#118 = SURFACE_STYLE_USAGE ( .BOTH. , #7 ) ;
#119 = PRESENTATION_LAYER_ASSIGNMENT (  '', '', ( #320 ) ) ;
#120 = DIRECTION ( 'NONE',  ( 0.000000000000000000, 0.000000000000000000, -1.000000000000000000 ) ) ;
#121 = EDGE_CURVE ( 'NONE', #103, #333, #317, .T. ) ;
#122 = CLOSED_SHELL ( 'NONE', ( #85, #39, #216, #105 ) ) ;
#123 = DIRECTION ( 'NONE',  ( 0.000000000000000000, 0.000000000000000000, -1.000000000000000000 ) ) ;
#124 = MECHANICAL_DESIGN_GEOMETRIC_PRESENTATION_REPRESENTATION (  '', ( #289 ), #176 ) ;
#125 = CIRCLE ( 'NONE', #8, 0.5000000000000004441 ) ;
#126 =( GEOMETRIC_REPRESENTATION_CONTEXT ( 3 ) GLOBAL_UNCERTAINTY_ASSIGNED_CONTEXT ( ( #83 ) ) GLOBAL_UNIT_ASSIGNED_CONTEXT ( ( #366, #349, #10 ) ) REPRESENTATION_CONTEXT ( 'NONE', 'WORKASPACE' ) );
#127 = FILL_AREA_STYLE_COLOUR ( '', #110 ) ;
#128 = DIRECTION ( 'NONE',  ( 1.000000000000000000, 0.000000000000000000, -1.224646799147353207E-16 ) ) ;
#129 = PRESENTATION_STYLE_ASSIGNMENT (( #20 ) ) ;
#130 =( LENGTH_UNIT ( ) NAMED_UNIT ( * ) SI_UNIT ( .MILLI., .METRE. ) );
#131 = AXIS2_PLACEMENT_3D ( 'NONE', #326, #299, #40 ) ;
#132 = AXIS2_PLACEMENT_3D ( 'NONE', #236, #243, #120 ) ;
#133 = DIRECTION ( 'NONE',  ( -1.236440607496819135E-16, 1.000000000000000000, 0.000000000000000000 ) ) ;
#134 = ADVANCED_FACE ( 'NONE', ( #5 ), #111, .T. ) ;
#135 = DIRECTION ( 'NONE',  ( -0.000000000000000000, -1.000000000000000000, -0.000000000000000000 ) ) ;
#136 = FILL_AREA_STYLE ('',( #253 ) ) ;
#137 = ORIENTED_EDGE ( 'NONE', *, *, #150, .F. ) ;
#138 = EDGE_LOOP ( 'NONE', ( #205, #76 ) ) ;
#139 = FILL_AREA_STYLE_COLOUR ( '', #64 ) ;
#140 = VERTEX_POINT ( 'NONE', #206 ) ;
#141 = VECTOR ( 'NONE', #82, 1000.000000000000000 ) ;
#142 = DIRECTION ( 'NONE',  ( 0.000000000000000000, 0.000000000000000000, -1.000000000000000000 ) ) ;
#143 = MECHANICAL_DESIGN_GEOMETRIC_PRESENTATION_REPRESENTATION (  '', ( #250 ), #181 ) ;
#144 = ORIENTED_EDGE ( 'NONE', *, *, #150, .T. ) ;
#145 = DIRECTION ( 'NONE',  ( -1.000000000000000000, -1.236440607496819135E-16, 0.000000000000000000 ) ) ;
#146 = FILL_AREA_STYLE ('',( #282 ) ) ;
#147 = EDGE_CURVE ( 'NONE', #333, #103, #193, .T. ) ;
#148 = FILL_AREA_STYLE_COLOUR ( '', #227 ) ;
#149 = SURFACE_STYLE_FILL_AREA ( #276 ) ;
#150 = EDGE_CURVE ( 'NONE', #48, #284, #78, .T. ) ;
#151 = STYLED_ITEM ( 'NONE', ( #369 ), #134 ) ;
#152 = AXIS2_PLACEMENT_3D ( 'NONE', #332, #182, #323 ) ;
#153 = DIRECTION ( 'NONE',  ( -0.000000000000000000, -1.000000000000000000, -0.000000000000000000 ) ) ;
#154 = DIRECTION ( 'NONE',  ( -1.236440607496819135E-16, 1.000000000000000000, -0.000000000000000000 ) ) ;
#155 = DIRECTION ( 'NONE',  ( -1.224646799147353454E-16, 0.000000000000000000, -1.000000000000000000 ) ) ;
#156 = DIRECTION ( 'NONE',  ( -1.236440607496819135E-16, 1.000000000000000000, -0.000000000000000000 ) ) ;
#157 = AXIS2_PLACEMENT_3D ( 'NONE', #234, #114, #57 ) ;
#158 = FACE_OUTER_BOUND ( 'NONE', #261, .T. ) ;
#159 =( LENGTH_UNIT ( ) NAMED_UNIT ( * ) SI_UNIT ( .MILLI., .METRE. ) );
#160 = FILL_AREA_STYLE ('',( #127 ) ) ;
#161 = UNCERTAINTY_MEASURE_WITH_UNIT (LENGTH_MEASURE( 1.000000000000000082E-05 ), #12, 'distance_accuracy_value', 'NONE');
#162 = ADVANCED_FACE ( 'NONE', ( #51 ), #179, .T. ) ;
#163 = PRESENTATION_STYLE_ASSIGNMENT (( #360 ) ) ;
#164 =( LENGTH_UNIT ( ) NAMED_UNIT ( * ) SI_UNIT ( .MILLI., .METRE. ) );
#165 = AXIS2_PLACEMENT_3D ( 'NONE', #292, #133, #145 ) ;
#166 = CYLINDRICAL_SURFACE ( 'NONE', #336, 9.999999999999998224 ) ;
#167 = PRESENTATION_LAYER_ASSIGNMENT (  '', '', ( #151 ) ) ;
#168 = ORIENTED_EDGE ( 'NONE', *, *, #319, .F. ) ;
#169 =( NAMED_UNIT ( * ) SI_UNIT ( $, .STERADIAN. ) SOLID_ANGLE_UNIT ( ) );
#170 = DIRECTION ( 'NONE',  ( -1.236440607496819135E-16, 1.000000000000000000, -0.000000000000000000 ) ) ;
#171 = ORIENTED_EDGE ( 'NONE', *, *, #347, .T. ) ;
#172 = DIRECTION ( 'NONE',  ( -0.000000000000000000, -1.000000000000000000, -0.000000000000000000 ) ) ;
#173 = CARTESIAN_POINT ( 'NONE',  ( 0.000000000000000000, 0.000000000000000000, 0.000000000000000000 ) ) ;
#174 = PRODUCT_DEFINITION_CONTEXT ( 'detailed design', #187, 'design' ) ;
#175 = ORIENTED_EDGE ( 'NONE', *, *, #204, .T. ) ;
#176 =( GEOMETRIC_REPRESENTATION_CONTEXT ( 3 ) GLOBAL_UNCERTAINTY_ASSIGNED_CONTEXT ( ( #249 ) ) GLOBAL_UNIT_ASSIGNED_CONTEXT ( ( #108, #221, #339 ) ) REPRESENTATION_CONTEXT ( 'NONE', 'WORKASPACE' ) );
#177 = DIRECTION ( 'NONE',  ( -0.000000000000000000, -1.000000000000000000, -0.000000000000000000 ) ) ;
#178 = PLANE ( 'NONE',  #165 ) ;
#179 = PLANE ( 'NONE',  #351 ) ;
#180 = VECTOR ( 'NONE', #80, 1000.000000000000000 ) ;
#181 =( GEOMETRIC_REPRESENTATION_CONTEXT ( 3 ) GLOBAL_UNCERTAINTY_ASSIGNED_CONTEXT ( ( #314 ) ) GLOBAL_UNIT_ASSIGNED_CONTEXT ( ( #300, #218, #99 ) ) REPRESENTATION_CONTEXT ( 'NONE', 'WORKASPACE' ) );
#182 = DIRECTION ( 'NONE',  ( -1.236440607496819135E-16, 1.000000000000000000, -0.000000000000000000 ) ) ;
#183 = PLANE ( 'NONE',  #266 ) ;
#184 = EDGE_CURVE ( 'NONE', #287, #140, #341, .T. ) ;
#185 = CLOSED_SHELL ( 'NONE', ( #93, #262, #162, #113, #134, #324 ) ) ;
#186 = DIRECTION ( 'NONE',  ( 0.000000000000000000, -0.000000000000000000, 1.000000000000000000 ) ) ;
#187 = APPLICATION_CONTEXT ( 'automotive_design' ) ;
#188 = DIRECTION ( 'NONE',  ( 0.000000000000000000, 0.000000000000000000, -1.000000000000000000 ) ) ;
#189 = EDGE_CURVE ( 'NONE', #50, #284, #201, .T. ) ;
#190 =( NAMED_UNIT ( * ) SI_UNIT ( $, .STERADIAN. ) SOLID_ANGLE_UNIT ( ) );
#191 =( NAMED_UNIT ( * ) PLANE_ANGLE_UNIT ( ) SI_UNIT ( $, .RADIAN. ) );
#192 = AXIS2_PLACEMENT_3D ( 'NONE', #241, #67, #142 ) ;
#193 = CIRCLE ( 'NONE', #214, 10.00000000000000000 ) ;
#194 = EDGE_CURVE ( 'NONE', #333, #48, #53, .T. ) ;
#195 = DIRECTION ( 'NONE',  ( -1.236440607496819135E-16, 1.000000000000000000, -0.000000000000000000 ) ) ;
#196 = DIRECTION ( 'NONE',  ( -1.236440607496819135E-16, 1.000000000000000000, -0.000000000000000000 ) ) ;
#197 = CARTESIAN_POINT ( 'NONE',  ( 0.000000000000000000, 0.5000000000000000000, 0.000000000000000000 ) ) ;
#198 = APPLICATION_PROTOCOL_DEFINITION ( 'draft international standard', 'automotive_design', 1998, #187 ) ;
#199 = STYLED_ITEM ( 'NONE', ( #301 ), #113 ) ;
#200 = DIRECTION ( 'NONE',  ( -1.000000000000000000, 0.000000000000000000, 0.000000000000000000 ) ) ;
#201 = CIRCLE ( 'NONE', #303, 9.500000000000000000 ) ;
#202 = ORIENTED_EDGE ( 'NONE', *, *, #330, .F. ) ;
#203 = ORIENTED_EDGE ( 'NONE', *, *, #281, .T. ) ;
#204 = EDGE_CURVE ( 'NONE', #30, #140, #29, .T. ) ;
#205 = ORIENTED_EDGE ( 'NONE', *, *, #33, .F. ) ;
#206 = CARTESIAN_POINT ( 'NONE',  ( -10.00000000000000533, 100.0000000000000000, 0.000000000000000000 ) ) ;
#207 = EDGE_LOOP ( 'NONE', ( #311, #46 ) ) ;
#208 = MECHANICAL_DESIGN_GEOMETRIC_PRESENTATION_REPRESENTATION (  '', ( #320 ), #325 ) ;
#209 = DIRECTION ( 'NONE',  ( 0.000000000000000000, 0.000000000000000000, -1.000000000000000000 ) ) ;
#210 = EDGE_CURVE ( 'NONE', #254, #48, #60, .T. ) ;
#211 = AXIS2_PLACEMENT_3D ( 'NONE', #115, #233, #344 ) ;
#212 = MECHANICAL_DESIGN_GEOMETRIC_PRESENTATION_REPRESENTATION (  '', ( #101 ), #126 ) ;
#213 = CARTESIAN_POINT ( 'NONE',  ( -9.999999999999987566, 40.00000000000000000, 0.000000000000000000 ) ) ;
#214 = AXIS2_PLACEMENT_3D ( 'NONE', #25, #23, #313 ) ;
#215 = AXIS2_PLACEMENT_3D ( 'NONE', #42, #154, #304 ) ;
#216 = ADVANCED_FACE ( 'NONE', ( #283 ), #166, .T. ) ;
#217 = PLANE ( 'NONE',  #47 ) ;
#218 =( NAMED_UNIT ( * ) PLANE_ANGLE_UNIT ( ) SI_UNIT ( $, .RADIAN. ) );
#219 = CIRCLE ( 'NONE', #152, 10.00000000000000355 ) ;
#220 = CARTESIAN_POINT ( 'NONE',  ( 1.224646799147353256E-15, 0.5000000000000000000, 10.00000000000000000 ) ) ;
#221 =( NAMED_UNIT ( * ) PLANE_ANGLE_UNIT ( ) SI_UNIT ( $, .RADIAN. ) );
#222 = EDGE_LOOP ( 'NONE', ( #257, #112, #290, #259 ) ) ;
#223 = CARTESIAN_POINT ( 'NONE',  ( 1.224646799147353256E-15, 0.000000000000000000, 10.00000000000000000 ) ) ;
#224 = ORIENTED_EDGE ( 'NONE', *, *, #189, .T. ) ;
#225 = CARTESIAN_POINT ( 'NONE',  ( 0.000000000000000000, 0.000000000000000000, 0.000000000000000000 ) ) ;
#226 =( GEOMETRIC_REPRESENTATION_CONTEXT ( 3 ) GLOBAL_UNCERTAINTY_ASSIGNED_CONTEXT ( ( #286 ) ) GLOBAL_UNIT_ASSIGNED_CONTEXT ( ( #159, #361, #98 ) ) REPRESENTATION_CONTEXT ( 'NONE', 'WORKASPACE' ) );
#227 = COLOUR_RGB ( '',1.000000000000000000, 0.000000000000000000, 0.000000000000000000 ) ;
#228 = ORIENTED_EDGE ( 'NONE', *, *, #147, .T. ) ;
#229 = SURFACE_STYLE_FILL_AREA ( #293 ) ;
#230 = ORIENTED_EDGE ( 'NONE', *, *, #281, .F. ) ;
#231 = CARTESIAN_POINT ( 'NONE',  ( 0.000000000000000000, 0.000000000000000000, 0.000000000000000000 ) ) ;
#232 = MANIFOLD_SOLID_BREP ( 'Revolve - Cutting Edge', #185 ) ;
#233 = DIRECTION ( 'NONE',  ( -1.236440607496819135E-16, 1.000000000000000000, -0.000000000000000000 ) ) ;
#234 = CARTESIAN_POINT ( 'NONE',  ( 0.000000000000000000, 0.5000000000000000000, -9.500000000000000000 ) ) ;
#235 = CARTESIAN_POINT ( 'NONE',  ( 10.00000000000000178, 40.00000000000000000, 1.224646799147353651E-15 ) ) ;
#236 = CARTESIAN_POINT ( 'NONE',  ( 0.000000000000000000, 0.5000000000000000000, 0.000000000000000000 ) ) ;
#237 = FILL_AREA_STYLE_COLOUR ( '', #258 ) ;
#238 = APPLICATION_CONTEXT ( 'automotive_design' ) ;
#239 = VECTOR ( 'NONE', #177, 1000.000000000000000 ) ;
#240 = VECTOR ( 'NONE', #156, 1000.000000000000000 ) ;
#241 = CARTESIAN_POINT ( 'NONE',  ( 0.000000000000000000, 40.00000000000000000, 0.000000000000000000 ) ) ;
#242 = FILL_AREA_STYLE ('',( #148 ) ) ;
#243 = DIRECTION ( 'NONE',  ( -0.000000000000000000, -1.000000000000000000, -0.000000000000000000 ) ) ;
#244 = PRESENTATION_LAYER_ASSIGNMENT (  '', '', ( #289 ) ) ;
#245 =( GEOMETRIC_REPRESENTATION_CONTEXT ( 3 ) GLOBAL_UNCERTAINTY_ASSIGNED_CONTEXT ( ( #337 ) ) GLOBAL_UNIT_ASSIGNED_CONTEXT ( ( #164, #358, #190 ) ) REPRESENTATION_CONTEXT ( 'NONE', 'WORKASPACE' ) );
#246 = DIRECTION ( 'NONE',  ( -1.000000000000000000, 0.000000000000000000, 0.000000000000000000 ) ) ;
#247 = CARTESIAN_POINT ( 'NONE',  ( 9.999999999999996447, 100.0000000000000000, 1.224646799147353059E-15 ) ) ;
#248 = FACE_OUTER_BOUND ( 'NONE', #84, .T. ) ;
#249 = UNCERTAINTY_MEASURE_WITH_UNIT (LENGTH_MEASURE( 1.000000000000000082E-05 ), #108, 'distance_accuracy_value', 'NONE');
#250 = STYLED_ITEM ( 'NONE', ( #19 ), #348 ) ;
#251 = ORIENTED_EDGE ( 'NONE', *, *, #95, .F. ) ;
#252 = SURFACE_SIDE_STYLE ('',( #306 ) ) ;
#253 = FILL_AREA_STYLE_COLOUR ( '', #297 ) ;
#254 = VERTEX_POINT ( 'NONE', #220 ) ;
#255 = EDGE_CURVE ( 'NONE', #103, #254, #72, .T. ) ;
#256 = CARTESIAN_POINT ( 'NONE',  ( -1.347111479062090180E-15, 100.0000000000000000, 0.000000000000000000 ) ) ;
#257 = ORIENTED_EDGE ( 'NONE', *, *, #255, .F. ) ;
#258 = COLOUR_RGB ( '',1.000000000000000000, 0.000000000000000000, 0.000000000000000000 ) ;
#259 = ORIENTED_EDGE ( 'NONE', *, *, #210, .F. ) ;
#260 = SURFACE_STYLE_FILL_AREA ( #146 ) ;
#261 = EDGE_LOOP ( 'NONE', ( #367, #106, #168, #137 ) ) ;
#262 = ADVANCED_FACE ( 'NONE', ( #158 ), #37, .T. ) ;
#263 = CARTESIAN_POINT ( 'NONE',  ( 1.194030629168669469E-15, 0.000000000000000000, 9.500000000000000000 ) ) ;
#264 = PRESENTATION_STYLE_ASSIGNMENT (( #118 ) ) ;
#265 = COLOUR_RGB ( '',1.000000000000000000, 0.000000000000000000, 0.000000000000000000 ) ;
#266 = AXIS2_PLACEMENT_3D ( 'NONE', #62, #35, #186 ) ;
#267 = PRESENTATION_STYLE_ASSIGNMENT (( #354 ) ) ;
#268 = TOROIDAL_SURFACE ( 'NONE', #59, 9.500000000000000000, 0.5000000000000002220 ) ;
#269 =( GEOMETRIC_REPRESENTATION_CONTEXT ( 3 ) GLOBAL_UNCERTAINTY_ASSIGNED_CONTEXT ( ( #1 ) ) GLOBAL_UNIT_ASSIGNED_CONTEXT ( ( #345, #107, #116 ) ) REPRESENTATION_CONTEXT ( 'NONE', 'WORKASPACE' ) );
#270 = SURFACE_STYLE_FILL_AREA ( #136 ) ;
#271 = AXIS2_PLACEMENT_3D ( 'NONE', #291, #195, #200 ) ;
#272 = FILL_AREA_STYLE_COLOUR ( '', #54 ) ;
#273 = SURFACE_SIDE_STYLE ('',( #305 ) ) ;
#274 = CARTESIAN_POINT ( 'NONE',  ( 0.000000000000000000, 0.5000000000000000000, 0.000000000000000000 ) ) ;
#275 = APPLICATION_PROTOCOL_DEFINITION ( 'draft international standard', 'automotive_design', 1998, #238 ) ;
#276 = FILL_AREA_STYLE ('',( #34 ) ) ;
#277 = CARTESIAN_POINT ( 'NONE',  ( 0.000000000000000000, 40.00000000000000000, -10.00000000000000000 ) ) ;
#278 = PRESENTATION_LAYER_ASSIGNMENT (  '', '', ( #90 ) ) ;
#279 = SURFACE_STYLE_FILL_AREA ( #328 ) ;
#280 = ORIENTED_EDGE ( 'NONE', *, *, #194, .F. ) ;
#281 = EDGE_CURVE ( 'NONE', #140, #30, #219, .T. ) ;
#282 = FILL_AREA_STYLE_COLOUR ( '', #28 ) ;
#283 = FACE_OUTER_BOUND ( 'NONE', #22, .T. ) ;
#284 = VERTEX_POINT ( 'NONE', #38 ) ;
#285 = DIRECTION ( 'NONE',  ( 0.000000000000000000, 0.000000000000000000, -1.000000000000000000 ) ) ;
#286 = UNCERTAINTY_MEASURE_WITH_UNIT (LENGTH_MEASURE( 1.000000000000000082E-05 ), #159, 'distance_accuracy_value', 'NONE');
#287 = VERTEX_POINT ( 'NONE', #213 ) ;
#288 = SURFACE_STYLE_USAGE ( .BOTH. , #88 ) ;
#289 = STYLED_ITEM ( 'NONE', ( #100 ), #232 ) ;
#290 = ORIENTED_EDGE ( 'NONE', *, *, #194, .T. ) ;
#291 = CARTESIAN_POINT ( 'NONE',  ( -1.347111479062089982E-15, 100.0000000000000000, 0.000000000000000000 ) ) ;
#292 = CARTESIAN_POINT ( 'NONE',  ( 6.071532165918824830E-15, 40.00000000000000000, 0.000000000000000000 ) ) ;
#293 = FILL_AREA_STYLE ('',( #139 ) ) ;
#294 = PRESENTATION_LAYER_ASSIGNMENT (  '', '', ( #77 ) ) ;
#295 = SURFACE_STYLE_FILL_AREA ( #242 ) ;
#296 = DIRECTION ( 'NONE',  ( 1.236440607496819135E-16, -1.000000000000000000, 0.000000000000000000 ) ) ;
#297 = COLOUR_RGB ( '',0.7921568627450980005, 0.8196078431372548767, 0.9333333333333333481 ) ;
#298 = CARTESIAN_POINT ( 'NONE',  ( 0.000000000000000000, 0.5000000000000000000, 0.000000000000000000 ) ) ;
#299 = DIRECTION ( 'NONE',  ( -0.000000000000000000, -1.000000000000000000, -0.000000000000000000 ) ) ;
#300 =( LENGTH_UNIT ( ) NAMED_UNIT ( * ) SI_UNIT ( .MILLI., .METRE. ) );
#301 = PRESENTATION_STYLE_ASSIGNMENT (( #70 ) ) ;
#302 = PRODUCT_CONTEXT ( 'NONE', #238, 'mechanical' ) ;
#303 = AXIS2_PLACEMENT_3D ( 'NONE', #173, #172, #285 ) ;
#304 = DIRECTION ( 'NONE',  ( -1.000000000000000000, 0.000000000000000000, 0.000000000000000000 ) ) ;
#305 = SURFACE_STYLE_FILL_AREA ( #160 ) ;
#306 = SURFACE_STYLE_FILL_AREA ( #66 ) ;
#307 = ORIENTED_EDGE ( 'NONE', *, *, #189, .F. ) ;
#308 =( NAMED_UNIT ( * ) PLANE_ANGLE_UNIT ( ) SI_UNIT ( $, .RADIAN. ) );
#309 =( GEOMETRIC_REPRESENTATION_CONTEXT ( 3 ) GLOBAL_UNCERTAINTY_ASSIGNED_CONTEXT ( ( #363 ) ) GLOBAL_UNIT_ASSIGNED_CONTEXT ( ( #3, #308, #169 ) ) REPRESENTATION_CONTEXT ( 'NONE', 'WORKASPACE' ) );
#310 = SURFACE_STYLE_USAGE ( .BOTH. , #18 ) ;
#311 = ORIENTED_EDGE ( 'NONE', *, *, #147, .F. ) ;
#312 = EDGE_LOOP ( 'NONE', ( #251, #342, #144, #307 ) ) ;
#313 = DIRECTION ( 'NONE',  ( 0.000000000000000000, 0.000000000000000000, -1.000000000000000000 ) ) ;
#314 = UNCERTAINTY_MEASURE_WITH_UNIT (LENGTH_MEASURE( 1.000000000000000082E-05 ), #300, 'distance_accuracy_value', 'NONE');
#315 = EDGE_LOOP ( 'NONE', ( #109, #171, #230, #368 ) ) ;
#316 = DIRECTION ( 'NONE',  ( 0.000000000000000000, 0.000000000000000000, -1.000000000000000000 ) ) ;
#317 = CIRCLE ( 'NONE', #192, 10.00000000000000000 ) ;
#318 = DIRECTION ( 'NONE',  ( -0.000000000000000000, -1.000000000000000000, -0.000000000000000000 ) ) ;
#319 = EDGE_CURVE ( 'NONE', #284, #50, #15, .T. ) ;
#320 = STYLED_ITEM ( 'NONE', ( #267 ), #324 ) ;
#321 = CIRCLE ( 'NONE', #215, 9.999999999999994671 ) ;
#322 =( NAMED_UNIT ( * ) SI_UNIT ( $, .STERADIAN. ) SOLID_ANGLE_UNIT ( ) );
#323 = DIRECTION ( 'NONE',  ( -1.000000000000000000, 0.000000000000000000, 0.000000000000000000 ) ) ;
#324 = ADVANCED_FACE ( 'NONE', ( #94 ), #183, .T. ) ;
#325 =( GEOMETRIC_REPRESENTATION_CONTEXT ( 3 ) GLOBAL_UNCERTAINTY_ASSIGNED_CONTEXT ( ( #161 ) ) GLOBAL_UNIT_ASSIGNED_CONTEXT ( ( #12, #11, #322 ) ) REPRESENTATION_CONTEXT ( 'NONE', 'WORKASPACE' ) );
#326 = CARTESIAN_POINT ( 'NONE',  ( 0.000000000000000000, 0.000000000000000000, 0.000000000000000000 ) ) ;
#327 = SHAPE_DEFINITION_REPRESENTATION ( #68, #92 ) ;
#328 = FILL_AREA_STYLE ('',( #272 ) ) ;
#329 = PRESENTATION_LAYER_ASSIGNMENT (  '', '', ( #250 ) ) ;
#330 = EDGE_CURVE ( 'NONE', #48, #254, #96, .T. ) ;
#331 = EDGE_LOOP ( 'NONE', ( #228, #340, #202, #280 ) ) ;
#332 = CARTESIAN_POINT ( 'NONE',  ( -1.347111479062089982E-15, 100.0000000000000000, 0.000000000000000000 ) ) ;
#333 = VERTEX_POINT ( 'NONE', #277 ) ;
#334 = DIRECTION ( 'NONE',  ( 0.000000000000000000, -1.000000000000000000, -0.000000000000000000 ) ) ;
#335 = MECHANICAL_DESIGN_GEOMETRIC_PRESENTATION_REPRESENTATION (  '', ( #199 ), #226 ) ;
#336 = AXIS2_PLACEMENT_3D ( 'NONE', #256, #170, #246 ) ;
#337 = UNCERTAINTY_MEASURE_WITH_UNIT (LENGTH_MEASURE( 1.000000000000000082E-05 ), #164, 'distance_accuracy_value', 'NONE');
#338 = CARTESIAN_POINT ( 'NONE',  ( -1.347111479062090180E-15, 100.0000000000000000, 0.000000000000000000 ) ) ;
#339 =( NAMED_UNIT ( * ) SI_UNIT ( $, .STERADIAN. ) SOLID_ANGLE_UNIT ( ) );
#340 = ORIENTED_EDGE ( 'NONE', *, *, #255, .T. ) ;
#341 = LINE ( 'NONE', #79, #141 ) ;
#342 = ORIENTED_EDGE ( 'NONE', *, *, #210, .T. ) ;
#343 = EDGE_CURVE ( 'NONE', #52, #287, #321, .T. ) ;
#344 = DIRECTION ( 'NONE',  ( -1.000000000000000000, 0.000000000000000000, 0.000000000000000000 ) ) ;
#345 =( LENGTH_UNIT ( ) NAMED_UNIT ( * ) SI_UNIT ( .MILLI., .METRE. ) );
#346 = MECHANICAL_DESIGN_GEOMETRIC_PRESENTATION_REPRESENTATION (  '', ( #151 ), #309 ) ;
#347 = EDGE_CURVE ( 'NONE', #52, #30, #44, .T. ) ;
#348 = MANIFOLD_SOLID_BREP ( 'Revolve - Tool Body (Straight Shanked)', #122 ) ;
#349 =( NAMED_UNIT ( * ) PLANE_ANGLE_UNIT ( ) SI_UNIT ( $, .RADIAN. ) );
#350 = CARTESIAN_POINT ( 'NONE',  ( 0.000000000000000000, 0.000000000000000000, 0.000000000000000000 ) ) ;
#351 = AXIS2_PLACEMENT_3D ( 'NONE', #225, #334, #316 ) ;
#352 = DIRECTION ( 'NONE',  ( 0.000000000000000000, 0.000000000000000000, -1.000000000000000000 ) ) ;
#353 = CARTESIAN_POINT ( 'NONE',  ( 10.00000000000000178, 100.0000000000000000, 0.000000000000000000 ) ) ;
#354 = SURFACE_STYLE_USAGE ( .BOTH. , #61 ) ;
#355 = CIRCLE ( 'NONE', #211, 9.999999999999994671 ) ;
#356 = MECHANICAL_DESIGN_GEOMETRIC_PRESENTATION_REPRESENTATION (  '', ( #90 ), #269 ) ;
#357 = AXIS2_PLACEMENT_3D ( 'NONE', #73, #362, #17 ) ;
#358 =( NAMED_UNIT ( * ) PLANE_ANGLE_UNIT ( ) SI_UNIT ( $, .RADIAN. ) );
#359 = PRODUCT_RELATED_PRODUCT_CATEGORY ( 'part', '', ( #75 ) ) ;
#360 = SURFACE_STYLE_USAGE ( .BOTH. , #252 ) ;
#361 =( NAMED_UNIT ( * ) PLANE_ANGLE_UNIT ( ) SI_UNIT ( $, .RADIAN. ) );
#362 = DIRECTION ( 'NONE',  ( 0.000000000000000000, 0.000000000000000000, 1.000000000000000000 ) ) ;
#363 = UNCERTAINTY_MEASURE_WITH_UNIT (LENGTH_MEASURE( 1.000000000000000082E-05 ), #3, 'distance_accuracy_value', 'NONE');
#364 = CARTESIAN_POINT ( 'NONE',  ( 1.224646799147353256E-15, 40.00000000000000000, 10.00000000000000000 ) ) ;
#365 = AXIS2_PLACEMENT_3D ( 'NONE', #350, #65, #352 ) ;
#366 =( LENGTH_UNIT ( ) NAMED_UNIT ( * ) SI_UNIT ( .MILLI., .METRE. ) );
#367 = ORIENTED_EDGE ( 'NONE', *, *, #330, .T. ) ;
#368 = ORIENTED_EDGE ( 'NONE', *, *, #184, .F. ) ;
#369 = PRESENTATION_STYLE_ASSIGNMENT (( #288 ) ) ;
#370 = EDGE_LOOP ( 'NONE', ( #24, #224 ) ) ;
ENDSEC;
END-ISO-10303-21;
