ISO-10303-21;
HEADER;
FILE_DESCRIPTION (( 'STEP AP214' ),
    '1' );
FILE_NAME ('Micro_BEM-046-02.STEP',
    '2021-09-03T12:57:30',
    ( '' ),
    ( '' ),
    'SwSTEP 2.0',
    'SolidWorks 2020',
    '' );
FILE_SCHEMA (( 'AUTOMOTIVE_DESIGN' ));
ENDSEC;

DATA;
#1 = AXIS2_PLACEMENT_3D ( 'NONE', #262, #187, #189 ) ;
#2 = PRODUCT ( 'Micro_BEM-046-02', 'Micro_BEM-046-02', '', ( #121 ) ) ;
#3 = DIRECTION ( 'NONE',  ( 0.0000000000000000000, 0.0000000000000000000, -1.000000000000000000 ) ) ;
#4 = CARTESIAN_POINT ( 'NONE',  ( 0.0000000000000000000, 0.0000000000000000000, 0.0000000000000000000 ) ) ;
#5 = ORIENTED_EDGE ( 'NONE', *, *, #153, .T. ) ;
#6 = CIRCLE ( 'NONE', #45, 0.06250000000000002776 ) ;
#7 = EDGE_LOOP ( 'NONE', ( #257, #110, #233, #282 ) ) ;
#8 = ORIENTED_EDGE ( 'NONE', *, *, #284, .T. ) ;
#9 = ORIENTED_EDGE ( 'NONE', *, *, #159, .F. ) ;
#10 = AXIS2_PLACEMENT_3D ( 'NONE', #67, #271, #143 ) ;
#11 = ORIENTED_EDGE ( 'NONE', *, *, #213, .T. ) ;
#12 = SPHERICAL_SURFACE ( 'NONE', #171, 0.02337660000000000432 ) ;
#13 = DIRECTION ( 'NONE',  ( 1.000000000000000000, 0.0000000000000000000, 0.0000000000000000000 ) ) ;
#14 = FILL_AREA_STYLE ('',( #239 ) ) ;
#15 = SHAPE_DEFINITION_REPRESENTATION ( #38, #261 ) ;
#16 = CARTESIAN_POINT ( 'NONE',  ( 2.862807836494802985E-18, 0.0000000000000000000, 0.02337660000000000432 ) ) ;
#17 = SURFACE_STYLE_FILL_AREA ( #219 ) ;
#18 = CARTESIAN_POINT ( 'NONE',  ( 0.06250000000000002776, 7.654042494670959086E-18, 1.485000000000000764 ) ) ;
#19 = AXIS2_PLACEMENT_3D ( 'NONE', #44, #277, #224 ) ;
#20 = DIRECTION ( 'NONE',  ( 1.224646799147353700E-16, 0.0000000000000000000, 1.000000000000000000 ) ) ;
#21 = DIRECTION ( 'NONE',  ( 0.0000000000000000000, 0.0000000000000000000, 1.000000000000000000 ) ) ;
#22 = DIRECTION ( 'NONE',  ( -1.224646799147353700E-16, -0.0000000000000000000, -1.000000000000000000 ) ) ;
#23 = DIRECTION ( 'NONE',  ( -1.000000000000000000, 0.0000000000000000000, 0.0000000000000000000 ) ) ;
#24 = VECTOR ( 'NONE', #139, 39.37007874015748143 ) ;
#25 = CARTESIAN_POINT ( 'NONE',  ( 0.0000000000000000000, 0.0000000000000000000, 1.500000000000000222 ) ) ;
#26 = ADVANCED_FACE ( 'NONE', ( #140 ), #134, .T. ) ;
#27 = ORIENTED_EDGE ( 'NONE', *, *, #280, .T. ) ;
#28 = ORIENTED_EDGE ( 'NONE', *, *, #196, .F. ) ;
#29 = EDGE_LOOP ( 'NONE', ( #76, #8, #108, #178 ) ) ;
#30 = VERTEX_POINT ( 'NONE', #18 ) ;
#31 = ORIENTED_EDGE ( 'NONE', *, *, #213, .F. ) ;
#32 = CIRCLE ( 'NONE', #105, 0.04750000000000064587 ) ;
#33 = CARTESIAN_POINT ( 'NONE',  ( -0.04750000000000064587, 0.0000000000000000000, 1.500000000000000222 ) ) ;
#34 = UNCERTAINTY_MEASURE_WITH_UNIT (LENGTH_MEASURE( 1.000000000000000082E-05 ), #291, 'distance_accuracy_value', 'NONE');
#35 = ADVANCED_FACE ( 'NONE', ( #318 ), #128, .T. ) ;
#36 = LINE ( 'NONE', #183, #81 ) ;
#37 = CARTESIAN_POINT ( 'NONE',  ( 0.0000000000000000000, 0.0000000000000000000, 0.0000000000000000000 ) ) ;
#38 = PRODUCT_DEFINITION_SHAPE ( 'NONE', 'NONE',  #66 ) ;
#39 =( CONVERSION_BASED_UNIT ( 'INCH', #268 ) LENGTH_UNIT ( ) NAMED_UNIT ( #180 ) );
#40 = DIRECTION ( 'NONE',  ( 0.0000000000000000000, 0.0000000000000000000, -1.000000000000000000 ) ) ;
#41 = LENGTH_MEASURE_WITH_UNIT ( LENGTH_MEASURE( 0.02539999999999999897 ), #270 );
#42 = CARTESIAN_POINT ( 'NONE',  ( 0.0000000000000000000, 0.0000000000000000000, 0.0000000000000000000 ) ) ;
#43 = DIRECTION ( 'NONE',  ( 1.000000000000000000, 0.0000000000000000000, -0.0000000000000000000 ) ) ;
#44 = CARTESIAN_POINT ( 'NONE',  ( 4.052109212114275620E-17, 0.0000000000000000000, 0.3308798271416305559 ) ) ;
#45 = AXIS2_PLACEMENT_3D ( 'NONE', #99, #3, #102 ) ;
#46 = DIRECTION ( 'NONE',  ( -1.000000000000000000, 0.0000000000000000000, 1.825976613408455680E-16 ) ) ;
#47 = DIRECTION ( 'NONE',  ( -0.0000000000000000000, -0.0000000000000000000, -1.000000000000000000 ) ) ;
#48 = EDGE_CURVE ( 'NONE', #107, #204, #296, .T. ) ;
#49 = DIRECTION ( 'NONE',  ( -1.000000000000000000, 0.0000000000000000000, 0.0000000000000000000 ) ) ;
#50 = DIRECTION ( 'NONE',  ( -1.000000000000000000, 0.0000000000000000000, 0.0000000000000000000 ) ) ;
#51 = PRESENTATION_LAYER_ASSIGNMENT (  '', '', ( #167 ) ) ;
#52 = CARTESIAN_POINT ( 'NONE',  ( -0.06249999999999997918, 0.0000000000000000000, 0.3308798271416305559 ) ) ;
#53 = MANIFOLD_SOLID_BREP ( 'Fillet1', #286 ) ;
#54 = ORIENTED_EDGE ( 'NONE', *, *, #215, .F. ) ;
#55 = EDGE_LOOP ( 'NONE', ( #182, #130, #54 ) ) ;
#56 = VERTEX_POINT ( 'NONE', #216 ) ;
#57 = ORIENTED_EDGE ( 'NONE', *, *, #94, .F. ) ;
#58 = ORIENTED_EDGE ( 'NONE', *, *, #117, .F. ) ;
#59 = PRESENTATION_STYLE_ASSIGNMENT (( #83 ) ) ;
#60 = VECTOR ( 'NONE', #322, 39.37007874015747433 ) ;
#61 = FACE_OUTER_BOUND ( 'NONE', #55, .T. ) ;
#62 = CARTESIAN_POINT ( 'NONE',  ( -0.02337660000000000432, 0.0000000000000000000, 2.862807836494802985E-18 ) ) ;
#63 = AXIS2_PLACEMENT_3D ( 'NONE', #16, #118, #46 ) ;
#64 = FILL_AREA_STYLE_COLOUR ( '', #252 ) ;
#65 = DIRECTION ( 'NONE',  ( -1.000000000000000000, 0.0000000000000000000, 0.0000000000000000000 ) ) ;
#66 = PRODUCT_DEFINITION ( 'UNKNOWN', '', #222, #248 ) ;
#67 = CARTESIAN_POINT ( 'NONE',  ( 1.334865011070615584E-17, 0.0000000000000000000, 0.1089999999999999997 ) ) ;
#68 = CARTESIAN_POINT ( 'NONE',  ( 0.0000000000000000000, 0.0000000000000000000, 1.500000000000000222 ) ) ;
#69 = DIRECTION ( 'NONE',  ( 0.7071067811865462405, 8.659560562354916834E-17, -0.7071067811865486830 ) ) ;
#70 = AXIS2_PLACEMENT_3D ( 'NONE', #122, #21, #43 ) ;
#71 = DIRECTION ( 'NONE',  ( 1.000000000000000000, 0.0000000000000000000, 0.0000000000000000000 ) ) ;
#72 = DIRECTION ( 'NONE',  ( 1.224646799147353700E-16, 0.0000000000000000000, 1.000000000000000000 ) ) ;
#73 = LINE ( 'NONE', #323, #221 ) ;
#74 = CYLINDRICAL_SURFACE ( 'NONE', #227, 0.06250000000000002776 ) ;
#75 = EDGE_CURVE ( 'NONE', #288, #107, #36, .T. ) ;
#76 = ORIENTED_EDGE ( 'NONE', *, *, #280, .F. ) ;
#77 = ORIENTED_EDGE ( 'NONE', *, *, #218, .F. ) ;
#78 = ORIENTED_EDGE ( 'NONE', *, *, #111, .F. ) ;
#79 = ADVANCED_FACE ( 'NONE', ( #85 ), #287, .T. ) ;
#80 = EDGE_LOOP ( 'NONE', ( #28, #5, #131, #133 ) ) ;
#81 = VECTOR ( 'NONE', #317, 39.37007874015748143 ) ;
#82 = ORIENTED_EDGE ( 'NONE', *, *, #159, .T. ) ;
#83 = SURFACE_STYLE_USAGE ( .BOTH. , #90 ) ;
#84 = ADVANCED_FACE ( 'NONE', ( #61 ), #12, .T. ) ;
#85 = FACE_OUTER_BOUND ( 'NONE', #160, .T. ) ;
#86 = AXIS2_PLACEMENT_3D ( 'NONE', #124, #249, #23 ) ;
#87 = APPLICATION_PROTOCOL_DEFINITION ( 'draft international standard', 'automotive_design', 1998, #207 ) ;
#88 = FACE_OUTER_BOUND ( 'NONE', #235, .T. ) ;
#89 = ADVANCED_FACE ( 'NONE', ( #88 ), #265, .T. ) ;
#90 = SURFACE_SIDE_STYLE ('',( #165 ) ) ;
#91 = CONICAL_SURFACE ( 'NONE', #320, 0.02337659999999999738, 0.1745329251994338082 ) ;
#92 = CARTESIAN_POINT ( 'NONE',  ( 0.04750000000000064587, 6.735557395310483192E-18, 1.500000000000000222 ) ) ;
#93 = PRESENTATION_STYLE_ASSIGNMENT (( #164 ) ) ;
#94 = EDGE_CURVE ( 'NONE', #254, #206, #295, .T. ) ;
#95 = DIRECTION ( 'NONE',  ( 0.0000000000000000000, 0.0000000000000000000, -1.000000000000000000 ) ) ;
#96 = FACE_OUTER_BOUND ( 'NONE', #80, .T. ) ;
#97 = EDGE_CURVE ( 'NONE', #312, #127, #313, .T. ) ;
#98 = DIRECTION ( 'NONE',  ( 0.0000000000000000000, -1.000000000000000000, 0.0000000000000000000 ) ) ;
#99 = CARTESIAN_POINT ( 'NONE',  ( 0.0000000000000000000, 0.0000000000000000000, 1.485000000000000764 ) ) ;
#100 =( GEOMETRIC_REPRESENTATION_CONTEXT ( 3 ) GLOBAL_UNCERTAINTY_ASSIGNED_CONTEXT ( ( #314 ) ) GLOBAL_UNIT_ASSIGNED_CONTEXT ( ( #250, #229, #272 ) ) REPRESENTATION_CONTEXT ( 'NONE', 'WORKASPACE' ) );
#101 = MECHANICAL_DESIGN_GEOMETRIC_PRESENTATION_REPRESENTATION (  '', ( #116 ), #303 ) ;
#102 = DIRECTION ( 'NONE',  ( 1.000000000000000000, 0.0000000000000000000, 0.0000000000000000000 ) ) ;
#103 = DIRECTION ( 'NONE',  ( -0.0000000000000000000, -0.0000000000000000000, -1.000000000000000000 ) ) ;
#104 = DIRECTION ( 'NONE',  ( -1.000000000000000000, 0.0000000000000000000, 1.224646799147353454E-16 ) ) ;
#105 = AXIS2_PLACEMENT_3D ( 'NONE', #195, #169, #71 ) ;
#106 = ORIENTED_EDGE ( 'NONE', *, *, #284, .F. ) ;
#107 = VERTEX_POINT ( 'NONE', #242 ) ;
#108 = ORIENTED_EDGE ( 'NONE', *, *, #205, .T. ) ;
#109 = CIRCLE ( 'NONE', #307, 0.04750000000000064587 ) ;
#110 = ORIENTED_EDGE ( 'NONE', *, *, #114, .T. ) ;
#111 = EDGE_CURVE ( 'NONE', #56, #127, #166, .T. ) ;
#112 = ORIENTED_EDGE ( 'NONE', *, *, #48, .T. ) ;
#113 = DIRECTION ( 'NONE',  ( -1.224646799147353700E-16, -0.0000000000000000000, -1.000000000000000000 ) ) ;
#114 = EDGE_CURVE ( 'NONE', #288, #56, #123, .T. ) ;
#115 =( NAMED_UNIT ( * ) SI_UNIT ( $, .STERADIAN. ) SOLID_ANGLE_UNIT ( ) );
#116 = STYLED_ITEM ( 'NONE', ( #93 ), #261 ) ;
#117 = EDGE_CURVE ( 'NONE', #156, #56, #310, .T. ) ;
#118 = DIRECTION ( 'NONE',  ( 1.224646799147353700E-16, 0.0000000000000000000, 1.000000000000000000 ) ) ;
#119 = CARTESIAN_POINT ( 'NONE',  ( 0.0000000000000000000, 0.0000000000000000000, 1.500000000000000222 ) ) ;
#120 = VECTOR ( 'NONE', #69, 39.37007874015748854 ) ;
#121 = PRODUCT_CONTEXT ( 'NONE', #207, 'mechanical' ) ;
#122 = CARTESIAN_POINT ( 'NONE',  ( 0.0000000000000000000, 0.0000000000000000000, 1.500000000000000222 ) ) ;
#123 = LINE ( 'NONE', #321, #245 ) ;
#124 = CARTESIAN_POINT ( 'NONE',  ( 1.334865011070615584E-17, 0.0000000000000000000, 0.1089999999999999997 ) ) ;
#125 = AXIS2_PLACEMENT_3D ( 'NONE', #147, #72, #175 ) ;
#126 = DIRECTION ( 'NONE',  ( -0.0000000000000000000, -0.0000000000000000000, -1.000000000000000000 ) ) ;
#127 = VERTEX_POINT ( 'NONE', #168 ) ;
#128 = CONICAL_SURFACE ( 'NONE', #149, 0.04750000000000064587, 0.7853981633974466137 ) ;
#129 = ORIENTED_EDGE ( 'NONE', *, *, #215, .T. ) ;
#130 = ORIENTED_EDGE ( 'NONE', *, *, #117, .T. ) ;
#131 = ORIENTED_EDGE ( 'NONE', *, *, #218, .T. ) ;
#132 = CIRCLE ( 'NONE', #279, 0.06250000000000002776 ) ;
#133 = ORIENTED_EDGE ( 'NONE', *, *, #75, .F. ) ;
#134 = SPHERICAL_SURFACE ( 'NONE', #264, 0.02337660000000000432 ) ;
#135 =( NAMED_UNIT ( * ) SI_UNIT ( $, .STERADIAN. ) SOLID_ANGLE_UNIT ( ) );
#136 = DIRECTION ( 'NONE',  ( -1.000000000000000000, 0.0000000000000000000, 1.224646799147353454E-16 ) ) ;
#137 = COLOUR_RGB ( '',0.7921568627450980005, 0.8196078431372548767, 0.9333333333333333481 ) ;
#138 = DIRECTION ( 'NONE',  ( 0.0000000000000000000, 0.0000000000000000000, 1.000000000000000000 ) ) ;
#139 = DIRECTION ( 'NONE',  ( -1.224646799147353700E-16, -0.0000000000000000000, -1.000000000000000000 ) ) ;
#140 = FACE_OUTER_BOUND ( 'NONE', #154, .T. ) ;
#141 = ADVANCED_FACE ( 'NONE', ( #298 ), #145, .T. ) ;
#142 = ADVANCED_FACE ( 'NONE', ( #225 ), #209, .T. ) ;
#143 = DIRECTION ( 'NONE',  ( -1.000000000000000000, 0.0000000000000000000, 0.0000000000000000000 ) ) ;
#144 = AXIS2_PLACEMENT_3D ( 'NONE', #25, #126, #50 ) ;
#145 = PLANE ( 'NONE',  #70 ) ;
#146 = CYLINDRICAL_SURFACE ( 'NONE', #144, 0.06250000000000002776 ) ;
#147 = CARTESIAN_POINT ( 'NONE',  ( 2.862807836494802985E-18, 0.0000000000000000000, 0.02337660000000000432 ) ) ;
#148 = LENGTH_MEASURE_WITH_UNIT ( LENGTH_MEASURE( 0.02539999999999999897 ), #306 );
#149 = AXIS2_PLACEMENT_3D ( 'NONE', #119, #185, #65 ) ;
#150 = PRODUCT_RELATED_PRODUCT_CATEGORY ( 'part', '', ( #2 ) ) ;
#151 = CARTESIAN_POINT ( 'NONE',  ( -0.06250000000000002776, 0.0000000000000000000, 1.485000000000000764 ) ) ;
#152 = ORIENTED_EDGE ( 'NONE', *, *, #153, .F. ) ;
#153 = EDGE_CURVE ( 'NONE', #312, #204, #273, .T. ) ;
#154 = EDGE_LOOP ( 'NONE', ( #58, #309, #78 ) ) ;
#155 = CIRCLE ( 'NONE', #292, 0.02337660000000000432 ) ;
#156 = VERTEX_POINT ( 'NONE', #244 ) ;
#157 = EDGE_LOOP ( 'NONE', ( #211, #82 ) ) ;
#158 = EDGE_CURVE ( 'NONE', #254, #181, #109, .T. ) ;
#159 = EDGE_CURVE ( 'NONE', #181, #254, #32, .T. ) ;
#160 = EDGE_LOOP ( 'NONE', ( #31, #231, #176, #106 ) ) ;
#161 = CIRCLE ( 'NONE', #19, 0.06250000000000002776 ) ;
#162 = CARTESIAN_POINT ( 'NONE',  ( 2.862807836494802985E-18, 0.0000000000000000000, 0.02337660000000000432 ) ) ;
#163 = DIRECTION ( 'NONE',  ( 0.0000000000000000000, 1.000000000000000000, 0.0000000000000000000 ) ) ;
#164 = SURFACE_STYLE_USAGE ( .BOTH. , #238 ) ;
#165 = SURFACE_STYLE_FILL_AREA ( #14 ) ;
#166 = CIRCLE ( 'NONE', #63, 0.02337660000000000432 ) ;
#167 = STYLED_ITEM ( 'NONE', ( #59 ), #53 ) ;
#168 = CARTESIAN_POINT ( 'NONE',  ( -0.02337659999999999738, 0.0000000000000000000, 0.02337660000000000779 ) ) ;
#169 = DIRECTION ( 'NONE',  ( 0.0000000000000000000, 0.0000000000000000000, 1.000000000000000000 ) ) ;
#170 = LINE ( 'NONE', #305, #120 ) ;
#171 = AXIS2_PLACEMENT_3D ( 'NONE', #162, #316, #13 ) ;
#172 = CARTESIAN_POINT ( 'NONE',  ( 0.0000000000000000000, 0.0000000000000000000, 1.485000000000000764 ) ) ;
#173 = CARTESIAN_POINT ( 'NONE',  ( 2.862807836494802985E-18, 0.0000000000000000000, 0.02337660000000000432 ) ) ;
#174 = FACE_OUTER_BOUND ( 'NONE', #234, .T. ) ;
#175 = DIRECTION ( 'NONE',  ( -1.000000000000000000, 0.0000000000000000000, 1.825976613408455680E-16 ) ) ;
#176 = ORIENTED_EDGE ( 'NONE', *, *, #94, .T. ) ;
#177 = ORIENTED_EDGE ( 'NONE', *, *, #191, .F. ) ;
#178 = ORIENTED_EDGE ( 'NONE', *, *, #48, .F. ) ;
#179 = AXIS2_PLACEMENT_3D ( 'NONE', #293, #40, #260 ) ;
#180 = DIMENSIONAL_EXPONENTS ( 1.000000000000000000, 0.0000000000000000000, 0.0000000000000000000, 0.0000000000000000000, 0.0000000000000000000, 0.0000000000000000000, 0.0000000000000000000 ) ;
#181 = VERTEX_POINT ( 'NONE', #92 ) ;
#182 = ORIENTED_EDGE ( 'NONE', *, *, #241, .F. ) ;
#183 = CARTESIAN_POINT ( 'NONE',  ( 0.02337660000000001126, 0.0000000000000000000, 0.1089999999999999997 ) ) ;
#184 = AXIS2_PLACEMENT_3D ( 'NONE', #4, #22, #104 ) ;
#185 = DIRECTION ( 'NONE',  ( 0.0000000000000000000, 0.0000000000000000000, -1.000000000000000000 ) ) ;
#186 = CARTESIAN_POINT ( 'NONE',  ( 2.862807836494802985E-18, 0.0000000000000000000, 0.02337660000000000432 ) ) ;
#187 = DIRECTION ( 'NONE',  ( -1.224646799147353700E-16, -0.0000000000000000000, -1.000000000000000000 ) ) ;
#188 = DIMENSIONAL_EXPONENTS ( 1.000000000000000000, 0.0000000000000000000, 0.0000000000000000000, 0.0000000000000000000, 0.0000000000000000000, 0.0000000000000000000, 0.0000000000000000000 ) ;
#189 = DIRECTION ( 'NONE',  ( 1.000000000000000000, 0.0000000000000000000, 0.0000000000000000000 ) ) ;
#190 = AXIS2_PLACEMENT_3D ( 'NONE', #301, #98, #95 ) ;
#191 = EDGE_CURVE ( 'NONE', #206, #30, #132, .T. ) ;
#192 = CARTESIAN_POINT ( 'NONE',  ( -0.02337659999999998697, 2.862807836494801445E-18, 0.1089999999999999997 ) ) ;
#193 = CARTESIAN_POINT ( 'NONE',  ( 1.334865011070615584E-17, 0.0000000000000000000, 0.1089999999999999997 ) ) ;
#194 = DIRECTION ( 'NONE',  ( 1.224646799147353700E-16, 0.0000000000000000000, 1.000000000000000000 ) ) ;
#195 = CARTESIAN_POINT ( 'NONE',  ( 0.0000000000000000000, 0.0000000000000000000, 1.500000000000000222 ) ) ;
#196 = EDGE_CURVE ( 'NONE', #312, #288, #256, .T. ) ;
#197 = LINE ( 'NONE', #247, #203 ) ;
#198 = DIRECTION ( 'NONE',  ( -1.000000000000000000, 1.224646799147352961E-16, 0.0000000000000000000 ) ) ;
#199 = CARTESIAN_POINT ( 'NONE',  ( 0.0000000000000000000, 0.0000000000000000000, 1.500000000000000222 ) ) ;
#200 = APPLICATION_CONTEXT ( 'automotive_design' ) ;
#201 = CARTESIAN_POINT ( 'NONE',  ( 0.02337660000000001126, 0.0000000000000000000, 0.1089999999999999997 ) ) ;
#202 = ADVANCED_FACE ( 'NONE', ( #276 ), #74, .T. ) ;
#203 = VECTOR ( 'NONE', #304, 39.37007874015748143 ) ;
#204 = VERTEX_POINT ( 'NONE', #52 ) ;
#205 = EDGE_CURVE ( 'NONE', #206, #204, #73, .T. ) ;
#206 = VERTEX_POINT ( 'NONE', #151 ) ;
#207 = APPLICATION_CONTEXT ( 'automotive_design' ) ;
#208 = ORIENTED_EDGE ( 'NONE', *, *, #114, .F. ) ;
#209 = CONICAL_SURFACE ( 'NONE', #251, 0.02337659999999999738, 0.1745329251994338082 ) ;
#210 = ADVANCED_FACE ( 'NONE', ( #96 ), #91, .T. ) ;
#211 = ORIENTED_EDGE ( 'NONE', *, *, #158, .T. ) ;
#212 = ORIENTED_EDGE ( 'NONE', *, *, #289, .F. ) ;
#213 = EDGE_CURVE ( 'NONE', #181, #30, #170, .T. ) ;
#214 = DIRECTION ( 'NONE',  ( -0.7071067811865462405, 0.0000000000000000000, -0.7071067811865486830 ) ) ;
#215 = EDGE_CURVE ( 'NONE', #127, #56, #302, .T. ) ;
#216 = CARTESIAN_POINT ( 'NONE',  ( 0.02337660000000000779, 2.862807836494801830E-18, 0.02337659999999999738 ) ) ;
#217 = DIRECTION ( 'NONE',  ( 1.000000000000000000, 0.0000000000000000000, 0.0000000000000000000 ) ) ;
#218 = EDGE_CURVE ( 'NONE', #204, #107, #161, .T. ) ;
#219 = FILL_AREA_STYLE ('',( #64 ) ) ;
#220 = DIRECTION ( 'NONE',  ( 1.000000000000000000, 0.0000000000000000000, 0.0000000000000000000 ) ) ;
#221 = VECTOR ( 'NONE', #47, 39.37007874015748143 ) ;
#222 = PRODUCT_DEFINITION_FORMATION_WITH_SPECIFIED_SOURCE ( 'ANY', '', #2, .NOT_KNOWN. ) ;
#223 = DIRECTION ( 'NONE',  ( 0.0000000000000000000, 0.0000000000000000000, 1.000000000000000000 ) ) ;
#224 = DIRECTION ( 'NONE',  ( 1.000000000000000000, 0.0000000000000000000, 0.0000000000000000000 ) ) ;
#225 = FACE_OUTER_BOUND ( 'NONE', #258, .T. ) ;
#226 = CARTESIAN_POINT ( 'NONE',  ( -0.02337659999999998697, 5.258425165582881421E-18, 0.1089999999999999997 ) ) ;
#227 = AXIS2_PLACEMENT_3D ( 'NONE', #199, #103, #49 ) ;
#228 = PRESENTATION_LAYER_ASSIGNMENT (  '', '', ( #116 ) ) ;
#229 =( NAMED_UNIT ( * ) PLANE_ANGLE_UNIT ( ) SI_UNIT ( $, .RADIAN. ) );
#230 = CYLINDRICAL_SURFACE ( 'NONE', #184, 0.02337660000000000432 ) ;
#231 = ORIENTED_EDGE ( 'NONE', *, *, #158, .F. ) ;
#232 = CIRCLE ( 'NONE', #86, 0.02337659999999999738 ) ;
#233 = ORIENTED_EDGE ( 'NONE', *, *, #111, .T. ) ;
#234 = EDGE_LOOP ( 'NONE', ( #290, #27, #77, #285 ) ) ;
#235 = EDGE_LOOP ( 'NONE', ( #208, #281, #255, #129 ) ) ;
#236 = VECTOR ( 'NONE', #214, 39.37007874015748854 ) ;
#237 = ORIENTED_EDGE ( 'NONE', *, *, #75, .T. ) ;
#238 = SURFACE_SIDE_STYLE ('',( #17 ) ) ;
#239 = FILL_AREA_STYLE_COLOUR ( '', #137 ) ;
#240 = APPLICATION_PROTOCOL_DEFINITION ( 'draft international standard', 'automotive_design', 1998, #200 ) ;
#241 = EDGE_CURVE ( 'NONE', #156, #127, #155, .T. ) ;
#242 = CARTESIAN_POINT ( 'NONE',  ( 0.06250000000000006939, 7.654042494670963708E-18, 0.3308798271416305559 ) ) ;
#243 = DIRECTION ( 'NONE',  ( 1.000000000000000000, 0.0000000000000000000, 0.0000000000000000000 ) ) ;
#244 = CARTESIAN_POINT ( 'NONE',  ( 4.294211754742204093E-18, 0.0000000000000000000, 0.0000000000000000000 ) ) ;
#245 = VECTOR ( 'NONE', #246, 39.37007874015748143 ) ;
#246 = DIRECTION ( 'NONE',  ( -1.224646799147353700E-16, -0.0000000000000000000, -1.000000000000000000 ) ) ;
#247 = CARTESIAN_POINT ( 'NONE',  ( 0.06250000000000002776, 7.654042494670959086E-18, 1.500000000000000222 ) ) ;
#248 = PRODUCT_DEFINITION_CONTEXT ( 'detailed design', #200, 'design' ) ;
#249 = DIRECTION ( 'NONE',  ( -1.224646799147353700E-16, -0.0000000000000000000, -1.000000000000000000 ) ) ;
#250 =( CONVERSION_BASED_UNIT ( 'INCH', #148 ) LENGTH_UNIT ( ) NAMED_UNIT ( #266 ) );
#251 = AXIS2_PLACEMENT_3D ( 'NONE', #193, #20, #324 ) ;
#252 = COLOUR_RGB ( '',0.7921568627450980005, 0.8196078431372548767, 0.9333333333333333481 ) ;
#253 = CARTESIAN_POINT ( 'NONE',  ( -0.04750000000000064587, 0.0000000000000000000, 1.500000000000000222 ) ) ;
#254 = VERTEX_POINT ( 'NONE', #253 ) ;
#255 = ORIENTED_EDGE ( 'NONE', *, *, #97, .T. ) ;
#256 = CIRCLE ( 'NONE', #10, 0.02337659999999999738 ) ;
#257 = ORIENTED_EDGE ( 'NONE', *, *, #196, .T. ) ;
#258 = EDGE_LOOP ( 'NONE', ( #152, #212, #237, #112 ) ) ;
#259 = EDGE_LOOP ( 'NONE', ( #9, #11, #177, #57 ) ) ;
#260 = DIRECTION ( 'NONE',  ( -1.000000000000000000, 0.0000000000000000000, 0.0000000000000000000 ) ) ;
#261 = ADVANCED_BREP_SHAPE_REPRESENTATION ( 'Micro_BEM-046-02', ( #53, #308 ), #100 ) ;
#262 = CARTESIAN_POINT ( 'NONE',  ( 4.052109212114275620E-17, 0.0000000000000000000, 0.3308798271416305559 ) ) ;
#263 =( LENGTH_UNIT ( ) NAMED_UNIT ( * ) SI_UNIT ( $, .METRE. ) );
#264 = AXIS2_PLACEMENT_3D ( 'NONE', #186, #163, #243 ) ;
#265 = CYLINDRICAL_SURFACE ( 'NONE', #297, 0.02337660000000000432 ) ;
#266 = DIMENSIONAL_EXPONENTS ( 1.000000000000000000, 0.0000000000000000000, 0.0000000000000000000, 0.0000000000000000000, 0.0000000000000000000, 0.0000000000000000000, 0.0000000000000000000 ) ;
#267 = UNCERTAINTY_MEASURE_WITH_UNIT (LENGTH_MEASURE( 1.000000000000000082E-05 ), #39, 'distance_accuracy_value', 'NONE');
#268 = LENGTH_MEASURE_WITH_UNIT ( LENGTH_MEASURE( 0.02539999999999999897 ), #263 );
#269 = ADVANCED_FACE ( 'NONE', ( #174 ), #146, .T. ) ;
#270 =( LENGTH_UNIT ( ) NAMED_UNIT ( * ) SI_UNIT ( $, .METRE. ) );
#271 = DIRECTION ( 'NONE',  ( -1.224646799147353700E-16, -0.0000000000000000000, -1.000000000000000000 ) ) ;
#272 =( NAMED_UNIT ( * ) SI_UNIT ( $, .STERADIAN. ) SOLID_ANGLE_UNIT ( ) );
#273 = LINE ( 'NONE', #192, #60 ) ;
#274 = DIRECTION ( 'NONE',  ( 1.000000000000000000, 0.0000000000000000000, 0.0000000000000000000 ) ) ;
#275 = DIRECTION ( 'NONE',  ( 0.0000000000000000000, 0.0000000000000000000, -1.000000000000000000 ) ) ;
#276 = FACE_OUTER_BOUND ( 'NONE', #29, .T. ) ;
#277 = DIRECTION ( 'NONE',  ( -1.224646799147353700E-16, -0.0000000000000000000, -1.000000000000000000 ) ) ;
#278 = DIRECTION ( 'NONE',  ( 1.224646799147353207E-16, 1.000000000000000000, -0.0000000000000000000 ) ) ;
#279 = AXIS2_PLACEMENT_3D ( 'NONE', #172, #275, #220 ) ;
#280 = EDGE_CURVE ( 'NONE', #30, #107, #197, .T. ) ;
#281 = ORIENTED_EDGE ( 'NONE', *, *, #289, .T. ) ;
#282 = ORIENTED_EDGE ( 'NONE', *, *, #97, .F. ) ;
#283 = ADVANCED_FACE ( 'NONE', ( #325 ), #230, .T. ) ;
#284 = EDGE_CURVE ( 'NONE', #30, #206, #6, .T. ) ;
#285 = ORIENTED_EDGE ( 'NONE', *, *, #205, .F. ) ;
#286 = CLOSED_SHELL ( 'NONE', ( #26, #283, #210, #35, #269, #202, #141, #79, #142, #89, #84 ) ) ;
#287 = CONICAL_SURFACE ( 'NONE', #179, 0.04750000000000064587, 0.7853981633974466137 ) ;
#288 = VERTEX_POINT ( 'NONE', #201 ) ;
#289 = EDGE_CURVE ( 'NONE', #288, #312, #232, .T. ) ;
#290 = ORIENTED_EDGE ( 'NONE', *, *, #191, .T. ) ;
#291 =( CONVERSION_BASED_UNIT ( 'INCH', #41 ) LENGTH_UNIT ( ) NAMED_UNIT ( #188 ) );
#292 = AXIS2_PLACEMENT_3D ( 'NONE', #173, #278, #198 ) ;
#293 = CARTESIAN_POINT ( 'NONE',  ( 0.0000000000000000000, 0.0000000000000000000, 1.500000000000000222 ) ) ;
#294 =( NAMED_UNIT ( * ) PLANE_ANGLE_UNIT ( ) SI_UNIT ( $, .RADIAN. ) );
#295 = LINE ( 'NONE', #33, #236 ) ;
#296 = CIRCLE ( 'NONE', #1, 0.06250000000000002776 ) ;
#297 = AXIS2_PLACEMENT_3D ( 'NONE', #37, #113, #136 ) ;
#298 = FACE_OUTER_BOUND ( 'NONE', #157, .T. ) ;
#299 = DIRECTION ( 'NONE',  ( 1.000000000000000000, 0.0000000000000000000, 0.0000000000000000000 ) ) ;
#300 = CARTESIAN_POINT ( 'NONE',  ( 1.334865011070615584E-17, 0.0000000000000000000, 0.1089999999999999997 ) ) ;
#301 = CARTESIAN_POINT ( 'NONE',  ( 2.862807836494802985E-18, 0.0000000000000000000, 0.02337660000000000432 ) ) ;
#302 = CIRCLE ( 'NONE', #125, 0.02337660000000000432 ) ;
#303 =( GEOMETRIC_REPRESENTATION_CONTEXT ( 3 ) GLOBAL_UNCERTAINTY_ASSIGNED_CONTEXT ( ( #267 ) ) GLOBAL_UNIT_ASSIGNED_CONTEXT ( ( #39, #319, #135 ) ) REPRESENTATION_CONTEXT ( 'NONE', 'WORKASPACE' ) );
#304 = DIRECTION ( 'NONE',  ( -0.0000000000000000000, -0.0000000000000000000, -1.000000000000000000 ) ) ;
#305 = CARTESIAN_POINT ( 'NONE',  ( 0.04750000000000064587, 5.817072295950006528E-18, 1.500000000000000222 ) ) ;
#306 =( LENGTH_UNIT ( ) NAMED_UNIT ( * ) SI_UNIT ( $, .METRE. ) );
#307 = AXIS2_PLACEMENT_3D ( 'NONE', #68, #223, #299 ) ;
#308 = AXIS2_PLACEMENT_3D ( 'NONE', #42, #138, #217 ) ;
#309 = ORIENTED_EDGE ( 'NONE', *, *, #241, .T. ) ;
#310 = CIRCLE ( 'NONE', #190, 0.02337660000000000432 ) ;
#311 = MECHANICAL_DESIGN_GEOMETRIC_PRESENTATION_REPRESENTATION (  '', ( #167 ), #315 ) ;
#312 = VERTEX_POINT ( 'NONE', #226 ) ;
#313 = LINE ( 'NONE', #62, #24 ) ;
#314 = UNCERTAINTY_MEASURE_WITH_UNIT (LENGTH_MEASURE( 1.000000000000000082E-05 ), #250, 'distance_accuracy_value', 'NONE');
#315 =( GEOMETRIC_REPRESENTATION_CONTEXT ( 3 ) GLOBAL_UNCERTAINTY_ASSIGNED_CONTEXT ( ( #34 ) ) GLOBAL_UNIT_ASSIGNED_CONTEXT ( ( #291, #294, #115 ) ) REPRESENTATION_CONTEXT ( 'NONE', 'WORKASPACE' ) );
#316 = DIRECTION ( 'NONE',  ( 0.0000000000000000000, 1.000000000000000000, 0.0000000000000000000 ) ) ;
#317 = DIRECTION ( 'NONE',  ( 0.1736481776669313026, 0.0000000000000000000, 0.9848077530122077983 ) ) ;
#318 = FACE_OUTER_BOUND ( 'NONE', #259, .T. ) ;
#319 =( NAMED_UNIT ( * ) PLANE_ANGLE_UNIT ( ) SI_UNIT ( $, .RADIAN. ) );
#320 = AXIS2_PLACEMENT_3D ( 'NONE', #300, #194, #274 ) ;
#321 = CARTESIAN_POINT ( 'NONE',  ( 0.02337660000000000432, 2.862807836494801830E-18, -2.862807836494802985E-18 ) ) ;
#322 = DIRECTION ( 'NONE',  ( -0.1736481776669311083, 2.126576849575782084E-17, 0.9848077530122080203 ) ) ;
#323 = CARTESIAN_POINT ( 'NONE',  ( -0.06250000000000002776, 0.0000000000000000000, 1.500000000000000222 ) ) ;
#324 = DIRECTION ( 'NONE',  ( 1.000000000000000000, 0.0000000000000000000, 0.0000000000000000000 ) ) ;
#325 = FACE_OUTER_BOUND ( 'NONE', #7, .T. ) ;
ENDSEC;
END-ISO-10303-21;
