ISO-10303-21;
HEADER;
FILE_DESCRIPTION (( 'STEP AP214' ),
    '1' );
FILE_NAME ('Micro_SEM-093-04X.STEP',
    '2021-09-02T01:13:37',
    ( '' ),
    ( '' ),
    'SwSTEP 2.0',
    'SolidWorks 2020',
    '' );
FILE_SCHEMA (( 'AUTOMOTIVE_DESIGN' ));
ENDSEC;

DATA;
#1 = ADVANCED_BREP_SHAPE_REPRESENTATION ( 'Micro_SEM-093-04X', ( #83, #91 ), #132 ) ;
#2 = PLANE ( 'NONE',  #198 ) ;
#3 = ADVANCED_FACE ( 'NONE', ( #245 ), #66, .T. ) ;
#4 = CARTESIAN_POINT ( 'NONE',  ( 0.0000000000000000000, 0.0000000000000000000, 1.500000000000000222 ) ) ;
#5 = DIRECTION ( 'NONE',  ( 1.000000000000000000, 0.0000000000000000000, -0.0000000000000000000 ) ) ;
#6 = STYLED_ITEM ( 'NONE', ( #284 ), #1 ) ;
#7 = ORIENTED_EDGE ( 'NONE', *, *, #250, .T. ) ;
#8 =( LENGTH_UNIT ( ) NAMED_UNIT ( * ) SI_UNIT ( $, .METRE. ) );
#9 = VECTOR ( 'NONE', #52, 39.37007874015748143 ) ;
#10 = DIMENSIONAL_EXPONENTS ( 1.000000000000000000, 0.0000000000000000000, 0.0000000000000000000, 0.0000000000000000000, 0.0000000000000000000, 0.0000000000000000000, 0.0000000000000000000 ) ;
#11 = CARTESIAN_POINT ( 'NONE',  ( 0.0000000000000000000, 0.0000000000000000000, 1.500000000000000222 ) ) ;
#12 =( CONVERSION_BASED_UNIT ( 'INCH', #240 ) LENGTH_UNIT ( ) NAMED_UNIT ( #153 ) );
#13 = ORIENTED_EDGE ( 'NONE', *, *, #174, .F. ) ;
#14 = DIRECTION ( 'NONE',  ( -0.0000000000000000000, -0.0000000000000000000, -1.000000000000000000 ) ) ;
#15 = AXIS2_PLACEMENT_3D ( 'NONE', #286, #97, #62 ) ;
#16 = DIRECTION ( 'NONE',  ( 0.0000000000000000000, 0.0000000000000000000, -1.000000000000000000 ) ) ;
#17 = DIRECTION ( 'NONE',  ( 1.000000000000000000, 0.0000000000000000000, 0.0000000000000000000 ) ) ;
#18 = ORIENTED_EDGE ( 'NONE', *, *, #197, .F. ) ;
#19 = FILL_AREA_STYLE ('',( #106 ) ) ;
#20 = CIRCLE ( 'NONE', #31, 0.04750000000000064587 ) ;
#21 = DIRECTION ( 'NONE',  ( -1.224646799147353454E-16, -0.0000000000000000000, -1.000000000000000000 ) ) ;
#22 = PRODUCT ( 'Micro_SEM-093-04X', 'Micro_SEM-093-04X', '', ( #223 ) ) ;
#23 = PRODUCT_RELATED_PRODUCT_CATEGORY ( 'part', '', ( #22 ) ) ;
#24 = DIRECTION ( 'NONE',  ( 0.0000000000000000000, 0.0000000000000000000, 1.000000000000000000 ) ) ;
#25 = DIRECTION ( 'NONE',  ( 0.1736481776669314137, 0.0000000000000000000, 0.9848077530122077983 ) ) ;
#26 = LINE ( 'NONE', #226, #186 ) ;
#27 = DIRECTION ( 'NONE',  ( 0.0000000000000000000, 0.0000000000000000000, 1.000000000000000000 ) ) ;
#28 = APPLICATION_CONTEXT ( 'automotive_design' ) ;
#29 = DIRECTION ( 'NONE',  ( -1.000000000000000000, 0.0000000000000000000, 1.224646799147353454E-16 ) ) ;
#30 = APPLICATION_CONTEXT ( 'automotive_design' ) ;
#31 = AXIS2_PLACEMENT_3D ( 'NONE', #161, #71, #93 ) ;
#32 = PRODUCT_DEFINITION_CONTEXT ( 'detailed design', #30, 'design' ) ;
#33 = ORIENTED_EDGE ( 'NONE', *, *, #94, .F. ) ;
#34 = SURFACE_STYLE_USAGE ( .BOTH. , #148 ) ;
#35 = VERTEX_POINT ( 'NONE', #154 ) ;
#36 = DIRECTION ( 'NONE',  ( -1.000000000000000000, 0.0000000000000000000, 0.0000000000000000000 ) ) ;
#37 = ORIENTED_EDGE ( 'NONE', *, *, #275, .F. ) ;
#38 = ADVANCED_FACE ( 'NONE', ( #221 ), #176, .T. ) ;
#39 =( LENGTH_UNIT ( ) NAMED_UNIT ( * ) SI_UNIT ( $, .METRE. ) );
#40 = DIMENSIONAL_EXPONENTS ( 1.000000000000000000, 0.0000000000000000000, 0.0000000000000000000, 0.0000000000000000000, 0.0000000000000000000, 0.0000000000000000000, 0.0000000000000000000 ) ;
#41 = ORIENTED_EDGE ( 'NONE', *, *, #197, .T. ) ;
#42 = CARTESIAN_POINT ( 'NONE',  ( -0.04685309999999998087, 6.695946194592021721E-18, 0.1880000000000000282 ) ) ;
#43 = CONICAL_SURFACE ( 'NONE', #249, 0.04685310000000000863, 0.1745329251994339192 ) ;
#44 = DIRECTION ( 'NONE',  ( -1.000000000000000000, 0.0000000000000000000, 1.224646799147353454E-16 ) ) ;
#45 =( NAMED_UNIT ( * ) PLANE_ANGLE_UNIT ( ) SI_UNIT ( $, .RADIAN. ) );
#46 = EDGE_CURVE ( 'NONE', #202, #88, #229, .T. ) ;
#47 = VECTOR ( 'NONE', #166, 39.37007874015748143 ) ;
#48 = ORIENTED_EDGE ( 'NONE', *, *, #288, .T. ) ;
#49 = LINE ( 'NONE', #252, #9 ) ;
#50 = EDGE_CURVE ( 'NONE', #157, #287, #267, .T. ) ;
#51 = PRODUCT_DEFINITION_SHAPE ( 'NONE', 'NONE',  #179 ) ;
#52 = DIRECTION ( 'NONE',  ( -0.7071067811865456854, 0.0000000000000000000, -0.7071067811865493491 ) ) ;
#53 = AXIS2_PLACEMENT_3D ( 'NONE', #92, #135, #29 ) ;
#54 = DIRECTION ( 'NONE',  ( -0.1736481776669312194, 2.126576849575783625E-17, 0.9848077530122080203 ) ) ;
#55 = CARTESIAN_POINT ( 'NONE',  ( 0.0000000000000000000, 0.0000000000000000000, 0.0000000000000000000 ) ) ;
#56 = DIRECTION ( 'NONE',  ( 1.000000000000000000, 0.0000000000000000000, 0.0000000000000000000 ) ) ;
#57 = UNCERTAINTY_MEASURE_WITH_UNIT (LENGTH_MEASURE( 1.000000000000000082E-05 ), #12, 'distance_accuracy_value', 'NONE');
#58 = AXIS2_PLACEMENT_3D ( 'NONE', #11, #140, #36 ) ;
#59 = EDGE_LOOP ( 'NONE', ( #237, #261, #222, #13 ) ) ;
#60 = CARTESIAN_POINT ( 'NONE',  ( 3.389062808013151311E-17, 0.0000000000000000000, 0.2767379795033758083 ) ) ;
#61 = EDGE_LOOP ( 'NONE', ( #235, #248, #64, #280 ) ) ;
#62 = DIRECTION ( 'NONE',  ( -1.000000000000000000, 0.0000000000000000000, 0.0000000000000000000 ) ) ;
#63 = ORIENTED_EDGE ( 'NONE', *, *, #292, .T. ) ;
#64 = ORIENTED_EDGE ( 'NONE', *, *, #193, .T. ) ;
#65 = ORIENTED_EDGE ( 'NONE', *, *, #116, .T. ) ;
#66 = CYLINDRICAL_SURFACE ( 'NONE', #232, 0.06250000000000000000 ) ;
#67 = CARTESIAN_POINT ( 'NONE',  ( 0.0000000000000000000, 0.0000000000000000000, 1.485000000000000764 ) ) ;
#68 = VECTOR ( 'NONE', #296, 39.37007874015748143 ) ;
#69 = CARTESIAN_POINT ( 'NONE',  ( 0.04685310000000002945, 0.0000000000000000000, 0.1880000000000000282 ) ) ;
#70 = FACE_OUTER_BOUND ( 'NONE', #180, .T. ) ;
#71 = DIRECTION ( 'NONE',  ( 0.0000000000000000000, 0.0000000000000000000, 1.000000000000000000 ) ) ;
#72 = AXIS2_PLACEMENT_3D ( 'NONE', #60, #146, #196 ) ;
#73 = DIRECTION ( 'NONE',  ( 1.000000000000000000, 0.0000000000000000000, 0.0000000000000000000 ) ) ;
#74 = DIRECTION ( 'NONE',  ( 0.0000000000000000000, 0.0000000000000000000, -1.000000000000000000 ) ) ;
#75 = ADVANCED_FACE ( 'NONE', ( #107 ), #43, .T. ) ;
#76 = ORIENTED_EDGE ( 'NONE', *, *, #98, .T. ) ;
#77 = FILL_AREA_STYLE ('',( #238 ) ) ;
#78 = VERTEX_POINT ( 'NONE', #42 ) ;
#79 = VECTOR ( 'NONE', #25, 39.37007874015748143 ) ;
#80 = LINE ( 'NONE', #201, #205 ) ;
#81 = EDGE_CURVE ( 'NONE', #157, #195, #80, .T. ) ;
#82 = APPLICATION_PROTOCOL_DEFINITION ( 'draft international standard', 'automotive_design', 1998, #30 ) ;
#83 = MANIFOLD_SOLID_BREP ( 'Cut-Revolve1', #99 ) ;
#84 = ORIENTED_EDGE ( 'NONE', *, *, #81, .T. ) ;
#85 = CONICAL_SURFACE ( 'NONE', #167, 0.04750000000000064587, 0.7853981633974457255 ) ;
#86 = ADVANCED_FACE ( 'NONE', ( #181 ), #283, .T. ) ;
#87 = CARTESIAN_POINT ( 'NONE',  ( 7.026839507303431300E-34, 0.0000000000000000000, 5.737849894513086668E-18 ) ) ;
#88 = VERTEX_POINT ( 'NONE', #257 ) ;
#89 = FACE_OUTER_BOUND ( 'NONE', #241, .T. ) ;
#90 = VECTOR ( 'NONE', #54, 39.37007874015747433 ) ;
#91 = AXIS2_PLACEMENT_3D ( 'NONE', #243, #173, #17 ) ;
#92 = CARTESIAN_POINT ( 'NONE',  ( 7.026839507303431300E-34, 0.0000000000000000000, 5.737849894513086668E-18 ) ) ;
#93 = DIRECTION ( 'NONE',  ( 1.000000000000000000, 0.0000000000000000000, 0.0000000000000000000 ) ) ;
#94 = EDGE_CURVE ( 'NONE', #244, #35, #20, .T. ) ;
#95 = CIRCLE ( 'NONE', #113, 0.06250000000000000000 ) ;
#96 = DIRECTION ( 'NONE',  ( 1.000000000000000000, 0.0000000000000000000, 0.0000000000000000000 ) ) ;
#97 = DIRECTION ( 'NONE',  ( -1.224646799147353454E-16, -0.0000000000000000000, -1.000000000000000000 ) ) ;
#98 = EDGE_CURVE ( 'NONE', #244, #287, #26, .T. ) ;
#99 = CLOSED_SHELL ( 'NONE', ( #134, #86, #256, #3, #281, #151, #159, #75, #38, #138 ) ) ;
#100 = AXIS2_PLACEMENT_3D ( 'NONE', #67, #16, #293 ) ;
#101 = CARTESIAN_POINT ( 'NONE',  ( 0.06250000000000000000, 7.654042494670956004E-18, 1.485000000000000764 ) ) ;
#102 = EDGE_LOOP ( 'NONE', ( #192, #7, #37, #285 ) ) ;
#103 = CARTESIAN_POINT ( 'NONE',  ( 2.302335982397024786E-17, 0.0000000000000000000, 0.1880000000000000282 ) ) ;
#104 = AXIS2_PLACEMENT_3D ( 'NONE', #55, #137, #278 ) ;
#105 = CIRCLE ( 'NONE', #118, 0.04750000000000064587 ) ;
#106 = FILL_AREA_STYLE_COLOUR ( '', #170 ) ;
#107 = FACE_OUTER_BOUND ( 'NONE', #150, .T. ) ;
#108 = ORIENTED_EDGE ( 'NONE', *, *, #50, .F. ) ;
#109 = AXIS2_PLACEMENT_3D ( 'NONE', #247, #21, #44 ) ;
#110 = CARTESIAN_POINT ( 'NONE',  ( 2.302335982397024786E-17, 0.0000000000000000000, 0.1880000000000000282 ) ) ;
#111 = LINE ( 'NONE', #255, #177 ) ;
#112 = FACE_OUTER_BOUND ( 'NONE', #61, .T. ) ;
#113 = AXIS2_PLACEMENT_3D ( 'NONE', #162, #74, #73 ) ;
#114 = CARTESIAN_POINT ( 'NONE',  ( -0.04685310000000000169, 0.0000000000000000000, 5.737849894513086668E-18 ) ) ;
#115 = CARTESIAN_POINT ( 'NONE',  ( 0.06250000000000002776, 7.654042494670959086E-18, 0.2767379795033758083 ) ) ;
#116 = EDGE_CURVE ( 'NONE', #35, #244, #105, .T. ) ;
#117 = DIRECTION ( 'NONE',  ( -1.224646799147353454E-16, -0.0000000000000000000, -1.000000000000000000 ) ) ;
#118 = AXIS2_PLACEMENT_3D ( 'NONE', #227, #204, #56 ) ;
#119 = CARTESIAN_POINT ( 'NONE',  ( 2.302335982397024786E-17, 0.0000000000000000000, 0.1880000000000000282 ) ) ;
#120 = CARTESIAN_POINT ( 'NONE',  ( 3.389062808013151311E-17, 0.0000000000000000000, 0.2767379795033758083 ) ) ;
#121 = ORIENTED_EDGE ( 'NONE', *, *, #46, .T. ) ;
#122 =( NAMED_UNIT ( * ) PLANE_ANGLE_UNIT ( ) SI_UNIT ( $, .RADIAN. ) );
#123 = CIRCLE ( 'NONE', #72, 0.06250000000000000000 ) ;
#124 = ORIENTED_EDGE ( 'NONE', *, *, #155, .F. ) ;
#125 = VERTEX_POINT ( 'NONE', #187 ) ;
#126 = ORIENTED_EDGE ( 'NONE', *, *, #219, .F. ) ;
#127 = ORIENTED_EDGE ( 'NONE', *, *, #246, .T. ) ;
#128 = COLOUR_RGB ( '',0.7921568627450980005, 0.8196078431372548767, 0.9333333333333333481 ) ;
#129 =( CONVERSION_BASED_UNIT ( 'INCH', #158 ) LENGTH_UNIT ( ) NAMED_UNIT ( #40 ) );
#130 = DIRECTION ( 'NONE',  ( 1.000000000000000000, 0.0000000000000000000, 0.0000000000000000000 ) ) ;
#131 =( NAMED_UNIT ( * ) SI_UNIT ( $, .STERADIAN. ) SOLID_ANGLE_UNIT ( ) );
#132 =( GEOMETRIC_REPRESENTATION_CONTEXT ( 3 ) GLOBAL_UNCERTAINTY_ASSIGNED_CONTEXT ( ( #57 ) ) GLOBAL_UNIT_ASSIGNED_CONTEXT ( ( #12, #213, #263 ) ) REPRESENTATION_CONTEXT ( 'NONE', 'WORKASPACE' ) );
#133 = CARTESIAN_POINT ( 'NONE',  ( 0.0000000000000000000, 0.0000000000000000000, 1.500000000000000222 ) ) ;
#134 = ADVANCED_FACE ( 'NONE', ( #230 ), #231, .T. ) ;
#135 = DIRECTION ( 'NONE',  ( -1.224646799147353454E-16, -0.0000000000000000000, -1.000000000000000000 ) ) ;
#136 = DIRECTION ( 'NONE',  ( 0.7071067811865456854, 8.659560562354911904E-17, -0.7071067811865493491 ) ) ;
#137 = DIRECTION ( 'NONE',  ( -1.224646799147353454E-16, -0.0000000000000000000, -1.000000000000000000 ) ) ;
#138 = ADVANCED_FACE ( 'NONE', ( #207 ), #185, .F. ) ;
#139 = DIRECTION ( 'NONE',  ( 1.224646799147353454E-16, 0.0000000000000000000, 1.000000000000000000 ) ) ;
#140 = DIRECTION ( 'NONE',  ( -0.0000000000000000000, -0.0000000000000000000, -1.000000000000000000 ) ) ;
#141 = AXIS2_PLACEMENT_3D ( 'NONE', #119, #214, #218 ) ;
#142 = DIRECTION ( 'NONE',  ( -1.224646799147353454E-16, -0.0000000000000000000, -1.000000000000000000 ) ) ;
#143 = UNCERTAINTY_MEASURE_WITH_UNIT (LENGTH_MEASURE( 1.000000000000000082E-05 ), #129, 'distance_accuracy_value', 'NONE');
#144 = ORIENTED_EDGE ( 'NONE', *, *, #288, .F. ) ;
#145 = ORIENTED_EDGE ( 'NONE', *, *, #193, .F. ) ;
#146 = DIRECTION ( 'NONE',  ( -1.224646799147353454E-16, -0.0000000000000000000, -1.000000000000000000 ) ) ;
#147 = ORIENTED_EDGE ( 'NONE', *, *, #155, .T. ) ;
#148 = SURFACE_SIDE_STYLE ('',( #236 ) ) ;
#149 = AXIS2_PLACEMENT_3D ( 'NONE', #103, #139, #96 ) ;
#150 = EDGE_LOOP ( 'NONE', ( #126, #144, #239, #169 ) ) ;
#151 = ADVANCED_FACE ( 'NONE', ( #70 ), #2, .T. ) ;
#152 = EDGE_LOOP ( 'NONE', ( #265, #290, #84, #156 ) ) ;
#153 = DIMENSIONAL_EXPONENTS ( 1.000000000000000000, 0.0000000000000000000, 0.0000000000000000000, 0.0000000000000000000, 0.0000000000000000000, 0.0000000000000000000, 0.0000000000000000000 ) ;
#154 = CARTESIAN_POINT ( 'NONE',  ( -0.04750000000000064587, 0.0000000000000000000, 1.500000000000000222 ) ) ;
#155 = EDGE_CURVE ( 'NONE', #88, #202, #182, .T. ) ;
#156 = ORIENTED_EDGE ( 'NONE', *, *, #272, .F. ) ;
#157 = VERTEX_POINT ( 'NONE', #183 ) ;
#158 = LENGTH_MEASURE_WITH_UNIT ( LENGTH_MEASURE( 0.02539999999999999897 ), #291 );
#159 = ADVANCED_FACE ( 'NONE', ( #112 ), #297, .T. ) ;
#160 = MECHANICAL_DESIGN_GEOMETRIC_PRESENTATION_REPRESENTATION (  '', ( #225 ), #190 ) ;
#161 = CARTESIAN_POINT ( 'NONE',  ( 0.0000000000000000000, 0.0000000000000000000, 1.500000000000000222 ) ) ;
#162 = CARTESIAN_POINT ( 'NONE',  ( 0.0000000000000000000, 0.0000000000000000000, 1.485000000000000764 ) ) ;
#163 = CARTESIAN_POINT ( 'NONE',  ( -0.06249999999999996531, 0.0000000000000000000, 0.2767379795033758083 ) ) ;
#164 = CIRCLE ( 'NONE', #15, 0.04685310000000000863 ) ;
#165 = CARTESIAN_POINT ( 'NONE',  ( -0.04685309999999998087, 5.737849894513086668E-18, 0.1880000000000000282 ) ) ;
#166 = DIRECTION ( 'NONE',  ( -1.224646799147353454E-16, -0.0000000000000000000, -1.000000000000000000 ) ) ;
#167 = AXIS2_PLACEMENT_3D ( 'NONE', #258, #168, #217 ) ;
#168 = DIRECTION ( 'NONE',  ( 0.0000000000000000000, 0.0000000000000000000, -1.000000000000000000 ) ) ;
#169 = ORIENTED_EDGE ( 'NONE', *, *, #272, .T. ) ;
#170 = COLOUR_RGB ( '',0.7921568627450980005, 0.8196078431372548767, 0.9333333333333333481 ) ;
#171 = VERTEX_POINT ( 'NONE', #115 ) ;
#172 = PRESENTATION_LAYER_ASSIGNMENT (  '', '', ( #6 ) ) ;
#173 = DIRECTION ( 'NONE',  ( 0.0000000000000000000, 0.0000000000000000000, 1.000000000000000000 ) ) ;
#174 = EDGE_CURVE ( 'NONE', #125, #171, #273, .T. ) ;
#175 = SURFACE_STYLE_USAGE ( .BOTH. , #269 ) ;
#176 = CYLINDRICAL_SURFACE ( 'NONE', #109, 0.04685310000000000169 ) ;
#177 = VECTOR ( 'NONE', #117, 39.37007874015748143 ) ;
#178 = PRESENTATION_STYLE_ASSIGNMENT (( #175 ) ) ;
#179 = PRODUCT_DEFINITION ( 'UNKNOWN', '', #211, #32 ) ;
#180 = EDGE_LOOP ( 'NONE', ( #65, #215 ) ) ;
#181 = FACE_OUTER_BOUND ( 'NONE', #59, .T. ) ;
#182 = CIRCLE ( 'NONE', #53, 0.04685310000000000169 ) ;
#183 = CARTESIAN_POINT ( 'NONE',  ( -0.06250000000000000000, 0.0000000000000000000, 1.485000000000000764 ) ) ;
#184 = CARTESIAN_POINT ( 'NONE',  ( 0.0000000000000000000, 0.0000000000000000000, 1.500000000000000222 ) ) ;
#185 = PLANE ( 'NONE',  #210 ) ;
#186 = VECTOR ( 'NONE', #136, 39.37007874015748143 ) ;
#187 = CARTESIAN_POINT ( 'NONE',  ( 0.04685310000000002945, 0.0000000000000000000, 0.1880000000000000282 ) ) ;
#188 =( NAMED_UNIT ( * ) SI_UNIT ( $, .STERADIAN. ) SOLID_ANGLE_UNIT ( ) );
#189 = EDGE_CURVE ( 'NONE', #287, #157, #95, .T. ) ;
#190 =( GEOMETRIC_REPRESENTATION_CONTEXT ( 3 ) GLOBAL_UNCERTAINTY_ASSIGNED_CONTEXT ( ( #143 ) ) GLOBAL_UNIT_ASSIGNED_CONTEXT ( ( #129, #45, #131 ) ) REPRESENTATION_CONTEXT ( 'NONE', 'WORKASPACE' ) );
#191 =( CONVERSION_BASED_UNIT ( 'INCH', #259 ) LENGTH_UNIT ( ) NAMED_UNIT ( #10 ) );
#192 = ORIENTED_EDGE ( 'NONE', *, *, #50, .T. ) ;
#193 = EDGE_CURVE ( 'NONE', #35, #157, #49, .T. ) ;
#194 = DIRECTION ( 'NONE',  ( 1.000000000000000000, 0.0000000000000000000, 0.0000000000000000000 ) ) ;
#195 = VERTEX_POINT ( 'NONE', #163 ) ;
#196 = DIRECTION ( 'NONE',  ( 1.000000000000000000, 0.0000000000000000000, 0.0000000000000000000 ) ) ;
#197 = EDGE_CURVE ( 'NONE', #78, #202, #251, .T. ) ;
#198 = AXIS2_PLACEMENT_3D ( 'NONE', #4, #24, #276 ) ;
#199 = DIRECTION ( 'NONE',  ( -0.0000000000000000000, -0.0000000000000000000, -1.000000000000000000 ) ) ;
#200 = SURFACE_STYLE_FILL_AREA ( #19 ) ;
#201 = CARTESIAN_POINT ( 'NONE',  ( -0.06250000000000000000, 0.0000000000000000000, 1.500000000000000222 ) ) ;
#202 = VERTEX_POINT ( 'NONE', #253 ) ;
#203 = CARTESIAN_POINT ( 'NONE',  ( 0.06250000000000000000, 7.654042494670956004E-18, 1.500000000000000222 ) ) ;
#204 = DIRECTION ( 'NONE',  ( 0.0000000000000000000, 0.0000000000000000000, 1.000000000000000000 ) ) ;
#205 = VECTOR ( 'NONE', #199, 39.37007874015748143 ) ;
#206 =( GEOMETRIC_REPRESENTATION_CONTEXT ( 3 ) GLOBAL_UNCERTAINTY_ASSIGNED_CONTEXT ( ( #279 ) ) GLOBAL_UNIT_ASSIGNED_CONTEXT ( ( #191, #122, #188 ) ) REPRESENTATION_CONTEXT ( 'NONE', 'WORKASPACE' ) );
#207 = FACE_OUTER_BOUND ( 'NONE', #264, .T. ) ;
#208 = CARTESIAN_POINT ( 'NONE',  ( 0.04750000000000064587, 6.735557395310482421E-18, 1.500000000000000222 ) ) ;
#209 = LINE ( 'NONE', #203, #68 ) ;
#210 = AXIS2_PLACEMENT_3D ( 'NONE', #298, #27, #5 ) ;
#211 = PRODUCT_DEFINITION_FORMATION_WITH_SPECIFIED_SOURCE ( 'ANY', '', #22, .NOT_KNOWN. ) ;
#212 = APPLICATION_PROTOCOL_DEFINITION ( 'draft international standard', 'automotive_design', 1998, #28 ) ;
#213 =( NAMED_UNIT ( * ) PLANE_ANGLE_UNIT ( ) SI_UNIT ( $, .RADIAN. ) );
#214 = DIRECTION ( 'NONE',  ( -1.224646799147353454E-16, -0.0000000000000000000, -1.000000000000000000 ) ) ;
#215 = ORIENTED_EDGE ( 'NONE', *, *, #94, .T. ) ;
#216 = AXIS2_PLACEMENT_3D ( 'NONE', #184, #274, #228 ) ;
#217 = DIRECTION ( 'NONE',  ( -1.000000000000000000, 0.0000000000000000000, 0.0000000000000000000 ) ) ;
#218 = DIRECTION ( 'NONE',  ( -1.000000000000000000, 0.0000000000000000000, 0.0000000000000000000 ) ) ;
#219 = EDGE_CURVE ( 'NONE', #78, #195, #271, .T. ) ;
#220 = SHAPE_DEFINITION_REPRESENTATION ( #51, #1 ) ;
#221 = FACE_OUTER_BOUND ( 'NONE', #295, .T. ) ;
#222 = ORIENTED_EDGE ( 'NONE', *, *, #275, .T. ) ;
#223 = PRODUCT_CONTEXT ( 'NONE', #28, 'mechanical' ) ;
#224 = DIRECTION ( 'NONE',  ( -1.000000000000000000, 0.0000000000000000000, 1.224646799147353454E-16 ) ) ;
#225 = STYLED_ITEM ( 'NONE', ( #178 ), #83 ) ;
#226 = CARTESIAN_POINT ( 'NONE',  ( 0.04750000000000064587, 5.817072295950006528E-18, 1.500000000000000222 ) ) ;
#227 = CARTESIAN_POINT ( 'NONE',  ( 0.0000000000000000000, 0.0000000000000000000, 1.500000000000000222 ) ) ;
#228 = DIRECTION ( 'NONE',  ( -1.000000000000000000, 0.0000000000000000000, 0.0000000000000000000 ) ) ;
#229 = CIRCLE ( 'NONE', #233, 0.04685310000000000169 ) ;
#230 = FACE_OUTER_BOUND ( 'NONE', #282, .T. ) ;
#231 = CYLINDRICAL_SURFACE ( 'NONE', #104, 0.04685310000000000169 ) ;
#232 = AXIS2_PLACEMENT_3D ( 'NONE', #133, #14, #294 ) ;
#233 = AXIS2_PLACEMENT_3D ( 'NONE', #87, #266, #224 ) ;
#234 = FACE_OUTER_BOUND ( 'NONE', #152, .T. ) ;
#235 = ORIENTED_EDGE ( 'NONE', *, *, #98, .F. ) ;
#236 = SURFACE_STYLE_FILL_AREA ( #77 ) ;
#237 = ORIENTED_EDGE ( 'NONE', *, *, #292, .F. ) ;
#238 = FILL_AREA_STYLE_COLOUR ( '', #128 ) ;
#239 = ORIENTED_EDGE ( 'NONE', *, *, #174, .T. ) ;
#240 = LENGTH_MEASURE_WITH_UNIT ( LENGTH_MEASURE( 0.02539999999999999897 ), #8 );
#241 = EDGE_LOOP ( 'NONE', ( #33, #76, #108, #145 ) ) ;
#242 = ORIENTED_EDGE ( 'NONE', *, *, #246, .F. ) ;
#243 = CARTESIAN_POINT ( 'NONE',  ( 0.0000000000000000000, 0.0000000000000000000, 0.0000000000000000000 ) ) ;
#244 = VERTEX_POINT ( 'NONE', #208 ) ;
#245 = FACE_OUTER_BOUND ( 'NONE', #102, .T. ) ;
#246 = EDGE_CURVE ( 'NONE', #125, #88, #111, .T. ) ;
#247 = CARTESIAN_POINT ( 'NONE',  ( 0.0000000000000000000, 0.0000000000000000000, 0.0000000000000000000 ) ) ;
#248 = ORIENTED_EDGE ( 'NONE', *, *, #116, .F. ) ;
#249 = AXIS2_PLACEMENT_3D ( 'NONE', #110, #268, #130 ) ;
#250 = EDGE_CURVE ( 'NONE', #287, #171, #209, .T. ) ;
#251 = LINE ( 'NONE', #114, #47 ) ;
#252 = CARTESIAN_POINT ( 'NONE',  ( -0.04750000000000064587, 0.0000000000000000000, 1.500000000000000222 ) ) ;
#253 = CARTESIAN_POINT ( 'NONE',  ( -0.04685310000000000169, 0.0000000000000000000, 1.147569978902617334E-17 ) ) ;
#254 = CIRCLE ( 'NONE', #262, 0.06250000000000000000 ) ;
#255 = CARTESIAN_POINT ( 'NONE',  ( 0.04685310000000000169, 5.737849894513085128E-18, -5.737849894513086668E-18 ) ) ;
#256 = ADVANCED_FACE ( 'NONE', ( #89 ), #85, .T. ) ;
#257 = CARTESIAN_POINT ( 'NONE',  ( 0.04685310000000000169, 5.737849894513085128E-18, 0.0000000000000000000 ) ) ;
#258 = CARTESIAN_POINT ( 'NONE',  ( 0.0000000000000000000, 0.0000000000000000000, 1.500000000000000222 ) ) ;
#259 = LENGTH_MEASURE_WITH_UNIT ( LENGTH_MEASURE( 0.02539999999999999897 ), #39 );
#260 = CYLINDRICAL_SURFACE ( 'NONE', #58, 0.06250000000000000000 ) ;
#261 = ORIENTED_EDGE ( 'NONE', *, *, #219, .T. ) ;
#262 = AXIS2_PLACEMENT_3D ( 'NONE', #120, #142, #194 ) ;
#263 =( NAMED_UNIT ( * ) SI_UNIT ( $, .STERADIAN. ) SOLID_ANGLE_UNIT ( ) );
#264 = EDGE_LOOP ( 'NONE', ( #121, #147 ) ) ;
#265 = ORIENTED_EDGE ( 'NONE', *, *, #250, .F. ) ;
#266 = DIRECTION ( 'NONE',  ( -1.224646799147353454E-16, -0.0000000000000000000, -1.000000000000000000 ) ) ;
#267 = CIRCLE ( 'NONE', #100, 0.06250000000000000000 ) ;
#268 = DIRECTION ( 'NONE',  ( 1.224646799147353454E-16, 0.0000000000000000000, 1.000000000000000000 ) ) ;
#269 = SURFACE_SIDE_STYLE ('',( #200 ) ) ;
#270 = CIRCLE ( 'NONE', #141, 0.04685310000000000863 ) ;
#271 = LINE ( 'NONE', #165, #90 ) ;
#272 = EDGE_CURVE ( 'NONE', #171, #195, #254, .T. ) ;
#273 = LINE ( 'NONE', #69, #79 ) ;
#274 = DIRECTION ( 'NONE',  ( 0.0000000000000000000, 0.0000000000000000000, -1.000000000000000000 ) ) ;
#275 = EDGE_CURVE ( 'NONE', #195, #171, #123, .T. ) ;
#276 = DIRECTION ( 'NONE',  ( 1.000000000000000000, 0.0000000000000000000, -0.0000000000000000000 ) ) ;
#277 = PRESENTATION_LAYER_ASSIGNMENT (  '', '', ( #225 ) ) ;
#278 = DIRECTION ( 'NONE',  ( -1.000000000000000000, 0.0000000000000000000, 1.224646799147353454E-16 ) ) ;
#279 = UNCERTAINTY_MEASURE_WITH_UNIT (LENGTH_MEASURE( 1.000000000000000082E-05 ), #191, 'distance_accuracy_value', 'NONE');
#280 = ORIENTED_EDGE ( 'NONE', *, *, #189, .F. ) ;
#281 = ADVANCED_FACE ( 'NONE', ( #234 ), #260, .T. ) ;
#282 = EDGE_LOOP ( 'NONE', ( #63, #127, #289, #18 ) ) ;
#283 = CONICAL_SURFACE ( 'NONE', #149, 0.04685310000000000863, 0.1745329251994339192 ) ;
#284 = PRESENTATION_STYLE_ASSIGNMENT (( #34 ) ) ;
#285 = ORIENTED_EDGE ( 'NONE', *, *, #81, .F. ) ;
#286 = CARTESIAN_POINT ( 'NONE',  ( 2.302335982397024786E-17, 0.0000000000000000000, 0.1880000000000000282 ) ) ;
#287 = VERTEX_POINT ( 'NONE', #101 ) ;
#288 = EDGE_CURVE ( 'NONE', #125, #78, #270, .T. ) ;
#289 = ORIENTED_EDGE ( 'NONE', *, *, #46, .F. ) ;
#290 = ORIENTED_EDGE ( 'NONE', *, *, #189, .T. ) ;
#291 =( LENGTH_UNIT ( ) NAMED_UNIT ( * ) SI_UNIT ( $, .METRE. ) );
#292 = EDGE_CURVE ( 'NONE', #78, #125, #164, .T. ) ;
#293 = DIRECTION ( 'NONE',  ( 1.000000000000000000, 0.0000000000000000000, 0.0000000000000000000 ) ) ;
#294 = DIRECTION ( 'NONE',  ( -1.000000000000000000, 0.0000000000000000000, 0.0000000000000000000 ) ) ;
#295 = EDGE_LOOP ( 'NONE', ( #242, #48, #41, #124 ) ) ;
#296 = DIRECTION ( 'NONE',  ( -0.0000000000000000000, -0.0000000000000000000, -1.000000000000000000 ) ) ;
#297 = CONICAL_SURFACE ( 'NONE', #216, 0.04750000000000064587, 0.7853981633974457255 ) ;
#298 = CARTESIAN_POINT ( 'NONE',  ( 0.0000000000000000000, 0.0000000000000000000, 0.0000000000000000000 ) ) ;
#299 = MECHANICAL_DESIGN_GEOMETRIC_PRESENTATION_REPRESENTATION (  '', ( #6 ), #206 ) ;
ENDSEC;
END-ISO-10303-21;
