ISO-10303-21;
HEADER;
FILE_DESCRIPTION (( 'STEP AP214' ),
    '1' );
FILE_NAME ('59648.STEP',
    '2023-07-24T15:19:14',
    ( '' ),
    ( '' ),
    'SwSTEP 2.0',
    'SolidWorks 2023',
    '' );
FILE_SCHEMA (( 'AUTOMOTIVE_DESIGN' ));
ENDSEC;

DATA;
#1 = DIRECTION ( 'NONE',  ( 1.000000000000000000, 0.000000000000000000, 0.000000000000000000 ) ) ;
#2 =( NAMED_UNIT ( * ) SI_UNIT ( $, .STERADIAN. ) SOLID_ANGLE_UNIT ( ) );
#3 = ADVANCED_FACE ( 'NONE', ( #200 ), #171, .T. ) ;
#4 = MECHANICAL_DESIGN_GEOMETRIC_PRESENTATION_REPRESENTATION (  '', ( #292 ), #325 ) ;
#5 = FILL_AREA_STYLE ('',( #37 ) ) ;
#6 = ORIENTED_EDGE ( 'NONE', *, *, #114, .F. ) ;
#7 = LINE ( 'NONE', #288, #46 ) ;
#8 = DIRECTION ( 'NONE',  ( 0.000000000000000000, 0.000000000000000000, -1.000000000000000000 ) ) ;
#9 =( NAMED_UNIT ( * ) SI_UNIT ( $, .STERADIAN. ) SOLID_ANGLE_UNIT ( ) );
#10 =( NAMED_UNIT ( * ) SI_UNIT ( $, .STERADIAN. ) SOLID_ANGLE_UNIT ( ) );
#11 =( NAMED_UNIT ( * ) SI_UNIT ( $, .STERADIAN. ) SOLID_ANGLE_UNIT ( ) );
#12 = PRESENTATION_STYLE_ASSIGNMENT (( #61 ) ) ;
#13 = EDGE_CURVE ( 'NONE', #32, #335, #283, .T. ) ;
#14 = DIRECTION ( 'NONE',  ( -1.224646799147353454E-16, 0.000000000000000000, -1.000000000000000000 ) ) ;
#15 = SURFACE_STYLE_USAGE ( .BOTH. , #275 ) ;
#16 = MECHANICAL_DESIGN_GEOMETRIC_PRESENTATION_REPRESENTATION (  '', ( #332 ), #346 ) ;
#17 = SURFACE_SIDE_STYLE ('',( #100 ) ) ;
#18 = VERTEX_POINT ( 'NONE', #26 ) ;
#19 = FILL_AREA_STYLE_COLOUR ( '', #232 ) ;
#20 = PRESENTATION_STYLE_ASSIGNMENT (( #15 ) ) ;
#21 = AXIS2_PLACEMENT_3D ( 'NONE', #347, #54, #134 ) ;
#22 = CARTESIAN_POINT ( 'NONE',  ( 0.000000000000000000, 0.5000000000000000000, 0.000000000000000000 ) ) ;
#23 = UNCERTAINTY_MEASURE_WITH_UNIT (LENGTH_MEASURE( 1.000000000000000082E-05 ), #71, 'distance_accuracy_value', 'NONE');
#24 =( NAMED_UNIT ( * ) SI_UNIT ( $, .STERADIAN. ) SOLID_ANGLE_UNIT ( ) );
#25 = ADVANCED_BREP_SHAPE_REPRESENTATION ( '59648', ( #280, #162, #193 ), #56 ) ;
#26 = CARTESIAN_POINT ( 'NONE',  ( -10.00000000000000355, 89.00000000000000000, 0.000000000000000000 ) ) ;
#27 = EDGE_LOOP ( 'NONE', ( #77, #276, #316, #230 ) ) ;
#28 = VERTEX_POINT ( 'NONE', #67 ) ;
#29 = CARTESIAN_POINT ( 'NONE',  ( 7.589415207398531038E-15, 30.00000000000000000, 0.000000000000000000 ) ) ;
#30 = LINE ( 'NONE', #290, #360 ) ;
#31 = DIRECTION ( 'NONE',  ( -1.000000000000000000, 0.000000000000000000, 0.000000000000000000 ) ) ;
#32 = VERTEX_POINT ( 'NONE', #150 ) ;
#33 = APPLICATION_CONTEXT ( 'automotive_design' ) ;
#34 = CIRCLE ( 'NONE', #209, 10.00000000000000000 ) ;
#35 = MECHANICAL_DESIGN_GEOMETRIC_PRESENTATION_REPRESENTATION (  '', ( #210 ), #241 ) ;
#36 = EDGE_CURVE ( 'NONE', #335, #336, #148, .T. ) ;
#37 = FILL_AREA_STYLE_COLOUR ( '', #277 ) ;
#38 = AXIS2_PLACEMENT_3D ( 'NONE', #96, #354, #207 ) ;
#39 = PRESENTATION_LAYER_ASSIGNMENT (  '', '', ( #247 ) ) ;
#40 = FILL_AREA_STYLE_COLOUR ( '', #231 ) ;
#41 = ORIENTED_EDGE ( 'NONE', *, *, #266, .F. ) ;
#42 = ORIENTED_EDGE ( 'NONE', *, *, #198, .F. ) ;
#43 = EDGE_LOOP ( 'NONE', ( #227, #41 ) ) ;
#44 =( NAMED_UNIT ( * ) SI_UNIT ( $, .STERADIAN. ) SOLID_ANGLE_UNIT ( ) );
#45 = PRESENTATION_LAYER_ASSIGNMENT (  '', '', ( #292 ) ) ;
#46 = VECTOR ( 'NONE', #258, 1000.000000000000000 ) ;
#47 = SURFACE_STYLE_FILL_AREA ( #305 ) ;
#48 = VERTEX_POINT ( 'NONE', #352 ) ;
#49 = DIRECTION ( 'NONE',  ( -0.000000000000000000, -1.000000000000000000, -0.000000000000000000 ) ) ;
#50 = EDGE_LOOP ( 'NONE', ( #345, #111, #73, #358 ) ) ;
#51 =( NAMED_UNIT ( * ) SI_UNIT ( $, .STERADIAN. ) SOLID_ANGLE_UNIT ( ) );
#52 = FACE_OUTER_BOUND ( 'NONE', #142, .T. ) ;
#53 = ADVANCED_FACE ( 'NONE', ( #324 ), #239, .F. ) ;
#54 = DIRECTION ( 'NONE',  ( -0.000000000000000000, -1.000000000000000000, -0.000000000000000000 ) ) ;
#55 = PRESENTATION_LAYER_ASSIGNMENT (  '', '', ( #199 ) ) ;
#56 =( GEOMETRIC_REPRESENTATION_CONTEXT ( 3 ) GLOBAL_UNCERTAINTY_ASSIGNED_CONTEXT ( ( #170 ) ) GLOBAL_UNIT_ASSIGNED_CONTEXT ( ( #82, #321, #57 ) ) REPRESENTATION_CONTEXT ( 'NONE', 'WORKASPACE' ) );
#57 =( NAMED_UNIT ( * ) SI_UNIT ( $, .STERADIAN. ) SOLID_ANGLE_UNIT ( ) );
#58 = CIRCLE ( 'NONE', #98, 10.00000000000000178 ) ;
#59 = CARTESIAN_POINT ( 'NONE',  ( 0.000000000000000000, 0.000000000000000000, -9.500000000000000000 ) ) ;
#60 = CARTESIAN_POINT ( 'NONE',  ( 0.000000000000000000, 0.5000000000000000000, -10.00000000000000000 ) ) ;
#61 = SURFACE_STYLE_USAGE ( .BOTH. , #263 ) ;
#62 = ORIENTED_EDGE ( 'NONE', *, *, #266, .T. ) ;
#63 = PRODUCT_CONTEXT ( 'NONE', #33, 'mechanical' ) ;
#64 = VECTOR ( 'NONE', #282, 1000.000000000000000 ) ;
#65 =( LENGTH_UNIT ( ) NAMED_UNIT ( * ) SI_UNIT ( .MILLI., .METRE. ) );
#66 = SURFACE_STYLE_FILL_AREA ( #123 ) ;
#67 = CARTESIAN_POINT ( 'NONE',  ( 10.00000000000000000, 89.00000000000000000, 1.224646799147353256E-15 ) ) ;
#68 = AXIS2_PLACEMENT_3D ( 'NONE', #311, #348, #253 ) ;
#69 = AXIS2_PLACEMENT_3D ( 'NONE', #22, #133, #249 ) ;
#70 = DIRECTION ( 'NONE',  ( 0.000000000000000000, 0.000000000000000000, -1.000000000000000000 ) ) ;
#71 =( LENGTH_UNIT ( ) NAMED_UNIT ( * ) SI_UNIT ( .MILLI., .METRE. ) );
#72 = PRODUCT_DEFINITION_SHAPE ( 'NONE', 'NONE',  #295 ) ;
#73 = ORIENTED_EDGE ( 'NONE', *, *, #168, .F. ) ;
#74 = FILL_AREA_STYLE ('',( #19 ) ) ;
#75 =( LENGTH_UNIT ( ) NAMED_UNIT ( * ) SI_UNIT ( .MILLI., .METRE. ) );
#76 = PLANE ( 'NONE',  #128 ) ;
#77 = ORIENTED_EDGE ( 'NONE', *, *, #235, .T. ) ;
#78 = AXIS2_PLACEMENT_3D ( 'NONE', #80, #203, #319 ) ;
#79 = AXIS2_PLACEMENT_3D ( 'NONE', #367, #173, #370 ) ;
#80 = CARTESIAN_POINT ( 'NONE',  ( 0.000000000000000000, 0.5000000000000000000, 0.000000000000000000 ) ) ;
#81 = ORIENTED_EDGE ( 'NONE', *, *, #301, .T. ) ;
#82 =( LENGTH_UNIT ( ) NAMED_UNIT ( * ) SI_UNIT ( .MILLI., .METRE. ) );
#83 = SURFACE_STYLE_USAGE ( .BOTH. , #221 ) ;
#84 = SURFACE_SIDE_STYLE ('',( #269 ) ) ;
#85 = ORIENTED_EDGE ( 'NONE', *, *, #124, .F. ) ;
#86 = DIRECTION ( 'NONE',  ( -1.576935716305902603E-16, 1.000000000000000000, -0.000000000000000000 ) ) ;
#87 = COLOUR_RGB ( '',1.000000000000000000, 0.000000000000000000, 0.000000000000000000 ) ;
#88 = STYLED_ITEM ( 'NONE', ( #106 ), #95 ) ;
#89 = DIRECTION ( 'NONE',  ( 0.000000000000000000, 0.000000000000000000, -1.000000000000000000 ) ) ;
#90 = ORIENTED_EDGE ( 'NONE', *, *, #235, .F. ) ;
#91 = DIRECTION ( 'NONE',  ( -1.576935716305902603E-16, 1.000000000000000000, -0.000000000000000000 ) ) ;
#92 = CIRCLE ( 'NONE', #313, 0.5000000000000004441 ) ;
#93 = PRODUCT_RELATED_PRODUCT_CATEGORY ( 'part', '', ( #274 ) ) ;
#94 = FILL_AREA_STYLE_COLOUR ( '', #188 ) ;
#95 = ADVANCED_FACE ( 'NONE', ( #186 ), #293, .T. ) ;
#96 = CARTESIAN_POINT ( 'NONE',  ( 10.00000000000000000, 89.00000000000000000, 0.000000000000000000 ) ) ;
#97 = CARTESIAN_POINT ( 'NONE',  ( 1.163414459189985485E-15, 0.5000000000000000000, 9.500000000000000000 ) ) ;
#98 = AXIS2_PLACEMENT_3D ( 'NONE', #192, #194, #103 ) ;
#99 = MECHANICAL_DESIGN_GEOMETRIC_PRESENTATION_REPRESENTATION (  '', ( #125 ), #304 ) ;
#100 = SURFACE_STYLE_FILL_AREA ( #74 ) ;
#101 = AXIS2_PLACEMENT_3D ( 'NONE', #302, #108, #132 ) ;
#102 = ADVANCED_FACE ( 'NONE', ( #243 ), #330, .T. ) ;
#103 = DIRECTION ( 'NONE',  ( -1.000000000000000000, 0.000000000000000000, 0.000000000000000000 ) ) ;
#104 = ORIENTED_EDGE ( 'NONE', *, *, #357, .T. ) ;
#105 = MECHANICAL_DESIGN_GEOMETRIC_PRESENTATION_REPRESENTATION (  '', ( #199 ), #218 ) ;
#106 = PRESENTATION_STYLE_ASSIGNMENT (( #328 ) ) ;
#107 = PRESENTATION_LAYER_ASSIGNMENT (  '', '', ( #125 ) ) ;
#108 = DIRECTION ( 'NONE',  ( 0.000000000000000000, 1.000000000000000000, 0.000000000000000000 ) ) ;
#109 = DIRECTION ( 'NONE',  ( 0.000000000000000000, 0.000000000000000000, -1.000000000000000000 ) ) ;
#110 = UNCERTAINTY_MEASURE_WITH_UNIT (LENGTH_MEASURE( 1.000000000000000082E-05 ), #75, 'distance_accuracy_value', 'NONE');
#111 = ORIENTED_EDGE ( 'NONE', *, *, #36, .T. ) ;
#112 = DIRECTION ( 'NONE',  ( 0.000000000000000000, 0.000000000000000000, 1.000000000000000000 ) ) ;
#113 = DIRECTION ( 'NONE',  ( -1.000000000000000000, 0.000000000000000000, 0.000000000000000000 ) ) ;
#114 = EDGE_CURVE ( 'NONE', #28, #18, #117, .T. ) ;
#115 = ORIENTED_EDGE ( 'NONE', *, *, #214, .F. ) ;
#116 = CIRCLE ( 'NONE', #245, 9.500000000000000000 ) ;
#117 = CIRCLE ( 'NONE', #312, 10.00000000000000178 ) ;
#118 = PRESENTATION_STYLE_ASSIGNMENT (( #182 ) ) ;
#119 = ORIENTED_EDGE ( 'NONE', *, *, #201, .T. ) ;
#120 =( NAMED_UNIT ( * ) PLANE_ANGLE_UNIT ( ) SI_UNIT ( $, .RADIAN. ) );
#121 = CYLINDRICAL_SURFACE ( 'NONE', #270, 10.00000000000000000 ) ;
#122 = SURFACE_SIDE_STYLE ('',( #294 ) ) ;
#123 = FILL_AREA_STYLE ('',( #237 ) ) ;
#124 = EDGE_CURVE ( 'NONE', #18, #28, #58, .T. ) ;
#125 = STYLED_ITEM ( 'NONE', ( #12 ), #353 ) ;
#126 = CYLINDRICAL_SURFACE ( 'NONE', #68, 10.00000000000000000 ) ;
#127 = ADVANCED_FACE ( 'NONE', ( #213 ), #359, .T. ) ;
#128 = AXIS2_PLACEMENT_3D ( 'NONE', #180, #322, #291 ) ;
#129 = CARTESIAN_POINT ( 'NONE',  ( -1.714505518806293652E-15, 89.00000000000000000, 0.000000000000000000 ) ) ;
#130 = CARTESIAN_POINT ( 'NONE',  ( -1.714505518806293849E-15, 89.00000000000000000, 0.000000000000000000 ) ) ;
#131 = CIRCLE ( 'NONE', #187, 9.999999999999992895 ) ;
#132 = DIRECTION ( 'NONE',  ( 0.000000000000000000, -0.000000000000000000, 1.000000000000000000 ) ) ;
#133 = DIRECTION ( 'NONE',  ( -0.000000000000000000, -1.000000000000000000, -0.000000000000000000 ) ) ;
#134 = DIRECTION ( 'NONE',  ( 0.000000000000000000, 0.000000000000000000, -1.000000000000000000 ) ) ;
#135 = EDGE_CURVE ( 'NONE', #32, #48, #240, .T. ) ;
#136 = DIRECTION ( 'NONE',  ( 0.000000000000000000, 0.000000000000000000, -1.000000000000000000 ) ) ;
#137 = CARTESIAN_POINT ( 'NONE',  ( 1.224646799147353256E-15, 0.000000000000000000, 10.00000000000000000 ) ) ;
#138 = UNCERTAINTY_MEASURE_WITH_UNIT (LENGTH_MEASURE( 1.000000000000000082E-05 ), #65, 'distance_accuracy_value', 'NONE');
#139 = CARTESIAN_POINT ( 'NONE',  ( -10.00000000000000000, 89.00000000000000000, 0.000000000000000000 ) ) ;
#140 = ORIENTED_EDGE ( 'NONE', *, *, #201, .F. ) ;
#141 = FILL_AREA_STYLE_COLOUR ( '', #87 ) ;
#142 = EDGE_LOOP ( 'NONE', ( #157, #119, #260, #42 ) ) ;
#143 =( NAMED_UNIT ( * ) PLANE_ANGLE_UNIT ( ) SI_UNIT ( $, .RADIAN. ) );
#144 = ORIENTED_EDGE ( 'NONE', *, *, #124, .T. ) ;
#145 = CARTESIAN_POINT ( 'NONE',  ( 0.000000000000000000, 0.5000000000000000000, -9.500000000000000000 ) ) ;
#146 = SURFACE_STYLE_USAGE ( .BOTH. , #84 ) ;
#147 = ORIENTED_EDGE ( 'NONE', *, *, #214, .T. ) ;
#148 = CIRCLE ( 'NONE', #202, 0.5000000000000004441 ) ;
#149 = SURFACE_SIDE_STYLE ('',( #267 ) ) ;
#150 = CARTESIAN_POINT ( 'NONE',  ( 1.224646799147353256E-15, 30.00000000000000000, 10.00000000000000000 ) ) ;
#151 = AXIS2_PLACEMENT_3D ( 'NONE', #29, #86, #113 ) ;
#152 = VECTOR ( 'NONE', #306, 1000.000000000000000 ) ;
#153 = FILL_AREA_STYLE ('',( #94 ) ) ;
#154 =( GEOMETRIC_REPRESENTATION_CONTEXT ( 3 ) GLOBAL_UNCERTAINTY_ASSIGNED_CONTEXT ( ( #333 ) ) GLOBAL_UNIT_ASSIGNED_CONTEXT ( ( #369, #255, #2 ) ) REPRESENTATION_CONTEXT ( 'NONE', 'WORKASPACE' ) );
#155 = DIRECTION ( 'NONE',  ( 1.000000000000000000, 0.000000000000000000, -1.224646799147353207E-16 ) ) ;
#156 = FILL_AREA_STYLE ('',( #40 ) ) ;
#157 = ORIENTED_EDGE ( 'NONE', *, *, #36, .F. ) ;
#158 = PRODUCT_DEFINITION_FORMATION_WITH_SPECIFIED_SOURCE ( 'ANY', '', #274, .NOT_KNOWN. ) ;
#159 = DIRECTION ( 'NONE',  ( -1.576935716305902603E-16, 1.000000000000000000, -0.000000000000000000 ) ) ;
#160 = VERTEX_POINT ( 'NONE', #191 ) ;
#161 =( NAMED_UNIT ( * ) PLANE_ANGLE_UNIT ( ) SI_UNIT ( $, .RADIAN. ) );
#162 = MANIFOLD_SOLID_BREP ( 'Revolve - Tool Body (Straight Shanked)', #265 ) ;
#163 = AXIS2_PLACEMENT_3D ( 'NONE', #130, #164, #217 ) ;
#164 = DIRECTION ( 'NONE',  ( -1.576935716305902603E-16, 1.000000000000000000, -0.000000000000000000 ) ) ;
#165 = MECHANICAL_DESIGN_GEOMETRIC_PRESENTATION_REPRESENTATION (  '', ( #88 ), #211 ) ;
#166 = COLOUR_RGB ( '',1.000000000000000000, 0.000000000000000000, 0.000000000000000000 ) ;
#167 = SURFACE_SIDE_STYLE ('',( #47 ) ) ;
#168 = EDGE_CURVE ( 'NONE', #169, #336, #215, .T. ) ;
#169 = VERTEX_POINT ( 'NONE', #59 ) ;
#170 = UNCERTAINTY_MEASURE_WITH_UNIT (LENGTH_MEASURE( 1.000000000000000082E-05 ), #82, 'distance_accuracy_value', 'NONE');
#171 = CYLINDRICAL_SURFACE ( 'NONE', #361, 9.999999999999998224 ) ;
#172 =( LENGTH_UNIT ( ) NAMED_UNIT ( * ) SI_UNIT ( .MILLI., .METRE. ) );
#173 = DIRECTION ( 'NONE',  ( -1.576935716305902603E-16, 1.000000000000000000, 0.000000000000000000 ) ) ;
#174 = SHAPE_DEFINITION_REPRESENTATION ( #72, #25 ) ;
#175 = DIRECTION ( 'NONE',  ( -0.000000000000000000, -1.000000000000000000, -0.000000000000000000 ) ) ;
#176 = ORIENTED_EDGE ( 'NONE', *, *, #168, .T. ) ;
#177 = PRESENTATION_STYLE_ASSIGNMENT (( #83 ) ) ;
#178 = ORIENTED_EDGE ( 'NONE', *, *, #357, .F. ) ;
#179 = DIRECTION ( 'NONE',  ( -0.000000000000000000, -1.000000000000000000, -0.000000000000000000 ) ) ;
#180 = CARTESIAN_POINT ( 'NONE',  ( 0.000000000000000000, 0.000000000000000000, 0.000000000000000000 ) ) ;
#181 = PRESENTATION_LAYER_ASSIGNMENT (  '', '', ( #332 ) ) ;
#182 = SURFACE_STYLE_USAGE ( .BOTH. , #122 ) ;
#183 =( NAMED_UNIT ( * ) PLANE_ANGLE_UNIT ( ) SI_UNIT ( $, .RADIAN. ) );
#184 = APPLICATION_CONTEXT ( 'automotive_design' ) ;
#185 = PRESENTATION_STYLE_ASSIGNMENT (( #349 ) ) ;
#186 = FACE_OUTER_BOUND ( 'NONE', #244, .T. ) ;
#187 = AXIS2_PLACEMENT_3D ( 'NONE', #365, #289, #31 ) ;
#188 = COLOUR_RGB ( '',1.000000000000000000, 0.000000000000000000, 0.000000000000000000 ) ;
#189 = CLOSED_SHELL ( 'NONE', ( #353, #127, #268, #229, #296, #95 ) ) ;
#190 = CIRCLE ( 'NONE', #303, 10.00000000000000000 ) ;
#191 = CARTESIAN_POINT ( 'NONE',  ( 10.00000000000000000, 30.00000000000000000, 1.224646799147353256E-15 ) ) ;
#192 = CARTESIAN_POINT ( 'NONE',  ( -1.714505518806293652E-15, 89.00000000000000000, 0.000000000000000000 ) ) ;
#193 = AXIS2_PLACEMENT_3D ( 'NONE', #340, #112, #1 ) ;
#194 = DIRECTION ( 'NONE',  ( -1.576935716305902603E-16, 1.000000000000000000, -0.000000000000000000 ) ) ;
#195 = FILL_AREA_STYLE_COLOUR ( '', #233 ) ;
#196 = CARTESIAN_POINT ( 'NONE',  ( 0.000000000000000000, 0.000000000000000000, 0.000000000000000000 ) ) ;
#197 = ORIENTED_EDGE ( 'NONE', *, *, #135, .F. ) ;
#198 = EDGE_CURVE ( 'NONE', #336, #169, #116, .T. ) ;
#199 = STYLED_ITEM ( 'NONE', ( #228 ), #162 ) ;
#200 = FACE_OUTER_BOUND ( 'NONE', #287, .T. ) ;
#201 = EDGE_CURVE ( 'NONE', #335, #257, #190, .T. ) ;
#202 = AXIS2_PLACEMENT_3D ( 'NONE', #97, #155, #14 ) ;
#203 = DIRECTION ( 'NONE',  ( -0.000000000000000000, -1.000000000000000000, -0.000000000000000000 ) ) ;
#204 = ORIENTED_EDGE ( 'NONE', *, *, #13, .F. ) ;
#205 =( NAMED_UNIT ( * ) PLANE_ANGLE_UNIT ( ) SI_UNIT ( $, .RADIAN. ) );
#206 = FACE_OUTER_BOUND ( 'NONE', #27, .T. ) ;
#207 = DIRECTION ( 'NONE',  ( 1.000000000000000000, 1.576935716305902603E-16, 0.000000000000000000 ) ) ;
#208 = FACE_OUTER_BOUND ( 'NONE', #285, .T. ) ;
#209 = AXIS2_PLACEMENT_3D ( 'NONE', #251, #368, #89 ) ;
#210 = STYLED_ITEM ( 'NONE', ( #185 ), #296 ) ;
#211 =( GEOMETRIC_REPRESENTATION_CONTEXT ( 3 ) GLOBAL_UNCERTAINTY_ASSIGNED_CONTEXT ( ( #23 ) ) GLOBAL_UNIT_ASSIGNED_CONTEXT ( ( #71, #161, #44 ) ) REPRESENTATION_CONTEXT ( 'NONE', 'WORKASPACE' ) );
#212 = FILL_AREA_STYLE_COLOUR ( '', #166 ) ;
#213 = FACE_OUTER_BOUND ( 'NONE', #50, .T. ) ;
#214 = EDGE_CURVE ( 'NONE', #366, #18, #256, .T. ) ;
#215 = CIRCLE ( 'NONE', #341, 9.500000000000000000 ) ;
#216 = CIRCLE ( 'NONE', #21, 10.00000000000000000 ) ;
#217 = DIRECTION ( 'NONE',  ( -1.000000000000000000, 0.000000000000000000, 0.000000000000000000 ) ) ;
#218 =( GEOMETRIC_REPRESENTATION_CONTEXT ( 3 ) GLOBAL_UNCERTAINTY_ASSIGNED_CONTEXT ( ( #286 ) ) GLOBAL_UNIT_ASSIGNED_CONTEXT ( ( #172, #143, #24 ) ) REPRESENTATION_CONTEXT ( 'NONE', 'WORKASPACE' ) );
#219 = ORIENTED_EDGE ( 'NONE', *, *, #344, .T. ) ;
#220 =( NAMED_UNIT ( * ) PLANE_ANGLE_UNIT ( ) SI_UNIT ( $, .RADIAN. ) );
#221 = SURFACE_SIDE_STYLE ('',( #343 ) ) ;
#222 = EDGE_LOOP ( 'NONE', ( #144, #309 ) ) ;
#223 = STYLED_ITEM ( 'NONE', ( #177 ), #229 ) ;
#224 = ORIENTED_EDGE ( 'NONE', *, *, #198, .T. ) ;
#225 = APPLICATION_PROTOCOL_DEFINITION ( 'draft international standard', 'automotive_design', 1998, #184 ) ;
#226 = DIRECTION ( 'NONE',  ( -0.000000000000000000, -1.000000000000000000, -0.000000000000000000 ) ) ;
#227 = ORIENTED_EDGE ( 'NONE', *, *, #344, .F. ) ;
#228 = PRESENTATION_STYLE_ASSIGNMENT (( #146 ) ) ;
#229 = ADVANCED_FACE ( 'NONE', ( #52 ), #362, .T. ) ;
#230 = ORIENTED_EDGE ( 'NONE', *, *, #301, .F. ) ;
#231 = COLOUR_RGB ( '',0.7921568627450980005, 0.8196078431372548767, 0.9333333333333333481 ) ;
#232 = COLOUR_RGB ( '',1.000000000000000000, 0.000000000000000000, 0.000000000000000000 ) ;
#233 = COLOUR_RGB ( '',1.000000000000000000, 0.000000000000000000, 0.000000000000000000 ) ;
#234 =( LENGTH_UNIT ( ) NAMED_UNIT ( * ) SI_UNIT ( .MILLI., .METRE. ) );
#235 = EDGE_CURVE ( 'NONE', #48, #32, #34, .T. ) ;
#236 = DIRECTION ( 'NONE',  ( -1.576935716305902603E-16, 1.000000000000000000, -0.000000000000000000 ) ) ;
#237 = FILL_AREA_STYLE_COLOUR ( '', #298 ) ;
#238 = PRESENTATION_STYLE_ASSIGNMENT (( #279 ) ) ;
#239 = PLANE ( 'NONE',  #38 ) ;
#240 = CIRCLE ( 'NONE', #278, 10.00000000000000000 ) ;
#241 =( GEOMETRIC_REPRESENTATION_CONTEXT ( 3 ) GLOBAL_UNCERTAINTY_ASSIGNED_CONTEXT ( ( #310 ) ) GLOBAL_UNIT_ASSIGNED_CONTEXT ( ( #234, #205, #9 ) ) REPRESENTATION_CONTEXT ( 'NONE', 'WORKASPACE' ) );
#242 = DIRECTION ( 'NONE',  ( -1.000000000000000000, 0.000000000000000000, 0.000000000000000000 ) ) ;
#243 = FACE_OUTER_BOUND ( 'NONE', #248, .T. ) ;
#244 = EDGE_LOOP ( 'NONE', ( #90, #197 ) ) ;
#245 = AXIS2_PLACEMENT_3D ( 'NONE', #196, #226, #109 ) ;
#246 = DIRECTION ( 'NONE',  ( -0.000000000000000000, -1.000000000000000000, -0.000000000000000000 ) ) ;
#247 = STYLED_ITEM ( 'NONE', ( #20 ), #127 ) ;
#248 = EDGE_LOOP ( 'NONE', ( #178, #62, #147, #6 ) ) ;
#249 = DIRECTION ( 'NONE',  ( 0.000000000000000000, 0.000000000000000000, -1.000000000000000000 ) ) ;
#250 = CARTESIAN_POINT ( 'NONE',  ( 1.194030629168669469E-15, 0.000000000000000000, 9.500000000000000000 ) ) ;
#251 = CARTESIAN_POINT ( 'NONE',  ( 0.000000000000000000, 30.00000000000000000, 0.000000000000000000 ) ) ;
#252 = CARTESIAN_POINT ( 'NONE',  ( 1.224646799147353256E-15, 0.5000000000000000000, 10.00000000000000000 ) ) ;
#253 = DIRECTION ( 'NONE',  ( 0.000000000000000000, 0.000000000000000000, -1.000000000000000000 ) ) ;
#254 = UNCERTAINTY_MEASURE_WITH_UNIT (LENGTH_MEASURE( 1.000000000000000082E-05 ), #364, 'distance_accuracy_value', 'NONE');
#255 =( NAMED_UNIT ( * ) PLANE_ANGLE_UNIT ( ) SI_UNIT ( $, .RADIAN. ) );
#256 = LINE ( 'NONE', #139, #64 ) ;
#257 = VERTEX_POINT ( 'NONE', #60 ) ;
#258 = DIRECTION ( 'NONE',  ( -0.000000000000000000, -1.000000000000000000, -0.000000000000000000 ) ) ;
#259 =( NAMED_UNIT ( * ) PLANE_ANGLE_UNIT ( ) SI_UNIT ( $, .RADIAN. ) );
#260 = ORIENTED_EDGE ( 'NONE', *, *, #308, .T. ) ;
#261 = CIRCLE ( 'NONE', #151, 9.999999999999992895 ) ;
#262 = APPLICATION_PROTOCOL_DEFINITION ( 'draft international standard', 'automotive_design', 1998, #33 ) ;
#263 = SURFACE_SIDE_STYLE ('',( #66 ) ) ;
#264 = MECHANICAL_DESIGN_GEOMETRIC_PRESENTATION_REPRESENTATION (  '', ( #223 ), #154 ) ;
#265 = CLOSED_SHELL ( 'NONE', ( #3, #342, #102, #53 ) ) ;
#266 = EDGE_CURVE ( 'NONE', #160, #366, #131, .T. ) ;
#267 = SURFACE_STYLE_FILL_AREA ( #153 ) ;
#268 = ADVANCED_FACE ( 'NONE', ( #331 ), #76, .T. ) ;
#269 = SURFACE_STYLE_FILL_AREA ( #156 ) ;
#270 = AXIS2_PLACEMENT_3D ( 'NONE', #318, #179, #8 ) ;
#271 = SURFACE_STYLE_FILL_AREA ( #356 ) ;
#272 =( NAMED_UNIT ( * ) SI_UNIT ( $, .STERADIAN. ) SOLID_ANGLE_UNIT ( ) );
#273 = EDGE_LOOP ( 'NONE', ( #176, #224 ) ) ;
#274 = PRODUCT ( '59648', '59648', '', ( #63 ) ) ;
#275 = SURFACE_SIDE_STYLE ('',( #271 ) ) ;
#276 = ORIENTED_EDGE ( 'NONE', *, *, #13, .T. ) ;
#277 = COLOUR_RGB ( '',0.7921568627450980005, 0.8196078431372548767, 0.9333333333333333481 ) ;
#278 = AXIS2_PLACEMENT_3D ( 'NONE', #327, #246, #70 ) ;
#279 = SURFACE_STYLE_USAGE ( .BOTH. , #167 ) ;
#280 = MANIFOLD_SOLID_BREP ( 'Revolve - Cutting Edge', #189 ) ;
#281 = UNCERTAINTY_MEASURE_WITH_UNIT (LENGTH_MEASURE( 1.000000000000000082E-05 ), #323, 'distance_accuracy_value', 'NONE');
#282 = DIRECTION ( 'NONE',  ( -1.576935716305902603E-16, 1.000000000000000000, -0.000000000000000000 ) ) ;
#283 = LINE ( 'NONE', #137, #152 ) ;
#284 = CARTESIAN_POINT ( 'NONE',  ( 0.000000000000000000, 0.5000000000000000000, 0.000000000000000000 ) ) ;
#285 = EDGE_LOOP ( 'NONE', ( #204, #339, #81, #140 ) ) ;
#286 = UNCERTAINTY_MEASURE_WITH_UNIT (LENGTH_MEASURE( 1.000000000000000082E-05 ), #172, 'distance_accuracy_value', 'NONE');
#287 = EDGE_LOOP ( 'NONE', ( #219, #104, #85, #115 ) ) ;
#288 = CARTESIAN_POINT ( 'NONE',  ( 0.000000000000000000, 0.000000000000000000, -10.00000000000000000 ) ) ;
#289 = DIRECTION ( 'NONE',  ( -1.576935716305902603E-16, 1.000000000000000000, -0.000000000000000000 ) ) ;
#290 = CARTESIAN_POINT ( 'NONE',  ( 9.999999999999996447, 89.00000000000000000, 1.224646799147353059E-15 ) ) ;
#291 = DIRECTION ( 'NONE',  ( 0.000000000000000000, 0.000000000000000000, -1.000000000000000000 ) ) ;
#292 = STYLED_ITEM ( 'NONE', ( #238 ), #268 ) ;
#293 = PLANE ( 'NONE',  #101 ) ;
#294 = SURFACE_STYLE_FILL_AREA ( #5 ) ;
#295 = PRODUCT_DEFINITION ( 'UNKNOWN', '', #158, #315 ) ;
#296 = ADVANCED_FACE ( 'NONE', ( #208 ), #126, .T. ) ;
#297 = PRESENTATION_LAYER_ASSIGNMENT (  '', '', ( #223 ) ) ;
#298 = COLOUR_RGB ( '',1.000000000000000000, 0.000000000000000000, 0.000000000000000000 ) ;
#299 = PRESENTATION_LAYER_ASSIGNMENT (  '', '', ( #88 ) ) ;
#300 = CARTESIAN_POINT ( 'NONE',  ( 0.000000000000000000, 0.000000000000000000, 0.000000000000000000 ) ) ;
#301 = EDGE_CURVE ( 'NONE', #48, #257, #7, .T. ) ;
#302 = CARTESIAN_POINT ( 'NONE',  ( 0.000000000000000000, 30.00000000000000000, 0.000000000000000000 ) ) ;
#303 = AXIS2_PLACEMENT_3D ( 'NONE', #284, #49, #136 ) ;
#304 =( GEOMETRIC_REPRESENTATION_CONTEXT ( 3 ) GLOBAL_UNCERTAINTY_ASSIGNED_CONTEXT ( ( #254 ) ) GLOBAL_UNIT_ASSIGNED_CONTEXT ( ( #364, #259, #51 ) ) REPRESENTATION_CONTEXT ( 'NONE', 'WORKASPACE' ) );
#305 = FILL_AREA_STYLE ('',( #195 ) ) ;
#306 = DIRECTION ( 'NONE',  ( -0.000000000000000000, -1.000000000000000000, -0.000000000000000000 ) ) ;
#307 = DIRECTION ( 'NONE',  ( -1.000000000000000000, 0.000000000000000000, 0.000000000000000000 ) ) ;
#308 = EDGE_CURVE ( 'NONE', #257, #169, #92, .T. ) ;
#309 = ORIENTED_EDGE ( 'NONE', *, *, #114, .T. ) ;
#310 = UNCERTAINTY_MEASURE_WITH_UNIT (LENGTH_MEASURE( 1.000000000000000082E-05 ), #234, 'distance_accuracy_value', 'NONE');
#311 = CARTESIAN_POINT ( 'NONE',  ( 0.000000000000000000, 0.000000000000000000, 0.000000000000000000 ) ) ;
#312 = AXIS2_PLACEMENT_3D ( 'NONE', #129, #159, #242 ) ;
#313 = AXIS2_PLACEMENT_3D ( 'NONE', #145, #307, #337 ) ;
#314 = FILL_AREA_STYLE ('',( #141 ) ) ;
#315 = PRODUCT_DEFINITION_CONTEXT ( 'detailed design', #184, 'design' ) ;
#316 = ORIENTED_EDGE ( 'NONE', *, *, #329, .F. ) ;
#317 = PLANE ( 'NONE',  #79 ) ;
#318 = CARTESIAN_POINT ( 'NONE',  ( 0.000000000000000000, 0.000000000000000000, 0.000000000000000000 ) ) ;
#319 = DIRECTION ( 'NONE',  ( 0.000000000000000000, 0.000000000000000000, -1.000000000000000000 ) ) ;
#320 = CARTESIAN_POINT ( 'NONE',  ( -1.714505518806293849E-15, 89.00000000000000000, 0.000000000000000000 ) ) ;
#321 =( NAMED_UNIT ( * ) PLANE_ANGLE_UNIT ( ) SI_UNIT ( $, .RADIAN. ) );
#322 = DIRECTION ( 'NONE',  ( 0.000000000000000000, -1.000000000000000000, -0.000000000000000000 ) ) ;
#323 =( LENGTH_UNIT ( ) NAMED_UNIT ( * ) SI_UNIT ( .MILLI., .METRE. ) );
#324 = FACE_OUTER_BOUND ( 'NONE', #222, .T. ) ;
#325 =( GEOMETRIC_REPRESENTATION_CONTEXT ( 3 ) GLOBAL_UNCERTAINTY_ASSIGNED_CONTEXT ( ( #281 ) ) GLOBAL_UNIT_ASSIGNED_CONTEXT ( ( #323, #120, #10 ) ) REPRESENTATION_CONTEXT ( 'NONE', 'WORKASPACE' ) );
#326 =( GEOMETRIC_REPRESENTATION_CONTEXT ( 3 ) GLOBAL_UNCERTAINTY_ASSIGNED_CONTEXT ( ( #110 ) ) GLOBAL_UNIT_ASSIGNED_CONTEXT ( ( #75, #220, #272 ) ) REPRESENTATION_CONTEXT ( 'NONE', 'WORKASPACE' ) );
#327 = CARTESIAN_POINT ( 'NONE',  ( 0.000000000000000000, 30.00000000000000000, 0.000000000000000000 ) ) ;
#328 = SURFACE_STYLE_USAGE ( .BOTH. , #17 ) ;
#329 = EDGE_CURVE ( 'NONE', #257, #335, #216, .T. ) ;
#330 = CYLINDRICAL_SURFACE ( 'NONE', #163, 9.999999999999998224 ) ;
#331 = FACE_OUTER_BOUND ( 'NONE', #273, .T. ) ;
#332 = STYLED_ITEM ( 'NONE', ( #118 ), #280 ) ;
#333 = UNCERTAINTY_MEASURE_WITH_UNIT (LENGTH_MEASURE( 1.000000000000000082E-05 ), #369, 'distance_accuracy_value', 'NONE');
#334 = DIRECTION ( 'NONE',  ( 0.000000000000000000, 0.000000000000000000, -1.000000000000000000 ) ) ;
#335 = VERTEX_POINT ( 'NONE', #252 ) ;
#336 = VERTEX_POINT ( 'NONE', #250 ) ;
#337 = DIRECTION ( 'NONE',  ( 0.000000000000000000, 0.000000000000000000, 1.000000000000000000 ) ) ;
#338 = CARTESIAN_POINT ( 'NONE',  ( -9.999999999999985789, 30.00000000000000000, 0.000000000000000000 ) ) ;
#339 = ORIENTED_EDGE ( 'NONE', *, *, #135, .T. ) ;
#340 = CARTESIAN_POINT ( 'NONE',  ( 0.000000000000000000, 0.000000000000000000, 0.000000000000000000 ) ) ;
#341 = AXIS2_PLACEMENT_3D ( 'NONE', #300, #175, #334 ) ;
#342 = ADVANCED_FACE ( 'NONE', ( #363 ), #317, .F. ) ;
#343 = SURFACE_STYLE_FILL_AREA ( #314 ) ;
#344 = EDGE_CURVE ( 'NONE', #366, #160, #261, .T. ) ;
#345 = ORIENTED_EDGE ( 'NONE', *, *, #329, .T. ) ;
#346 =( GEOMETRIC_REPRESENTATION_CONTEXT ( 3 ) GLOBAL_UNCERTAINTY_ASSIGNED_CONTEXT ( ( #138 ) ) GLOBAL_UNIT_ASSIGNED_CONTEXT ( ( #65, #183, #11 ) ) REPRESENTATION_CONTEXT ( 'NONE', 'WORKASPACE' ) );
#347 = CARTESIAN_POINT ( 'NONE',  ( 0.000000000000000000, 0.5000000000000000000, 0.000000000000000000 ) ) ;
#348 = DIRECTION ( 'NONE',  ( -0.000000000000000000, -1.000000000000000000, -0.000000000000000000 ) ) ;
#349 = SURFACE_STYLE_USAGE ( .BOTH. , #149 ) ;
#350 = DIRECTION ( 'NONE',  ( -1.000000000000000000, 0.000000000000000000, 0.000000000000000000 ) ) ;
#351 = PRESENTATION_LAYER_ASSIGNMENT (  '', '', ( #210 ) ) ;
#352 = CARTESIAN_POINT ( 'NONE',  ( 0.000000000000000000, 30.00000000000000000, -10.00000000000000000 ) ) ;
#353 = ADVANCED_FACE ( 'NONE', ( #206 ), #121, .T. ) ;
#354 = DIRECTION ( 'NONE',  ( 1.576935716305902603E-16, -1.000000000000000000, 0.000000000000000000 ) ) ;
#355 = MECHANICAL_DESIGN_GEOMETRIC_PRESENTATION_REPRESENTATION (  '', ( #247 ), #326 ) ;
#356 = FILL_AREA_STYLE ('',( #212 ) ) ;
#357 = EDGE_CURVE ( 'NONE', #160, #28, #30, .T. ) ;
#358 = ORIENTED_EDGE ( 'NONE', *, *, #308, .F. ) ;
#359 = TOROIDAL_SURFACE ( 'NONE', #69, 9.500000000000000000, 0.5000000000000002220 ) ;
#360 = VECTOR ( 'NONE', #91, 1000.000000000000000 ) ;
#361 = AXIS2_PLACEMENT_3D ( 'NONE', #320, #236, #350 ) ;
#362 = TOROIDAL_SURFACE ( 'NONE', #78, 9.500000000000000000, 0.5000000000000002220 ) ;
#363 = FACE_OUTER_BOUND ( 'NONE', #43, .T. ) ;
#364 =( LENGTH_UNIT ( ) NAMED_UNIT ( * ) SI_UNIT ( .MILLI., .METRE. ) );
#365 = CARTESIAN_POINT ( 'NONE',  ( 7.589415207398531038E-15, 30.00000000000000000, 0.000000000000000000 ) ) ;
#366 = VERTEX_POINT ( 'NONE', #338 ) ;
#367 = CARTESIAN_POINT ( 'NONE',  ( 7.589415207398531038E-15, 30.00000000000000000, 0.000000000000000000 ) ) ;
#368 = DIRECTION ( 'NONE',  ( -0.000000000000000000, -1.000000000000000000, -0.000000000000000000 ) ) ;
#369 =( LENGTH_UNIT ( ) NAMED_UNIT ( * ) SI_UNIT ( .MILLI., .METRE. ) );
#370 = DIRECTION ( 'NONE',  ( -1.000000000000000000, -1.576935716305902603E-16, 0.000000000000000000 ) ) ;
ENDSEC;
END-ISO-10303-21;
