ISO-10303-21;
HEADER;
FILE_DESCRIPTION (( 'STEP AP214' ),
    '1' );
FILE_NAME ('03602.STEP',
    '2023-06-22T15:31:52',
    ( '' ),
    ( '' ),
    'SwSTEP 2.0',
    'SolidWorks 2023',
    '' );
FILE_SCHEMA (( 'AUTOMOTIVE_DESIGN' ));
ENDSEC;

DATA;
#1 = EDGE_CURVE ( 'NONE', #28, #300, #267, .T. ) ;
#2 = FACE_OUTER_BOUND ( 'NONE', #244, .T. ) ;
#3 = ORIENTED_EDGE ( 'NONE', *, *, #29, .T. ) ;
#4 = AXIS2_PLACEMENT_3D ( 'NONE', #69, #145, #240 ) ;
#5 = AXIS2_PLACEMENT_3D ( 'NONE', #308, #103, #72 ) ;
#6 = SURFACE_STYLE_FILL_AREA ( #213 ) ;
#7 = EDGE_LOOP ( 'NONE', ( #271, #54 ) ) ;
#8 = ORIENTED_EDGE ( 'NONE', *, *, #83, .F. ) ;
#9 =( GEOMETRIC_REPRESENTATION_CONTEXT ( 3 ) GLOBAL_UNCERTAINTY_ASSIGNED_CONTEXT ( ( #199 ) ) GLOBAL_UNIT_ASSIGNED_CONTEXT ( ( #299, #178, #224 ) ) REPRESENTATION_CONTEXT ( 'NONE', 'WORKASPACE' ) );
#10 = LINE ( 'NONE', #259, #251 ) ;
#11 = PRESENTATION_LAYER_ASSIGNMENT (  '', '', ( #34 ) ) ;
#12 = CARTESIAN_POINT ( 'NONE',  ( -0.3125000000000002776, 5.000000000000000000, 0.000000000000000000 ) ) ;
#13 =( NAMED_UNIT ( * ) PLANE_ANGLE_UNIT ( ) SI_UNIT ( $, .RADIAN. ) );
#14 = FACE_OUTER_BOUND ( 'NONE', #249, .T. ) ;
#15 = DIMENSIONAL_EXPONENTS ( 1.000000000000000000, 0.000000000000000000, 0.000000000000000000, 0.000000000000000000, 0.000000000000000000, 0.000000000000000000, 0.000000000000000000 ) ;
#16 = CARTESIAN_POINT ( 'NONE',  ( -1.224646799147353207E-16, 5.000000000000000000, 0.000000000000000000 ) ) ;
#17 = DIRECTION ( 'NONE',  ( -1.000000000000000000, -4.898587196589412459E-17, 0.000000000000000000 ) ) ;
#18 = LENGTH_MEASURE_WITH_UNIT ( LENGTH_MEASURE( 0.02539999999999999897 ), #95 );
#19 = DIRECTION ( 'NONE',  ( 0.000000000000000000, 0.000000000000000000, -1.000000000000000000 ) ) ;
#20 = PRESENTATION_STYLE_ASSIGNMENT (( #239 ) ) ;
#21 = MECHANICAL_DESIGN_GEOMETRIC_PRESENTATION_REPRESENTATION (  '', ( #27 ), #93 ) ;
#22 = DIRECTION ( 'NONE',  ( -0.000000000000000000, -1.000000000000000000, -0.000000000000000000 ) ) ;
#23 = VERTEX_POINT ( 'NONE', #303 ) ;
#24 = DIRECTION ( 'NONE',  ( -0.000000000000000000, -1.000000000000000000, -0.000000000000000000 ) ) ;
#25 = DIRECTION ( 'NONE',  ( 0.000000000000000000, 0.000000000000000000, -1.000000000000000000 ) ) ;
#26 = MANIFOLD_SOLID_BREP ( 'Revolve - Cutting Edge', #40 ) ;
#27 = STYLED_ITEM ( 'NONE', ( #36 ), #109 ) ;
#28 = VERTEX_POINT ( 'NONE', #12 ) ;
#29 = EDGE_CURVE ( 'NONE', #79, #214, #33, .T. ) ;
#30 = VERTEX_POINT ( 'NONE', #257 ) ;
#31 = ORIENTED_EDGE ( 'NONE', *, *, #209, .T. ) ;
#32 = CARTESIAN_POINT ( 'NONE',  ( -1.224646799147353207E-16, 5.000000000000000000, 0.000000000000000000 ) ) ;
#33 = CIRCLE ( 'NONE', #76, 0.3125000000000000000 ) ;
#34 = STYLED_ITEM ( 'NONE', ( #140 ), #151 ) ;
#35 = UNCERTAINTY_MEASURE_WITH_UNIT (LENGTH_MEASURE( 1.000000000000000082E-05 ), #260, 'distance_accuracy_value', 'NONE');
#36 = PRESENTATION_STYLE_ASSIGNMENT (( #276 ) ) ;
#37 = LENGTH_MEASURE_WITH_UNIT ( LENGTH_MEASURE( 0.02539999999999999897 ), #64 );
#38 = DIRECTION ( 'NONE',  ( -4.898587196589412459E-17, 1.000000000000000000, -0.000000000000000000 ) ) ;
#39 =( LENGTH_UNIT ( ) NAMED_UNIT ( * ) SI_UNIT ( $, .METRE. ) );
#40 = CLOSED_SHELL ( 'NONE', ( #301, #184, #109, #151 ) ) ;
#41 = AXIS2_PLACEMENT_3D ( 'NONE', #147, #196, #187 ) ;
#42 = CARTESIAN_POINT ( 'NONE',  ( 0.000000000000000000, 2.500000000000000000, 0.000000000000000000 ) ) ;
#43 = CARTESIAN_POINT ( 'NONE',  ( 0.000000000000000000, 0.000000000000000000, 0.000000000000000000 ) ) ;
#44 = ORIENTED_EDGE ( 'NONE', *, *, #209, .F. ) ;
#45 = COLOUR_RGB ( '',1.000000000000000000, 0.000000000000000000, 0.000000000000000000 ) ;
#46 = FILL_AREA_STYLE_COLOUR ( '', #115 ) ;
#47 = EDGE_CURVE ( 'NONE', #105, #220, #10, .T. ) ;
#48 = CARTESIAN_POINT ( 'NONE',  ( 1.516480271171051896E-32, 2.500000000000000000, 0.000000000000000000 ) ) ;
#49 = DIRECTION ( 'NONE',  ( 0.000000000000000000, -1.000000000000000000, -0.000000000000000000 ) ) ;
#50 = DIMENSIONAL_EXPONENTS ( 1.000000000000000000, 0.000000000000000000, 0.000000000000000000, 0.000000000000000000, 0.000000000000000000, 0.000000000000000000, 0.000000000000000000 ) ;
#51 = DIRECTION ( 'NONE',  ( -1.000000000000000000, 0.000000000000000000, 0.000000000000000000 ) ) ;
#52 =( NAMED_UNIT ( * ) PLANE_ANGLE_UNIT ( ) SI_UNIT ( $, .RADIAN. ) );
#53 = ADVANCED_FACE ( 'NONE', ( #156 ), #293, .T. ) ;
#54 = ORIENTED_EDGE ( 'NONE', *, *, #283, .F. ) ;
#55 = PRESENTATION_LAYER_ASSIGNMENT (  '', '', ( #131 ) ) ;
#56 = CIRCLE ( 'NONE', #272, 0.3125000000000000000 ) ;
#57 = PRODUCT_DEFINITION ( 'UNKNOWN', '', #162, #264 ) ;
#58 = EDGE_LOOP ( 'NONE', ( #3, #269, #290, #277 ) ) ;
#59 = VECTOR ( 'NONE', #38, 39.37007874015748143 ) ;
#60 = DIRECTION ( 'NONE',  ( -4.898587196589412459E-17, 1.000000000000000000, 0.000000000000000000 ) ) ;
#61 =( CONVERSION_BASED_UNIT ( 'INCH', #294 ) LENGTH_UNIT ( ) NAMED_UNIT ( #15 ) );
#62 = CYLINDRICAL_SURFACE ( 'NONE', #142, 0.3125000000000000000 ) ;
#63 =( GEOMETRIC_REPRESENTATION_CONTEXT ( 3 ) GLOBAL_UNCERTAINTY_ASSIGNED_CONTEXT ( ( #70 ) ) GLOBAL_UNIT_ASSIGNED_CONTEXT ( ( #203, #52, #161 ) ) REPRESENTATION_CONTEXT ( 'NONE', 'WORKASPACE' ) );
#64 =( LENGTH_UNIT ( ) NAMED_UNIT ( * ) SI_UNIT ( $, .METRE. ) );
#65 = VECTOR ( 'NONE', #22, 39.37007874015748143 ) ;
#66 = SURFACE_SIDE_STYLE ('',( #205 ) ) ;
#67 = FILL_AREA_STYLE ('',( #46 ) ) ;
#68 = SURFACE_STYLE_FILL_AREA ( #183 ) ;
#69 = CARTESIAN_POINT ( 'NONE',  ( 0.000000000000000000, 0.000000000000000000, 0.000000000000000000 ) ) ;
#70 = UNCERTAINTY_MEASURE_WITH_UNIT (LENGTH_MEASURE( 1.000000000000000082E-05 ), #203, 'distance_accuracy_value', 'NONE');
#71 = STYLED_ITEM ( 'NONE', ( #119 ), #130 ) ;
#72 = DIRECTION ( 'NONE',  ( -1.000000000000000000, 0.000000000000000000, 0.000000000000000000 ) ) ;
#73 = UNCERTAINTY_MEASURE_WITH_UNIT (LENGTH_MEASURE( 1.000000000000000082E-05 ), #282, 'distance_accuracy_value', 'NONE');
#74 = CARTESIAN_POINT ( 'NONE',  ( 0.3125000000000000000, 5.000000000000000000, 0.000000000000000000 ) ) ;
#75 = FACE_OUTER_BOUND ( 'NONE', #7, .T. ) ;
#76 = AXIS2_PLACEMENT_3D ( 'NONE', #48, #278, #175 ) ;
#77 = CIRCLE ( 'NONE', #41, 0.3125000000000001665 ) ;
#78 = CARTESIAN_POINT ( 'NONE',  ( 0.000000000000000000, 0.000000000000000000, 0.000000000000000000 ) ) ;
#79 = VERTEX_POINT ( 'NONE', #89 ) ;
#80 = LINE ( 'NONE', #241, #65 ) ;
#81 = ORIENTED_EDGE ( 'NONE', *, *, #212, .T. ) ;
#82 = CIRCLE ( 'NONE', #5, 0.3125000000000000000 ) ;
#83 = EDGE_CURVE ( 'NONE', #214, #300, #218, .T. ) ;
#84 = CYLINDRICAL_SURFACE ( 'NONE', #174, 0.3125000000000000000 ) ;
#85 = PRESENTATION_LAYER_ASSIGNMENT (  '', '', ( #252 ) ) ;
#86 =( NAMED_UNIT ( * ) SI_UNIT ( $, .STERADIAN. ) SOLID_ANGLE_UNIT ( ) );
#87 = SURFACE_STYLE_FILL_AREA ( #253 ) ;
#88 = SURFACE_STYLE_USAGE ( .BOTH. , #155 ) ;
#89 = CARTESIAN_POINT ( 'NONE',  ( -0.3125000000000000000, 2.500000000000000000, 0.000000000000000000 ) ) ;
#90 = CARTESIAN_POINT ( 'NONE',  ( 3.749399456654644447E-34, 2.500000000000000000, 0.000000000000000000 ) ) ;
#91 = PLANE ( 'NONE',  #285 ) ;
#92 =( NAMED_UNIT ( * ) PLANE_ANGLE_UNIT ( ) SI_UNIT ( $, .RADIAN. ) );
#93 =( GEOMETRIC_REPRESENTATION_CONTEXT ( 3 ) GLOBAL_UNCERTAINTY_ASSIGNED_CONTEXT ( ( #73 ) ) GLOBAL_UNIT_ASSIGNED_CONTEXT ( ( #282, #13, #228 ) ) REPRESENTATION_CONTEXT ( 'NONE', 'WORKASPACE' ) );
#94 = DIMENSIONAL_EXPONENTS ( 1.000000000000000000, 0.000000000000000000, 0.000000000000000000, 0.000000000000000000, 0.000000000000000000, 0.000000000000000000, 0.000000000000000000 ) ;
#95 =( LENGTH_UNIT ( ) NAMED_UNIT ( * ) SI_UNIT ( $, .METRE. ) );
#96 = EDGE_CURVE ( 'NONE', #23, #220, #243, .T. ) ;
#97 = SURFACE_STYLE_USAGE ( .BOTH. , #231 ) ;
#98 = CYLINDRICAL_SURFACE ( 'NONE', #104, 0.3125000000000000555 ) ;
#99 = SURFACE_SIDE_STYLE ('',( #68 ) ) ;
#100 = PLANE ( 'NONE',  #295 ) ;
#101 =( LENGTH_UNIT ( ) NAMED_UNIT ( * ) SI_UNIT ( $, .METRE. ) );
#102 = LINE ( 'NONE', #287, #200 ) ;
#103 = DIRECTION ( 'NONE',  ( -4.898587196589413075E-17, 1.000000000000000000, -0.000000000000000000 ) ) ;
#104 = AXIS2_PLACEMENT_3D ( 'NONE', #167, #235, #51 ) ;
#105 = VERTEX_POINT ( 'NONE', #274 ) ;
#106 =( NAMED_UNIT ( * ) PLANE_ANGLE_UNIT ( ) SI_UNIT ( $, .RADIAN. ) );
#107 = PRESENTATION_STYLE_ASSIGNMENT (( #291 ) ) ;
#108 = MECHANICAL_DESIGN_GEOMETRIC_PRESENTATION_REPRESENTATION (  '', ( #258 ), #9 ) ;
#109 = ADVANCED_FACE ( 'NONE', ( #197 ), #84, .T. ) ;
#110 =( LENGTH_UNIT ( ) NAMED_UNIT ( * ) SI_UNIT ( $, .METRE. ) );
#111 = UNCERTAINTY_MEASURE_WITH_UNIT (LENGTH_MEASURE( 1.000000000000000082E-05 ), #61, 'distance_accuracy_value', 'NONE');
#112 = APPLICATION_CONTEXT ( 'automotive_design' ) ;
#113 =( GEOMETRIC_REPRESENTATION_CONTEXT ( 3 ) GLOBAL_UNCERTAINTY_ASSIGNED_CONTEXT ( ( #35 ) ) GLOBAL_UNIT_ASSIGNED_CONTEXT ( ( #260, #137, #226 ) ) REPRESENTATION_CONTEXT ( 'NONE', 'WORKASPACE' ) );
#114 =( NAMED_UNIT ( * ) PLANE_ANGLE_UNIT ( ) SI_UNIT ( $, .RADIAN. ) );
#115 = COLOUR_RGB ( '',0.7921568627450980005, 0.8196078431372548767, 0.9333333333333333481 ) ;
#116 = SURFACE_STYLE_FILL_AREA ( #304 ) ;
#117 = LENGTH_MEASURE_WITH_UNIT ( LENGTH_MEASURE( 0.02539999999999999897 ), #39 );
#118 = DIRECTION ( 'NONE',  ( 0.000000000000000000, 1.000000000000000000, 0.000000000000000000 ) ) ;
#119 = PRESENTATION_STYLE_ASSIGNMENT (( #97 ) ) ;
#120 = AXIS2_PLACEMENT_3D ( 'NONE', #16, #306, #206 ) ;
#121 = LENGTH_MEASURE_WITH_UNIT ( LENGTH_MEASURE( 0.02539999999999999897 ), #181 );
#122 = ORIENTED_EDGE ( 'NONE', *, *, #158, .F. ) ;
#123 = PRESENTATION_LAYER_ASSIGNMENT (  '', '', ( #71 ) ) ;
#124 =( CONVERSION_BASED_UNIT ( 'INCH', #18 ) LENGTH_UNIT ( ) NAMED_UNIT ( #238 ) );
#125 = ORIENTED_EDGE ( 'NONE', *, *, #1, .T. ) ;
#126 = SURFACE_STYLE_FILL_AREA ( #67 ) ;
#127 = DIRECTION ( 'NONE',  ( -0.000000000000000000, -1.000000000000000000, -0.000000000000000000 ) ) ;
#128 = AXIS2_PLACEMENT_3D ( 'NONE', #141, #263, #138 ) ;
#129 = ORIENTED_EDGE ( 'NONE', *, *, #29, .F. ) ;
#130 = MANIFOLD_SOLID_BREP ( 'Revolve - Tool Body (Straight Shanked)', #185 ) ;
#131 = STYLED_ITEM ( 'NONE', ( #20 ), #26 ) ;
#132 =( GEOMETRIC_REPRESENTATION_CONTEXT ( 3 ) GLOBAL_UNCERTAINTY_ASSIGNED_CONTEXT ( ( #234 ) ) GLOBAL_UNIT_ASSIGNED_CONTEXT ( ( #124, #106, #189 ) ) REPRESENTATION_CONTEXT ( 'NONE', 'WORKASPACE' ) );
#133 = DIRECTION ( 'NONE',  ( -1.000000000000000000, 0.000000000000000000, 0.000000000000000000 ) ) ;
#134 = FACE_OUTER_BOUND ( 'NONE', #217, .T. ) ;
#135 = CARTESIAN_POINT ( 'NONE',  ( 0.000000000000000000, 0.000000000000000000, 0.000000000000000000 ) ) ;
#136 = AXIS2_PLACEMENT_3D ( 'NONE', #135, #223, #296 ) ;
#137 =( NAMED_UNIT ( * ) PLANE_ANGLE_UNIT ( ) SI_UNIT ( $, .RADIAN. ) );
#138 = DIRECTION ( 'NONE',  ( 0.000000000000000000, 0.000000000000000000, -1.000000000000000000 ) ) ;
#139 = EDGE_CURVE ( 'NONE', #220, #23, #248, .T. ) ;
#140 = PRESENTATION_STYLE_ASSIGNMENT (( #261 ) ) ;
#141 = CARTESIAN_POINT ( 'NONE',  ( 0.000000000000000000, 0.000000000000000000, 0.000000000000000000 ) ) ;
#142 = AXIS2_PLACEMENT_3D ( 'NONE', #201, #297, #176 ) ;
#143 = COLOUR_RGB ( '',1.000000000000000000, 0.000000000000000000, 0.000000000000000000 ) ;
#144 = FILL_AREA_STYLE_COLOUR ( '', #153 ) ;
#145 = DIRECTION ( 'NONE',  ( 0.000000000000000000, 0.000000000000000000, 1.000000000000000000 ) ) ;
#146 = ORIENTED_EDGE ( 'NONE', *, *, #219, .T. ) ;
#147 = CARTESIAN_POINT ( 'NONE',  ( -1.224646799147353207E-16, 5.000000000000000000, 0.000000000000000000 ) ) ;
#148 = CARTESIAN_POINT ( 'NONE',  ( 0.000000000000000000, 2.500000000000000000, 0.000000000000000000 ) ) ;
#149 = PRODUCT_CONTEXT ( 'NONE', #112, 'mechanical' ) ;
#150 = CARTESIAN_POINT ( 'NONE',  ( 3.827021247335478926E-17, 0.000000000000000000, 0.3125000000000000000 ) ) ;
#151 = ADVANCED_FACE ( 'NONE', ( #14 ), #91, .T. ) ;
#152 = SURFACE_SIDE_STYLE ('',( #6 ) ) ;
#153 = COLOUR_RGB ( '',0.7921568627450980005, 0.8196078431372548767, 0.9333333333333333481 ) ;
#154 = FILL_AREA_STYLE_COLOUR ( '', #288 ) ;
#155 = SURFACE_SIDE_STYLE ('',( #116 ) ) ;
#156 = FACE_OUTER_BOUND ( 'NONE', #58, .T. ) ;
#157 = PRESENTATION_LAYER_ASSIGNMENT (  '', '', ( #27 ) ) ;
#158 = EDGE_CURVE ( 'NONE', #300, #28, #77, .T. ) ;
#159 = LENGTH_MEASURE_WITH_UNIT ( LENGTH_MEASURE( 0.02539999999999999897 ), #237 );
#160 = DIMENSIONAL_EXPONENTS ( 1.000000000000000000, 0.000000000000000000, 0.000000000000000000, 0.000000000000000000, 0.000000000000000000, 0.000000000000000000, 0.000000000000000000 ) ;
#161 =( NAMED_UNIT ( * ) SI_UNIT ( $, .STERADIAN. ) SOLID_ANGLE_UNIT ( ) );
#162 = PRODUCT_DEFINITION_FORMATION_WITH_SPECIFIED_SOURCE ( 'ANY', '', #250, .NOT_KNOWN. ) ;
#163 = AXIS2_PLACEMENT_3D ( 'NONE', #32, #255, #133 ) ;
#164 = EDGE_LOOP ( 'NONE', ( #273, #171, #31, #195 ) ) ;
#165 = DIRECTION ( 'NONE',  ( 4.898587196589412459E-17, -1.000000000000000000, 0.000000000000000000 ) ) ;
#166 = DIMENSIONAL_EXPONENTS ( 1.000000000000000000, 0.000000000000000000, 0.000000000000000000, 0.000000000000000000, 0.000000000000000000, 0.000000000000000000, 0.000000000000000000 ) ;
#167 = CARTESIAN_POINT ( 'NONE',  ( -1.224646799147353207E-16, 5.000000000000000000, 0.000000000000000000 ) ) ;
#168 = FILL_AREA_STYLE_COLOUR ( '', #45 ) ;
#169 = AXIS2_PLACEMENT_3D ( 'NONE', #90, #60, #17 ) ;
#170 = PLANE ( 'NONE',  #192 ) ;
#171 = ORIENTED_EDGE ( 'NONE', *, *, #283, .T. ) ;
#172 = DIRECTION ( 'NONE',  ( -0.000000000000000000, -1.000000000000000000, -0.000000000000000000 ) ) ;
#173 = DIRECTION ( 'NONE',  ( 0.000000000000000000, -0.000000000000000000, 1.000000000000000000 ) ) ;
#174 = AXIS2_PLACEMENT_3D ( 'NONE', #43, #309, #19 ) ;
#175 = DIRECTION ( 'NONE',  ( -1.000000000000000000, 0.000000000000000000, 0.000000000000000000 ) ) ;
#176 = DIRECTION ( 'NONE',  ( 0.000000000000000000, 0.000000000000000000, -1.000000000000000000 ) ) ;
#177 = SURFACE_SIDE_STYLE ('',( #87 ) ) ;
#178 =( NAMED_UNIT ( * ) PLANE_ANGLE_UNIT ( ) SI_UNIT ( $, .RADIAN. ) );
#179 = MECHANICAL_DESIGN_GEOMETRIC_PRESENTATION_REPRESENTATION (  '', ( #34 ), #132 ) ;
#180 = FILL_AREA_STYLE_COLOUR ( '', #143 ) ;
#181 =( LENGTH_UNIT ( ) NAMED_UNIT ( * ) SI_UNIT ( $, .METRE. ) );
#182 = UNCERTAINTY_MEASURE_WITH_UNIT (LENGTH_MEASURE( 1.000000000000000082E-05 ), #227, 'distance_accuracy_value', 'NONE');
#183 = FILL_AREA_STYLE ('',( #144 ) ) ;
#184 = ADVANCED_FACE ( 'NONE', ( #75 ), #170, .T. ) ;
#185 = CLOSED_SHELL ( 'NONE', ( #53, #305, #202, #198 ) ) ;
#186 = AXIS2_PLACEMENT_3D ( 'NONE', #148, #127, #211 ) ;
#187 = DIRECTION ( 'NONE',  ( -1.000000000000000000, 0.000000000000000000, 0.000000000000000000 ) ) ;
#188 = EDGE_CURVE ( 'NONE', #214, #79, #82, .T. ) ;
#189 =( NAMED_UNIT ( * ) SI_UNIT ( $, .STERADIAN. ) SOLID_ANGLE_UNIT ( ) );
#190 = MECHANICAL_DESIGN_GEOMETRIC_PRESENTATION_REPRESENTATION (  '', ( #131 ), #302 ) ;
#191 = ORIENTED_EDGE ( 'NONE', *, *, #96, .F. ) ;
#192 = AXIS2_PLACEMENT_3D ( 'NONE', #42, #118, #173 ) ;
#193 = DIRECTION ( 'NONE',  ( 1.000000000000000000, 4.898587196589412459E-17, 0.000000000000000000 ) ) ;
#194 = CARTESIAN_POINT ( 'NONE',  ( 0.3125000000000000000, 5.000000000000000000, 3.827021247335479543E-17 ) ) ;
#195 = ORIENTED_EDGE ( 'NONE', *, *, #139, .F. ) ;
#196 = DIRECTION ( 'NONE',  ( -4.898587196589413075E-17, 1.000000000000000000, -0.000000000000000000 ) ) ;
#197 = FACE_OUTER_BOUND ( 'NONE', #164, .T. ) ;
#198 = ADVANCED_FACE ( 'NONE', ( #2 ), #100, .F. ) ;
#199 = UNCERTAINTY_MEASURE_WITH_UNIT (LENGTH_MEASURE( 1.000000000000000082E-05 ), #299, 'distance_accuracy_value', 'NONE');
#200 = VECTOR ( 'NONE', #268, 39.37007874015748143 ) ;
#201 = CARTESIAN_POINT ( 'NONE',  ( 0.000000000000000000, 0.000000000000000000, 0.000000000000000000 ) ) ;
#202 = ADVANCED_FACE ( 'NONE', ( #266 ), #98, .T. ) ;
#203 =( CONVERSION_BASED_UNIT ( 'INCH', #159 ) LENGTH_UNIT ( ) NAMED_UNIT ( #160 ) );
#204 = COLOUR_RGB ( '',1.000000000000000000, 0.000000000000000000, 0.000000000000000000 ) ;
#205 = SURFACE_STYLE_FILL_AREA ( #281 ) ;
#206 = DIRECTION ( 'NONE',  ( -1.000000000000000000, 0.000000000000000000, 0.000000000000000000 ) ) ;
#207 = MECHANICAL_DESIGN_GEOMETRIC_PRESENTATION_REPRESENTATION (  '', ( #252 ), #232 ) ;
#208 = ORIENTED_EDGE ( 'NONE', *, *, #188, .F. ) ;
#209 = EDGE_CURVE ( 'NONE', #30, #23, #80, .T. ) ;
#210 = APPLICATION_PROTOCOL_DEFINITION ( 'draft international standard', 'automotive_design', 1998, #215 ) ;
#211 = DIRECTION ( 'NONE',  ( 0.000000000000000000, 0.000000000000000000, -1.000000000000000000 ) ) ;
#212 = EDGE_CURVE ( 'NONE', #30, #105, #275, .T. ) ;
#213 = FILL_AREA_STYLE ('',( #168 ) ) ;
#214 = VERTEX_POINT ( 'NONE', #245 ) ;
#215 = APPLICATION_CONTEXT ( 'automotive_design' ) ;
#216 = ORIENTED_EDGE ( 'NONE', *, *, #139, .T. ) ;
#217 = EDGE_LOOP ( 'NONE', ( #129, #208 ) ) ;
#218 = LINE ( 'NONE', #298, #59 ) ;
#219 = EDGE_CURVE ( 'NONE', #79, #28, #102, .T. ) ;
#220 = VERTEX_POINT ( 'NONE', #150 ) ;
#221 =( NAMED_UNIT ( * ) SI_UNIT ( $, .STERADIAN. ) SOLID_ANGLE_UNIT ( ) );
#222 = LENGTH_MEASURE_WITH_UNIT ( LENGTH_MEASURE( 0.02539999999999999897 ), #110 );
#223 = DIRECTION ( 'NONE',  ( -0.000000000000000000, -1.000000000000000000, -0.000000000000000000 ) ) ;
#224 =( NAMED_UNIT ( * ) SI_UNIT ( $, .STERADIAN. ) SOLID_ANGLE_UNIT ( ) );
#225 = MECHANICAL_DESIGN_GEOMETRIC_PRESENTATION_REPRESENTATION (  '', ( #71 ), #63 ) ;
#226 =( NAMED_UNIT ( * ) SI_UNIT ( $, .STERADIAN. ) SOLID_ANGLE_UNIT ( ) );
#227 =( CONVERSION_BASED_UNIT ( 'INCH', #222 ) LENGTH_UNIT ( ) NAMED_UNIT ( #50 ) );
#228 =( NAMED_UNIT ( * ) SI_UNIT ( $, .STERADIAN. ) SOLID_ANGLE_UNIT ( ) );
#229 = ORIENTED_EDGE ( 'NONE', *, *, #96, .T. ) ;
#230 = APPLICATION_PROTOCOL_DEFINITION ( 'draft international standard', 'automotive_design', 1998, #112 ) ;
#231 = SURFACE_SIDE_STYLE ('',( #126 ) ) ;
#232 =( GEOMETRIC_REPRESENTATION_CONTEXT ( 3 ) GLOBAL_UNCERTAINTY_ASSIGNED_CONTEXT ( ( #182 ) ) GLOBAL_UNIT_ASSIGNED_CONTEXT ( ( #227, #92, #86 ) ) REPRESENTATION_CONTEXT ( 'NONE', 'WORKASPACE' ) );
#233 = ORIENTED_EDGE ( 'NONE', *, *, #158, .T. ) ;
#234 = UNCERTAINTY_MEASURE_WITH_UNIT (LENGTH_MEASURE( 1.000000000000000082E-05 ), #124, 'distance_accuracy_value', 'NONE');
#235 = DIRECTION ( 'NONE',  ( -4.898587196589413075E-17, 1.000000000000000000, -0.000000000000000000 ) ) ;
#236 = PRODUCT_RELATED_PRODUCT_CATEGORY ( 'part', '', ( #250 ) ) ;
#237 =( LENGTH_UNIT ( ) NAMED_UNIT ( * ) SI_UNIT ( $, .METRE. ) );
#238 = DIMENSIONAL_EXPONENTS ( 1.000000000000000000, 0.000000000000000000, 0.000000000000000000, 0.000000000000000000, 0.000000000000000000, 0.000000000000000000, 0.000000000000000000 ) ;
#239 = SURFACE_STYLE_USAGE ( .BOTH. , #99 ) ;
#240 = DIRECTION ( 'NONE',  ( 1.000000000000000000, 0.000000000000000000, 0.000000000000000000 ) ) ;
#241 = CARTESIAN_POINT ( 'NONE',  ( 0.000000000000000000, 0.000000000000000000, -0.3125000000000000000 ) ) ;
#242 = DIMENSIONAL_EXPONENTS ( 1.000000000000000000, 0.000000000000000000, 0.000000000000000000, 0.000000000000000000, 0.000000000000000000, 0.000000000000000000, 0.000000000000000000 ) ;
#243 = CIRCLE ( 'NONE', #136, 0.3125000000000000000 ) ;
#244 = EDGE_LOOP ( 'NONE', ( #125, #233 ) ) ;
#245 = CARTESIAN_POINT ( 'NONE',  ( 0.3125000000000000000, 2.500000000000000000, 3.827021247335479543E-17 ) ) ;
#246 = CARTESIAN_POINT ( 'NONE',  ( 0.000000000000000000, 2.500000000000000000, 0.000000000000000000 ) ) ;
#247 = PRODUCT_DEFINITION_SHAPE ( 'NONE', 'NONE',  #57 ) ;
#248 = CIRCLE ( 'NONE', #128, 0.3125000000000000000 ) ;
#249 = EDGE_LOOP ( 'NONE', ( #229, #216 ) ) ;
#250 = PRODUCT ( '03602', '03602', '', ( #149 ) ) ;
#251 = VECTOR ( 'NONE', #172, 39.37007874015748143 ) ;
#252 = STYLED_ITEM ( 'NONE', ( #107 ), #184 ) ;
#253 = FILL_AREA_STYLE ('',( #154 ) ) ;
#254 = FACE_OUTER_BOUND ( 'NONE', #289, .T. ) ;
#255 = DIRECTION ( 'NONE',  ( -4.898587196589413075E-17, 1.000000000000000000, -0.000000000000000000 ) ) ;
#256 = PRESENTATION_STYLE_ASSIGNMENT (( #88 ) ) ;
#257 = CARTESIAN_POINT ( 'NONE',  ( 0.000000000000000000, 2.500000000000000000, -0.3125000000000000000 ) ) ;
#258 = STYLED_ITEM ( 'NONE', ( #256 ), #301 ) ;
#259 = CARTESIAN_POINT ( 'NONE',  ( 3.827021247335478926E-17, 0.000000000000000000, 0.3125000000000000000 ) ) ;
#260 =( CONVERSION_BASED_UNIT ( 'INCH', #37 ) LENGTH_UNIT ( ) NAMED_UNIT ( #94 ) );
#261 = SURFACE_STYLE_USAGE ( .BOTH. , #66 ) ;
#262 = PLANE ( 'NONE',  #169 ) ;
#263 = DIRECTION ( 'NONE',  ( -0.000000000000000000, -1.000000000000000000, -0.000000000000000000 ) ) ;
#264 = PRODUCT_DEFINITION_CONTEXT ( 'detailed design', #215, 'design' ) ;
#265 = ORIENTED_EDGE ( 'NONE', *, *, #188, .T. ) ;
#266 = FACE_OUTER_BOUND ( 'NONE', #286, .T. ) ;
#267 = CIRCLE ( 'NONE', #120, 0.3125000000000001665 ) ;
#268 = DIRECTION ( 'NONE',  ( -4.898587196589412459E-17, 1.000000000000000000, -0.000000000000000000 ) ) ;
#269 = ORIENTED_EDGE ( 'NONE', *, *, #83, .T. ) ;
#270 = DIRECTION ( 'NONE',  ( 0.000000000000000000, 0.000000000000000000, -1.000000000000000000 ) ) ;
#271 = ORIENTED_EDGE ( 'NONE', *, *, #212, .F. ) ;
#272 = AXIS2_PLACEMENT_3D ( 'NONE', #246, #24, #25 ) ;
#273 = ORIENTED_EDGE ( 'NONE', *, *, #47, .F. ) ;
#274 = CARTESIAN_POINT ( 'NONE',  ( 3.827021247335478926E-17, 2.500000000000000000, 0.3125000000000000000 ) ) ;
#275 = CIRCLE ( 'NONE', #186, 0.3125000000000000000 ) ;
#276 = SURFACE_STYLE_USAGE ( .BOTH. , #177 ) ;
#277 = ORIENTED_EDGE ( 'NONE', *, *, #219, .F. ) ;
#278 = DIRECTION ( 'NONE',  ( -4.898587196589413075E-17, 1.000000000000000000, -0.000000000000000000 ) ) ;
#279 = FILL_AREA_STYLE_COLOUR ( '', #204 ) ;
#280 = ADVANCED_BREP_SHAPE_REPRESENTATION ( '03602', ( #26, #130, #4 ), #113 ) ;
#281 = FILL_AREA_STYLE ('',( #180 ) ) ;
#282 =( CONVERSION_BASED_UNIT ( 'INCH', #117 ) LENGTH_UNIT ( ) NAMED_UNIT ( #242 ) );
#283 = EDGE_CURVE ( 'NONE', #105, #30, #56, .T. ) ;
#284 = ORIENTED_EDGE ( 'NONE', *, *, #47, .T. ) ;
#285 = AXIS2_PLACEMENT_3D ( 'NONE', #78, #49, #270 ) ;
#286 = EDGE_LOOP ( 'NONE', ( #8, #265, #146, #122 ) ) ;
#287 = CARTESIAN_POINT ( 'NONE',  ( -0.3125000000000002220, 5.000000000000000000, 0.000000000000000000 ) ) ;
#288 = COLOUR_RGB ( '',1.000000000000000000, 0.000000000000000000, 0.000000000000000000 ) ;
#289 = EDGE_LOOP ( 'NONE', ( #81, #284, #191, #44 ) ) ;
#290 = ORIENTED_EDGE ( 'NONE', *, *, #1, .F. ) ;
#291 = SURFACE_STYLE_USAGE ( .BOTH. , #152 ) ;
#292 = PRESENTATION_LAYER_ASSIGNMENT (  '', '', ( #258 ) ) ;
#293 = CYLINDRICAL_SURFACE ( 'NONE', #163, 0.3125000000000000555 ) ;
#294 = LENGTH_MEASURE_WITH_UNIT ( LENGTH_MEASURE( 0.02539999999999999897 ), #101 );
#295 = AXIS2_PLACEMENT_3D ( 'NONE', #74, #165, #193 ) ;
#296 = DIRECTION ( 'NONE',  ( 0.000000000000000000, 0.000000000000000000, -1.000000000000000000 ) ) ;
#297 = DIRECTION ( 'NONE',  ( -0.000000000000000000, -1.000000000000000000, -0.000000000000000000 ) ) ;
#298 = CARTESIAN_POINT ( 'NONE',  ( 0.3124999999999999445, 5.000000000000000000, 3.827021247335479543E-17 ) ) ;
#299 =( CONVERSION_BASED_UNIT ( 'INCH', #121 ) LENGTH_UNIT ( ) NAMED_UNIT ( #166 ) );
#300 = VERTEX_POINT ( 'NONE', #194 ) ;
#301 = ADVANCED_FACE ( 'NONE', ( #254 ), #62, .T. ) ;
#302 =( GEOMETRIC_REPRESENTATION_CONTEXT ( 3 ) GLOBAL_UNCERTAINTY_ASSIGNED_CONTEXT ( ( #111 ) ) GLOBAL_UNIT_ASSIGNED_CONTEXT ( ( #61, #114, #221 ) ) REPRESENTATION_CONTEXT ( 'NONE', 'WORKASPACE' ) );
#303 = CARTESIAN_POINT ( 'NONE',  ( 0.000000000000000000, 0.000000000000000000, -0.3125000000000000000 ) ) ;
#304 = FILL_AREA_STYLE ('',( #279 ) ) ;
#305 = ADVANCED_FACE ( 'NONE', ( #134 ), #262, .F. ) ;
#306 = DIRECTION ( 'NONE',  ( -4.898587196589413075E-17, 1.000000000000000000, -0.000000000000000000 ) ) ;
#307 = SHAPE_DEFINITION_REPRESENTATION ( #247, #280 ) ;
#308 = CARTESIAN_POINT ( 'NONE',  ( 1.516480271171051896E-32, 2.500000000000000000, 0.000000000000000000 ) ) ;
#309 = DIRECTION ( 'NONE',  ( -0.000000000000000000, -1.000000000000000000, -0.000000000000000000 ) ) ;
ENDSEC;
END-ISO-10303-21;
