ISO-10303-21;
HEADER;
FILE_DESCRIPTION (( 'STEP AP214' ),
    '1' );
FILE_NAME ('Micro_RNCM-030-1.STEP',
    '2021-09-03T17:39:20',
    ( '' ),
    ( '' ),
    'SwSTEP 2.0',
    'SolidWorks 2020',
    '' );
FILE_SCHEMA (( 'AUTOMOTIVE_DESIGN' ));
ENDSEC;

DATA;
#1 = PLANE ( 'NONE',  #192 ) ;
#2 = PRESENTATION_LAYER_ASSIGNMENT (  '', '', ( #49 ) ) ;
#3 = DIRECTION ( 'NONE',  ( 1.000000000000000000, 0.0000000000000000000, 0.0000000000000000000 ) ) ;
#4 = DIRECTION ( 'NONE',  ( 0.0000000000000000000, 0.0000000000000000000, 1.000000000000000000 ) ) ;
#5 = AXIS2_PLACEMENT_3D ( 'NONE', #55, #187, #127 ) ;
#6 = CIRCLE ( 'NONE', #215, 0.05905500000000001720 ) ;
#7 = AXIS2_PLACEMENT_3D ( 'NONE', #213, #48, #120 ) ;
#8 = CARTESIAN_POINT ( 'NONE',  ( 0.0000000000000000000, 0.0000000000000000000, 1.496062999999999921 ) ) ;
#9 = DIRECTION ( 'NONE',  ( 1.000000000000000000, 0.0000000000000000000, -0.0000000000000000000 ) ) ;
#10 = CARTESIAN_POINT ( 'NONE',  ( -0.003936999999999995191, 3.857147558594503404E-18, 0.0000000000000000000 ) ) ;
#11 = SURFACE_SIDE_STYLE ('',( #86 ) ) ;
#12 = LINE ( 'NONE', #243, #89 ) ;
#13 = FACE_OUTER_BOUND ( 'NONE', #179, .T. ) ;
#14 = ORIENTED_EDGE ( 'NONE', *, *, #160, .T. ) ;
#15 = LENGTH_MEASURE_WITH_UNIT ( LENGTH_MEASURE( 0.02539999999999999897 ), #186 );
#16 =( NAMED_UNIT ( * ) PLANE_ANGLE_UNIT ( ) SI_UNIT ( $, .RADIAN. ) );
#17 = LENGTH_MEASURE_WITH_UNIT ( LENGTH_MEASURE( 0.02539999999999999897 ), #202 );
#18 = AXIS2_PLACEMENT_3D ( 'NONE', #109, #101, #158 ) ;
#19 = DIRECTION ( 'NONE',  ( 1.000000000000000000, 0.0000000000000000000, 0.0000000000000000000 ) ) ;
#20 = SURFACE_STYLE_USAGE ( .BOTH. , #203 ) ;
#21 = EDGE_CURVE ( 'NONE', #201, #233, #6, .T. ) ;
#22 = CARTESIAN_POINT ( 'NONE',  ( 0.0000000000000000000, 0.0000000000000000000, 1.496062999999999921 ) ) ;
#23 = LINE ( 'NONE', #230, #94 ) ;
#24 = LINE ( 'NONE', #135, #219 ) ;
#25 = DIRECTION ( 'NONE',  ( -0.0000000000000000000, -0.0000000000000000000, -1.000000000000000000 ) ) ;
#26 = DIRECTION ( 'NONE',  ( -1.000000000000000000, 0.0000000000000000000, 0.0000000000000000000 ) ) ;
#27 = EDGE_LOOP ( 'NONE', ( #72, #244, #242, #50 ) ) ;
#28 = PRESENTATION_LAYER_ASSIGNMENT (  '', '', ( #134 ) ) ;
#29 = EDGE_CURVE ( 'NONE', #71, #184, #52, .T. ) ;
#30 = EDGE_LOOP ( 'NONE', ( #123, #91 ) ) ;
#31 = ORIENTED_EDGE ( 'NONE', *, *, #160, .F. ) ;
#32 = DIRECTION ( 'NONE',  ( -0.0000000000000000000, -0.0000000000000000000, -1.000000000000000000 ) ) ;
#33 = UNCERTAINTY_MEASURE_WITH_UNIT (LENGTH_MEASURE( 1.000000000000000082E-05 ), #131, 'distance_accuracy_value', 'NONE');
#34 = DIMENSIONAL_EXPONENTS ( 1.000000000000000000, 0.0000000000000000000, 0.0000000000000000000, 0.0000000000000000000, 0.0000000000000000000, 0.0000000000000000000, 0.0000000000000000000 ) ;
#35 = VERTEX_POINT ( 'NONE', #102 ) ;
#36 = PRODUCT_CONTEXT ( 'NONE', #132, 'mechanical' ) ;
#37 = SURFACE_STYLE_FILL_AREA ( #225 ) ;
#38 = PRESENTATION_STYLE_ASSIGNMENT (( #20 ) ) ;
#39 = DIRECTION ( 'NONE',  ( 0.0000000000000000000, 0.0000000000000000000, 1.000000000000000000 ) ) ;
#40 = CARTESIAN_POINT ( 'NONE',  ( 0.0000000000000000000, 0.0000000000000000000, 1.496062999999999921 ) ) ;
#41 = DIRECTION ( 'NONE',  ( -0.7071067811865484609, 8.659560562354943952E-17, 0.7071067811865464625 ) ) ;
#42 = CIRCLE ( 'NONE', #18, 0.003936999999999995191 ) ;
#43 = CARTESIAN_POINT ( 'NONE',  ( 0.0000000000000000000, 0.0000000000000000000, 0.05511799999999983379 ) ) ;
#44 = EDGE_CURVE ( 'NONE', #83, #125, #248, .T. ) ;
#45 = DIRECTION ( 'NONE',  ( 0.7071067811865484609, 0.0000000000000000000, 0.7071067811865464625 ) ) ;
#46 = ADVANCED_FACE ( 'NONE', ( #13 ), #238, .T. ) ;
#47 = DIRECTION ( 'NONE',  ( 1.000000000000000000, 0.0000000000000000000, 0.0000000000000000000 ) ) ;
#48 = DIRECTION ( 'NONE',  ( 0.0000000000000000000, 0.0000000000000000000, -1.000000000000000000 ) ) ;
#49 = STYLED_ITEM ( 'NONE', ( #38 ), #98 ) ;
#50 = ORIENTED_EDGE ( 'NONE', *, *, #157, .F. ) ;
#51 = ORIENTED_EDGE ( 'NONE', *, *, #29, .F. ) ;
#52 = CIRCLE ( 'NONE', #209, 0.04405499999999974020 ) ;
#53 = ORIENTED_EDGE ( 'NONE', *, *, #122, .T. ) ;
#54 = CARTESIAN_POINT ( 'NONE',  ( 0.0000000000000000000, 0.0000000000000000000, 1.496062999999999921 ) ) ;
#55 = CARTESIAN_POINT ( 'NONE',  ( 0.0000000000000000000, 0.0000000000000000000, 0.0000000000000000000 ) ) ;
#56 =( CONVERSION_BASED_UNIT ( 'INCH', #17 ) LENGTH_UNIT ( ) NAMED_UNIT ( #205 ) );
#57 = DIRECTION ( 'NONE',  ( -0.0000000000000000000, -0.0000000000000000000, -1.000000000000000000 ) ) ;
#58 = CARTESIAN_POINT ( 'NONE',  ( 0.0000000000000000000, 0.0000000000000000000, 0.05511799999999983379 ) ) ;
#59 = DIRECTION ( 'NONE',  ( -0.7071067811865482389, 0.0000000000000000000, -0.7071067811865469066 ) ) ;
#60 = COLOUR_RGB ( '',0.7921568627450980005, 0.8196078431372548767, 0.9333333333333333481 ) ;
#61 = ORIENTED_EDGE ( 'NONE', *, *, #110, .F. ) ;
#62 = CARTESIAN_POINT ( 'NONE',  ( 0.0000000000000000000, 0.0000000000000000000, 1.481062999999999574 ) ) ;
#63 = CARTESIAN_POINT ( 'NONE',  ( -0.04405499999999974020, 0.0000000000000000000, 1.496062999999999921 ) ) ;
#64 = ADVANCED_FACE ( 'NONE', ( #66 ), #100, .T. ) ;
#65 = CARTESIAN_POINT ( 'NONE',  ( 0.003936999999999995191, 0.0000000000000000000, 0.0000000000000000000 ) ) ;
#66 = FACE_OUTER_BOUND ( 'NONE', #223, .T. ) ;
#67 = ADVANCED_FACE ( 'NONE', ( #166 ), #142, .T. ) ;
#68 = CARTESIAN_POINT ( 'NONE',  ( 0.0000000000000000000, 0.0000000000000000000, 1.481062999999999574 ) ) ;
#69 = ORIENTED_EDGE ( 'NONE', *, *, #171, .F. ) ;
#70 = FILL_AREA_STYLE ('',( #216 ) ) ;
#71 = VERTEX_POINT ( 'NONE', #180 ) ;
#72 = ORIENTED_EDGE ( 'NONE', *, *, #44, .F. ) ;
#73 = EDGE_CURVE ( 'NONE', #233, #241, #12, .T. ) ;
#74 =( NAMED_UNIT ( * ) PLANE_ANGLE_UNIT ( ) SI_UNIT ( $, .RADIAN. ) );
#75 = AXIS2_PLACEMENT_3D ( 'NONE', #8, #159, #237 ) ;
#76 = APPLICATION_PROTOCOL_DEFINITION ( 'draft international standard', 'automotive_design', 1998, #149 ) ;
#77 = DIRECTION ( 'NONE',  ( 0.7071067811865482389, 8.659560562354941486E-17, -0.7071067811865469066 ) ) ;
#78 = CARTESIAN_POINT ( 'NONE',  ( 0.05905500000000001720, 7.232151672364695422E-18, 1.481062999999999574 ) ) ;
#79 = CLOSED_SHELL ( 'NONE', ( #247, #46, #67, #167, #183, #64, #222, #153 ) ) ;
#80 = DIRECTION ( 'NONE',  ( 1.000000000000000000, 0.0000000000000000000, -0.0000000000000000000 ) ) ;
#81 = CARTESIAN_POINT ( 'NONE',  ( 0.05905500000000001720, 7.232151672364695422E-18, 1.496062999999999921 ) ) ;
#82 = AXIS2_PLACEMENT_3D ( 'NONE', #212, #4, #9 ) ;
#83 = VERTEX_POINT ( 'NONE', #10 ) ;
#84 = AXIS2_PLACEMENT_3D ( 'NONE', #22, #115, #3 ) ;
#85 = ORIENTED_EDGE ( 'NONE', *, *, #157, .T. ) ;
#86 = SURFACE_STYLE_FILL_AREA ( #70 ) ;
#87 = ORIENTED_EDGE ( 'NONE', *, *, #73, .F. ) ;
#88 = ORIENTED_EDGE ( 'NONE', *, *, #113, .T. ) ;
#89 = VECTOR ( 'NONE', #32, 39.37007874015748143 ) ;
#90 = EDGE_CURVE ( 'NONE', #241, #35, #208, .T. ) ;
#91 = ORIENTED_EDGE ( 'NONE', *, *, #29, .T. ) ;
#92 = DIRECTION ( 'NONE',  ( 1.000000000000000000, 0.0000000000000000000, 0.0000000000000000000 ) ) ;
#93 =( NAMED_UNIT ( * ) SI_UNIT ( $, .STERADIAN. ) SOLID_ANGLE_UNIT ( ) );
#94 = VECTOR ( 'NONE', #77, 39.37007874015748143 ) ;
#95 = FACE_OUTER_BOUND ( 'NONE', #211, .T. ) ;
#96 =( GEOMETRIC_REPRESENTATION_CONTEXT ( 3 ) GLOBAL_UNCERTAINTY_ASSIGNED_CONTEXT ( ( #140 ) ) GLOBAL_UNIT_ASSIGNED_CONTEXT ( ( #129, #16, #93 ) ) REPRESENTATION_CONTEXT ( 'NONE', 'WORKASPACE' ) );
#97 = CARTESIAN_POINT ( 'NONE',  ( 0.0000000000000000000, 0.0000000000000000000, 1.496062999999999921 ) ) ;
#98 = ADVANCED_BREP_SHAPE_REPRESENTATION ( 'Micro_RNCM-030-1', ( #236, #154 ), #150 ) ;
#99 = FACE_OUTER_BOUND ( 'NONE', #30, .T. ) ;
#100 = CONICAL_SURFACE ( 'NONE', #7, 0.04405499999999974020, 0.7853981633974491672 ) ;
#101 = DIRECTION ( 'NONE',  ( -0.0000000000000000000, -0.0000000000000000000, -1.000000000000000000 ) ) ;
#102 = CARTESIAN_POINT ( 'NONE',  ( 0.05905499999999998251, 7.232151672364692341E-18, 0.05511799999999983379 ) ) ;
#103 = ORIENTED_EDGE ( 'NONE', *, *, #196, .F. ) ;
#104 = ORIENTED_EDGE ( 'NONE', *, *, #196, .T. ) ;
#105 = AXIS2_PLACEMENT_3D ( 'NONE', #43, #193, #152 ) ;
#106 = EDGE_LOOP ( 'NONE', ( #217, #165, #85, #220 ) ) ;
#107 = AXIS2_PLACEMENT_3D ( 'NONE', #40, #25, #195 ) ;
#108 = AXIS2_PLACEMENT_3D ( 'NONE', #124, #164, #234 ) ;
#109 = CARTESIAN_POINT ( 'NONE',  ( 0.0000000000000000000, 0.0000000000000000000, 0.0000000000000000000 ) ) ;
#110 = EDGE_CURVE ( 'NONE', #184, #71, #185, .T. ) ;
#111 = CONICAL_SURFACE ( 'NONE', #178, 0.003936999999999995191, 0.7853981633974497223 ) ;
#112 =( NAMED_UNIT ( * ) PLANE_ANGLE_UNIT ( ) SI_UNIT ( $, .RADIAN. ) );
#113 = EDGE_CURVE ( 'NONE', #125, #83, #42, .T. ) ;
#114 = LINE ( 'NONE', #172, #229 ) ;
#115 = DIRECTION ( 'NONE',  ( 0.0000000000000000000, 0.0000000000000000000, 1.000000000000000000 ) ) ;
#116 = ORIENTED_EDGE ( 'NONE', *, *, #90, .F. ) ;
#117 = ORIENTED_EDGE ( 'NONE', *, *, #21, .F. ) ;
#118 = MECHANICAL_DESIGN_GEOMETRIC_PRESENTATION_REPRESENTATION (  '', ( #49 ), #96 ) ;
#119 = CARTESIAN_POINT ( 'NONE',  ( -0.05905500000000001720, 0.0000000000000000000, 1.481062999999999574 ) ) ;
#120 = DIRECTION ( 'NONE',  ( -1.000000000000000000, 0.0000000000000000000, 0.0000000000000000000 ) ) ;
#121 = DIRECTION ( 'NONE',  ( 0.0000000000000000000, 0.0000000000000000000, 1.000000000000000000 ) ) ;
#122 = EDGE_CURVE ( 'NONE', #233, #201, #214, .T. ) ;
#123 = ORIENTED_EDGE ( 'NONE', *, *, #110, .T. ) ;
#124 = CARTESIAN_POINT ( 'NONE',  ( 0.0000000000000000000, 0.0000000000000000000, 0.0000000000000000000 ) ) ;
#125 = VERTEX_POINT ( 'NONE', #65 ) ;
#126 = PRODUCT_DEFINITION ( 'UNKNOWN', '', #128, #147 ) ;
#127 = DIRECTION ( 'NONE',  ( 1.000000000000000000, 0.0000000000000000000, 0.0000000000000000000 ) ) ;
#128 = PRODUCT_DEFINITION_FORMATION_WITH_SPECIFIED_SOURCE ( 'ANY', '', #137, .NOT_KNOWN. ) ;
#129 =( CONVERSION_BASED_UNIT ( 'INCH', #15 ) LENGTH_UNIT ( ) NAMED_UNIT ( #190 ) );
#130 = CARTESIAN_POINT ( 'NONE',  ( 0.0000000000000000000, 0.0000000000000000000, 0.0000000000000000000 ) ) ;
#131 =( CONVERSION_BASED_UNIT ( 'INCH', #199 ) LENGTH_UNIT ( ) NAMED_UNIT ( #34 ) );
#132 = APPLICATION_CONTEXT ( 'automotive_design' ) ;
#133 = DIRECTION ( 'NONE',  ( 0.0000000000000000000, 0.0000000000000000000, 1.000000000000000000 ) ) ;
#134 = STYLED_ITEM ( 'NONE', ( #161 ), #236 ) ;
#135 = CARTESIAN_POINT ( 'NONE',  ( -0.003936999999999995191, 4.821434448243123477E-19, 0.0000000000000000000 ) ) ;
#136 = EDGE_CURVE ( 'NONE', #83, #241, #24, .T. ) ;
#137 = PRODUCT ( 'Micro_RNCM-030-1', 'Micro_RNCM-030-1', '', ( #36 ) ) ;
#138 = PLANE ( 'NONE',  #82 ) ;
#139 = AXIS2_PLACEMENT_3D ( 'NONE', #62, #156, #47 ) ;
#140 = UNCERTAINTY_MEASURE_WITH_UNIT (LENGTH_MEASURE( 1.000000000000000082E-05 ), #129, 'distance_accuracy_value', 'NONE');
#141 = DIRECTION ( 'NONE',  ( 0.0000000000000000000, 0.0000000000000000000, -1.000000000000000000 ) ) ;
#142 = CYLINDRICAL_SURFACE ( 'NONE', #163, 0.05905500000000001720 ) ;
#143 = VECTOR ( 'NONE', #57, 39.37007874015748143 ) ;
#144 = ORIENTED_EDGE ( 'NONE', *, *, #227, .F. ) ;
#145 = CARTESIAN_POINT ( 'NONE',  ( -0.05905499999999998251, 0.0000000000000000000, 0.05511799999999983379 ) ) ;
#146 =( NAMED_UNIT ( * ) SI_UNIT ( $, .STERADIAN. ) SOLID_ANGLE_UNIT ( ) );
#147 = PRODUCT_DEFINITION_CONTEXT ( 'detailed design', #149, 'design' ) ;
#148 = CYLINDRICAL_SURFACE ( 'NONE', #107, 0.05905500000000001720 ) ;
#149 = APPLICATION_CONTEXT ( 'automotive_design' ) ;
#150 =( GEOMETRIC_REPRESENTATION_CONTEXT ( 3 ) GLOBAL_UNCERTAINTY_ASSIGNED_CONTEXT ( ( #226 ) ) GLOBAL_UNIT_ASSIGNED_CONTEXT ( ( #56, #74, #224 ) ) REPRESENTATION_CONTEXT ( 'NONE', 'WORKASPACE' ) );
#151 = DIRECTION ( 'NONE',  ( -1.000000000000000000, 0.0000000000000000000, 0.0000000000000000000 ) ) ;
#152 = DIRECTION ( 'NONE',  ( -1.000000000000000000, 0.0000000000000000000, 0.0000000000000000000 ) ) ;
#153 = ADVANCED_FACE ( 'NONE', ( #175 ), #138, .F. ) ;
#154 = AXIS2_PLACEMENT_3D ( 'NONE', #130, #204, #19 ) ;
#155 = ORIENTED_EDGE ( 'NONE', *, *, #44, .T. ) ;
#156 = DIRECTION ( 'NONE',  ( 0.0000000000000000000, 0.0000000000000000000, -1.000000000000000000 ) ) ;
#157 = EDGE_CURVE ( 'NONE', #125, #35, #198, .T. ) ;
#158 = DIRECTION ( 'NONE',  ( -1.000000000000000000, 0.0000000000000000000, 0.0000000000000000000 ) ) ;
#159 = DIRECTION ( 'NONE',  ( 0.0000000000000000000, 0.0000000000000000000, -1.000000000000000000 ) ) ;
#160 = EDGE_CURVE ( 'NONE', #71, #201, #23, .T. ) ;
#161 = PRESENTATION_STYLE_ASSIGNMENT (( #221 ) ) ;
#162 = CARTESIAN_POINT ( 'NONE',  ( 0.003936999999999995191, 0.0000000000000000000, 0.0000000000000000000 ) ) ;
#163 = AXIS2_PLACEMENT_3D ( 'NONE', #54, #200, #26 ) ;
#164 = DIRECTION ( 'NONE',  ( -0.0000000000000000000, -0.0000000000000000000, -1.000000000000000000 ) ) ;
#165 = ORIENTED_EDGE ( 'NONE', *, *, #113, .F. ) ;
#166 = FACE_OUTER_BOUND ( 'NONE', #246, .T. ) ;
#167 = ADVANCED_FACE ( 'NONE', ( #95 ), #148, .T. ) ;
#168 = FILL_AREA_STYLE_COLOUR ( '', #60 ) ;
#169 = CONICAL_SURFACE ( 'NONE', #5, 0.003936999999999995191, 0.7853981633974497223 ) ;
#170 = FACE_OUTER_BOUND ( 'NONE', #27, .T. ) ;
#171 = EDGE_CURVE ( 'NONE', #201, #35, #228, .T. ) ;
#172 = CARTESIAN_POINT ( 'NONE',  ( -0.04405499999999974020, 0.0000000000000000000, 1.496062999999999921 ) ) ;
#173 =( GEOMETRIC_REPRESENTATION_CONTEXT ( 3 ) GLOBAL_UNCERTAINTY_ASSIGNED_CONTEXT ( ( #33 ) ) GLOBAL_UNIT_ASSIGNED_CONTEXT ( ( #131, #112, #146 ) ) REPRESENTATION_CONTEXT ( 'NONE', 'WORKASPACE' ) );
#174 = CARTESIAN_POINT ( 'NONE',  ( 0.0000000000000000000, 0.0000000000000000000, 0.0000000000000000000 ) ) ;
#175 = FACE_OUTER_BOUND ( 'NONE', #240, .T. ) ;
#176 = CARTESIAN_POINT ( 'NONE',  ( 0.0000000000000000000, 0.0000000000000000000, 1.496062999999999921 ) ) ;
#177 = MECHANICAL_DESIGN_GEOMETRIC_PRESENTATION_REPRESENTATION (  '', ( #134 ), #173 ) ;
#178 = AXIS2_PLACEMENT_3D ( 'NONE', #174, #133, #207 ) ;
#179 = EDGE_LOOP ( 'NONE', ( #51, #14, #231, #103 ) ) ;
#180 = CARTESIAN_POINT ( 'NONE',  ( 0.04405499999999974020, 6.313666573004163292E-18, 1.496062999999999921 ) ) ;
#181 = PRODUCT_RELATED_PRODUCT_CATEGORY ( 'part', '', ( #137 ) ) ;
#182 = DIRECTION ( 'NONE',  ( 1.000000000000000000, 0.0000000000000000000, 0.0000000000000000000 ) ) ;
#183 = ADVANCED_FACE ( 'NONE', ( #99 ), #1, .T. ) ;
#184 = VERTEX_POINT ( 'NONE', #63 ) ;
#185 = CIRCLE ( 'NONE', #84, 0.04405499999999974020 ) ;
#186 =( LENGTH_UNIT ( ) NAMED_UNIT ( * ) SI_UNIT ( $, .METRE. ) );
#187 = DIRECTION ( 'NONE',  ( 0.0000000000000000000, 0.0000000000000000000, 1.000000000000000000 ) ) ;
#188 = VECTOR ( 'NONE', #45, 39.37007874015748854 ) ;
#189 = AXIS2_PLACEMENT_3D ( 'NONE', #58, #206, #151 ) ;
#190 = DIMENSIONAL_EXPONENTS ( 1.000000000000000000, 0.0000000000000000000, 0.0000000000000000000, 0.0000000000000000000, 0.0000000000000000000, 0.0000000000000000000, 0.0000000000000000000 ) ;
#191 = FACE_OUTER_BOUND ( 'NONE', #106, .T. ) ;
#192 = AXIS2_PLACEMENT_3D ( 'NONE', #97, #39, #80 ) ;
#193 = DIRECTION ( 'NONE',  ( -0.0000000000000000000, -0.0000000000000000000, -1.000000000000000000 ) ) ;
#194 = ORIENTED_EDGE ( 'NONE', *, *, #73, .T. ) ;
#195 = DIRECTION ( 'NONE',  ( -1.000000000000000000, 0.0000000000000000000, 0.0000000000000000000 ) ) ;
#196 = EDGE_CURVE ( 'NONE', #184, #233, #114, .T. ) ;
#197 =( LENGTH_UNIT ( ) NAMED_UNIT ( * ) SI_UNIT ( $, .METRE. ) );
#198 = LINE ( 'NONE', #162, #188 ) ;
#199 = LENGTH_MEASURE_WITH_UNIT ( LENGTH_MEASURE( 0.02539999999999999897 ), #197 );
#200 = DIRECTION ( 'NONE',  ( -0.0000000000000000000, -0.0000000000000000000, -1.000000000000000000 ) ) ;
#201 = VERTEX_POINT ( 'NONE', #78 ) ;
#202 =( LENGTH_UNIT ( ) NAMED_UNIT ( * ) SI_UNIT ( $, .METRE. ) );
#203 = SURFACE_SIDE_STYLE ('',( #37 ) ) ;
#204 = DIRECTION ( 'NONE',  ( 0.0000000000000000000, 0.0000000000000000000, 1.000000000000000000 ) ) ;
#205 = DIMENSIONAL_EXPONENTS ( 1.000000000000000000, 0.0000000000000000000, 0.0000000000000000000, 0.0000000000000000000, 0.0000000000000000000, 0.0000000000000000000, 0.0000000000000000000 ) ;
#206 = DIRECTION ( 'NONE',  ( -0.0000000000000000000, -0.0000000000000000000, -1.000000000000000000 ) ) ;
#207 = DIRECTION ( 'NONE',  ( 1.000000000000000000, 0.0000000000000000000, 0.0000000000000000000 ) ) ;
#208 = CIRCLE ( 'NONE', #189, 0.05905499999999998251 ) ;
#209 = AXIS2_PLACEMENT_3D ( 'NONE', #176, #121, #92 ) ;
#210 = SHAPE_DEFINITION_REPRESENTATION ( #235, #98 ) ;
#211 = EDGE_LOOP ( 'NONE', ( #69, #218, #194, #144 ) ) ;
#212 = CARTESIAN_POINT ( 'NONE',  ( 0.0000000000000000000, 0.0000000000000000000, 0.0000000000000000000 ) ) ;
#213 = CARTESIAN_POINT ( 'NONE',  ( 0.0000000000000000000, 0.0000000000000000000, 1.496062999999999921 ) ) ;
#214 = CIRCLE ( 'NONE', #139, 0.05905500000000001720 ) ;
#215 = AXIS2_PLACEMENT_3D ( 'NONE', #68, #141, #182 ) ;
#216 = FILL_AREA_STYLE_COLOUR ( '', #232 ) ;
#217 = ORIENTED_EDGE ( 'NONE', *, *, #136, .F. ) ;
#218 = ORIENTED_EDGE ( 'NONE', *, *, #21, .T. ) ;
#219 = VECTOR ( 'NONE', #41, 39.37007874015748854 ) ;
#220 = ORIENTED_EDGE ( 'NONE', *, *, #227, .T. ) ;
#221 = SURFACE_STYLE_USAGE ( .BOTH. , #11 ) ;
#222 = ADVANCED_FACE ( 'NONE', ( #191 ), #111, .T. ) ;
#223 = EDGE_LOOP ( 'NONE', ( #31, #61, #104, #117 ) ) ;
#224 =( NAMED_UNIT ( * ) SI_UNIT ( $, .STERADIAN. ) SOLID_ANGLE_UNIT ( ) );
#225 = FILL_AREA_STYLE ('',( #168 ) ) ;
#226 = UNCERTAINTY_MEASURE_WITH_UNIT (LENGTH_MEASURE( 1.000000000000000082E-05 ), #56, 'distance_accuracy_value', 'NONE');
#227 = EDGE_CURVE ( 'NONE', #35, #241, #245, .T. ) ;
#228 = LINE ( 'NONE', #81, #143 ) ;
#229 = VECTOR ( 'NONE', #59, 39.37007874015748143 ) ;
#230 = CARTESIAN_POINT ( 'NONE',  ( 0.04405499999999974020, 5.395181473643631161E-18, 1.496062999999999921 ) ) ;
#231 = ORIENTED_EDGE ( 'NONE', *, *, #122, .F. ) ;
#232 = COLOUR_RGB ( '',0.7921568627450980005, 0.8196078431372548767, 0.9333333333333333481 ) ;
#233 = VERTEX_POINT ( 'NONE', #119 ) ;
#234 = DIRECTION ( 'NONE',  ( -1.000000000000000000, 0.0000000000000000000, 0.0000000000000000000 ) ) ;
#235 = PRODUCT_DEFINITION_SHAPE ( 'NONE', 'NONE',  #126 ) ;
#236 = MANIFOLD_SOLID_BREP ( 'Cut-Revolve1', #79 ) ;
#237 = DIRECTION ( 'NONE',  ( -1.000000000000000000, 0.0000000000000000000, 0.0000000000000000000 ) ) ;
#238 = CONICAL_SURFACE ( 'NONE', #75, 0.04405499999999974020, 0.7853981633974491672 ) ;
#239 = ORIENTED_EDGE ( 'NONE', *, *, #171, .T. ) ;
#240 = EDGE_LOOP ( 'NONE', ( #88, #155 ) ) ;
#241 = VERTEX_POINT ( 'NONE', #145 ) ;
#242 = ORIENTED_EDGE ( 'NONE', *, *, #90, .T. ) ;
#243 = CARTESIAN_POINT ( 'NONE',  ( -0.05905500000000001720, 0.0000000000000000000, 1.496062999999999921 ) ) ;
#244 = ORIENTED_EDGE ( 'NONE', *, *, #136, .T. ) ;
#245 = CIRCLE ( 'NONE', #105, 0.05905499999999998251 ) ;
#246 = EDGE_LOOP ( 'NONE', ( #53, #239, #116, #87 ) ) ;
#247 = ADVANCED_FACE ( 'NONE', ( #170 ), #169, .T. ) ;
#248 = CIRCLE ( 'NONE', #108, 0.003936999999999995191 ) ;
#249 = APPLICATION_PROTOCOL_DEFINITION ( 'draft international standard', 'automotive_design', 1998, #132 ) ;
ENDSEC;
END-ISO-10303-21;
