ISO-10303-21;
HEADER;
FILE_DESCRIPTION (( 'STEP AP214' ),
    '1' );
FILE_NAME ('Micro_SFPM-100-20.STEP',
    '2021-09-02T07:42:06',
    ( '' ),
    ( '' ),
    'SwSTEP 2.0',
    'SolidWorks 2020',
    '' );
FILE_SCHEMA (( 'AUTOMOTIVE_DESIGN' ));
ENDSEC;

DATA;
#1 = LINE ( 'NONE', #36, #160 ) ;
#2 = ORIENTED_EDGE ( 'NONE', *, *, #199, .T. ) ;
#3 = CARTESIAN_POINT ( 'NONE',  ( -0.1966536494999997775, 2.409517985681882908E-17, 2.165353999999999779 ) ) ;
#4 = FILL_AREA_STYLE_COLOUR ( '', #20 ) ;
#5 = ORIENTED_EDGE ( 'NONE', *, *, #136, .F. ) ;
#6 = CARTESIAN_POINT ( 'NONE',  ( -0.1966536494999999996, 0.0000000000000000000, 4.816625248016410340E-17 ) ) ;
#7 = CYLINDRICAL_SURFACE ( 'NONE', #123, 0.1966536495000000273 ) ;
#8 = FILL_AREA_STYLE ('',( #4 ) ) ;
#9 = ORIENTED_EDGE ( 'NONE', *, *, #173, .F. ) ;
#10 = DIRECTION ( 'NONE',  ( -1.000000000000000000, 0.0000000000000000000, 1.224646799147353207E-16 ) ) ;
#11 = AXIS2_PLACEMENT_3D ( 'NONE', #203, #285, #232 ) ;
#12 = AXIS2_PLACEMENT_3D ( 'NONE', #193, #126, #68 ) ;
#13 = ORIENTED_EDGE ( 'NONE', *, *, #261, .T. ) ;
#14 = AXIS2_PLACEMENT_3D ( 'NONE', #224, #233, #274 ) ;
#15 = ORIENTED_EDGE ( 'NONE', *, *, #261, .F. ) ;
#16 = CARTESIAN_POINT ( 'NONE',  ( 2.949332346337811403E-33, 0.0000000000000000000, 2.408312624008205170E-17 ) ) ;
#17 =( NAMED_UNIT ( * ) PLANE_ANGLE_UNIT ( ) SI_UNIT ( $, .RADIAN. ) );
#18 = DIRECTION ( 'NONE',  ( -1.224646799147353207E-16, -0.0000000000000000000, -1.000000000000000000 ) ) ;
#19 = AXIS2_PLACEMENT_3D ( 'NONE', #262, #140, #146 ) ;
#20 = COLOUR_RGB ( '',0.7921568627450980005, 0.8196078431372548767, 0.9333333333333333481 ) ;
#21 = DIMENSIONAL_EXPONENTS ( 1.000000000000000000, 0.0000000000000000000, 0.0000000000000000000, 0.0000000000000000000, 0.0000000000000000000, 0.0000000000000000000, 0.0000000000000000000 ) ;
#22 = CYLINDRICAL_SURFACE ( 'NONE', #113, 0.1966536495000000273 ) ;
#23 = CARTESIAN_POINT ( 'NONE',  ( 0.0000000000000000000, 0.0000000000000000000, 3.937007999999999619 ) ) ;
#24 = MECHANICAL_DESIGN_GEOMETRIC_PRESENTATION_REPRESENTATION (  '', ( #257 ), #99 ) ;
#25 = VECTOR ( 'NONE', #168, 39.37007874015748854 ) ;
#26 = CARTESIAN_POINT ( 'NONE',  ( 2.949332346337811403E-33, 0.0000000000000000000, 2.408312624008205170E-17 ) ) ;
#27 = ORIENTED_EDGE ( 'NONE', *, *, #105, .F. ) ;
#28 = DIRECTION ( 'NONE',  ( -1.224646799147353207E-16, -0.0000000000000000000, -1.000000000000000000 ) ) ;
#29 = EDGE_CURVE ( 'NONE', #144, #176, #178, .T. ) ;
#30 = DIRECTION ( 'NONE',  ( 0.0000000000000000000, 0.0000000000000000000, 1.000000000000000000 ) ) ;
#31 = UNCERTAINTY_MEASURE_WITH_UNIT (LENGTH_MEASURE( 1.000000000000000082E-05 ), #214, 'distance_accuracy_value', 'NONE');
#32 = PRESENTATION_LAYER_ASSIGNMENT (  '', '', ( #257 ) ) ;
#33 = DIRECTION ( 'NONE',  ( -1.224646799147353207E-16, -0.0000000000000000000, -1.000000000000000000 ) ) ;
#34 = ORIENTED_EDGE ( 'NONE', *, *, #267, .T. ) ;
#35 = CARTESIAN_POINT ( 'NONE',  ( -0.1968504999999997340, 0.0000000000000000000, 2.166470394661832000 ) ) ;
#36 = CARTESIAN_POINT ( 'NONE',  ( 0.1966536495000003049, 0.0000000000000000000, 2.165353999999999779 ) ) ;
#37 = VECTOR ( 'NONE', #56, 39.37007874015748143 ) ;
#38 = EDGE_LOOP ( 'NONE', ( #281, #291 ) ) ;
#39 = CARTESIAN_POINT ( 'NONE',  ( 0.1966536495000000273, 2.408312624008205478E-17, -2.408312624008205478E-17 ) ) ;
#40 = SURFACE_STYLE_FILL_AREA ( #239 ) ;
#41 = ORIENTED_EDGE ( 'NONE', *, *, #43, .T. ) ;
#42 = EDGE_CURVE ( 'NONE', #204, #229, #84, .T. ) ;
#43 = EDGE_CURVE ( 'NONE', #286, #74, #231, .T. ) ;
#44 = DIRECTION ( 'NONE',  ( -1.000000000000000000, 0.0000000000000000000, 0.0000000000000000000 ) ) ;
#45 = UNCERTAINTY_MEASURE_WITH_UNIT (LENGTH_MEASURE( 1.000000000000000082E-05 ), #85, 'distance_accuracy_value', 'NONE');
#46 = EDGE_CURVE ( 'NONE', #204, #120, #66, .T. ) ;
#47 = APPLICATION_PROTOCOL_DEFINITION ( 'draft international standard', 'automotive_design', 1998, #263 ) ;
#48 = EDGE_LOOP ( 'NONE', ( #217, #34, #179, #27 ) ) ;
#49 = DIRECTION ( 'NONE',  ( 1.000000000000000000, 0.0000000000000000000, 0.0000000000000000000 ) ) ;
#50 = EDGE_LOOP ( 'NONE', ( #107, #83, #118, #223 ) ) ;
#51 = DIRECTION ( 'NONE',  ( 0.7071067811865419106, 8.659560562354863833E-17, -0.7071067811865531239 ) ) ;
#52 = CARTESIAN_POINT ( 'NONE',  ( 0.0000000000000000000, 0.0000000000000000000, 3.937007999999999619 ) ) ;
#53 = CIRCLE ( 'NONE', #164, 0.1966536494999999996 ) ;
#54 = DIRECTION ( 'NONE',  ( -1.224646799147353207E-16, -0.0000000000000000000, -1.000000000000000000 ) ) ;
#55 = ORIENTED_EDGE ( 'NONE', *, *, #96, .T. ) ;
#56 = DIRECTION ( 'NONE',  ( -0.0000000000000000000, -0.0000000000000000000, -1.000000000000000000 ) ) ;
#57 = CLOSED_SHELL ( 'NONE', ( #278, #103, #268, #150, #115, #294, #290, #213, #152, #63 ) ) ;
#58 =( CONVERSION_BASED_UNIT ( 'INCH', #130 ) LENGTH_UNIT ( ) NAMED_UNIT ( #21 ) );
#59 = AXIS2_PLACEMENT_3D ( 'NONE', #119, #184, #88 ) ;
#60 =( LENGTH_UNIT ( ) NAMED_UNIT ( * ) SI_UNIT ( $, .METRE. ) );
#61 = EDGE_CURVE ( 'NONE', #120, #131, #111, .T. ) ;
#62 = DIRECTION ( 'NONE',  ( 0.0000000000000000000, 0.0000000000000000000, -1.000000000000000000 ) ) ;
#63 = ADVANCED_FACE ( 'NONE', ( #86 ), #79, .F. ) ;
#64 = CARTESIAN_POINT ( 'NONE',  ( 2.651793845120917627E-16, 0.0000000000000000000, 2.165353999999999779 ) ) ;
#65 = AXIS2_PLACEMENT_3D ( 'NONE', #26, #200, #198 ) ;
#66 = CIRCLE ( 'NONE', #221, 0.1968504999999999838 ) ;
#67 = PRODUCT ( 'Micro_SFPM-100-20', 'Micro_SFPM-100-20', '', ( #189 ) ) ;
#68 = DIRECTION ( 'NONE',  ( 1.000000000000000000, 0.0000000000000000000, 0.0000000000000000000 ) ) ;
#69 = FACE_OUTER_BOUND ( 'NONE', #195, .T. ) ;
#70 = CARTESIAN_POINT ( 'NONE',  ( -0.1968504999999999838, 0.0000000000000000000, 3.937007999999999619 ) ) ;
#71 = ORIENTED_EDGE ( 'NONE', *, *, #191, .F. ) ;
#72 = DIRECTION ( 'NONE',  ( -1.000000000000000000, 0.0000000000000000000, 0.0000000000000000000 ) ) ;
#73 = SURFACE_SIDE_STYLE ('',( #260 ) ) ;
#74 = VERTEX_POINT ( 'NONE', #249 ) ;
#75 = LINE ( 'NONE', #255, #258 ) ;
#76 = CARTESIAN_POINT ( 'NONE',  ( 0.0000000000000000000, 0.0000000000000000000, 3.922007999999999051 ) ) ;
#77 = DIRECTION ( 'NONE',  ( -1.224646799147353207E-16, -0.0000000000000000000, -1.000000000000000000 ) ) ;
#78 = CIRCLE ( 'NONE', #142, 0.1818504999999994431 ) ;
#79 = PLANE ( 'NONE',  #90 ) ;
#80 = EDGE_CURVE ( 'NONE', #211, #74, #53, .T. ) ;
#81 = ORIENTED_EDGE ( 'NONE', *, *, #29, .F. ) ;
#82 = MECHANICAL_DESIGN_GEOMETRIC_PRESENTATION_REPRESENTATION (  '', ( #265 ), #194 ) ;
#83 = ORIENTED_EDGE ( 'NONE', *, *, #236, .T. ) ;
#84 = LINE ( 'NONE', #70, #295 ) ;
#85 =( CONVERSION_BASED_UNIT ( 'INCH', #185 ) LENGTH_UNIT ( ) NAMED_UNIT ( #183 ) );
#86 = FACE_OUTER_BOUND ( 'NONE', #38, .T. ) ;
#87 = CARTESIAN_POINT ( 'NONE',  ( 0.0000000000000000000, 0.0000000000000000000, 0.0000000000000000000 ) ) ;
#88 = DIRECTION ( 'NONE',  ( 1.000000000000000000, 0.0000000000000000000, 0.0000000000000000000 ) ) ;
#89 = CARTESIAN_POINT ( 'NONE',  ( 2.651793845120917627E-16, 0.0000000000000000000, 2.165353999999999779 ) ) ;
#90 = AXIS2_PLACEMENT_3D ( 'NONE', #143, #158, #129 ) ;
#91 = FACE_OUTER_BOUND ( 'NONE', #48, .T. ) ;
#92 = ORIENTED_EDGE ( 'NONE', *, *, #191, .T. ) ;
#93 = DIRECTION ( 'NONE',  ( -1.224646799147353207E-16, -0.0000000000000000000, -1.000000000000000000 ) ) ;
#94 = FACE_OUTER_BOUND ( 'NONE', #122, .T. ) ;
#95 = SURFACE_STYLE_USAGE ( .BOTH. , #73 ) ;
#96 = EDGE_CURVE ( 'NONE', #229, #131, #215, .T. ) ;
#97 = CARTESIAN_POINT ( 'NONE',  ( 2.651793845120917627E-16, 0.0000000000000000000, 2.165353999999999779 ) ) ;
#98 = PRESENTATION_STYLE_ASSIGNMENT (( #95 ) ) ;
#99 =( GEOMETRIC_REPRESENTATION_CONTEXT ( 3 ) GLOBAL_UNCERTAINTY_ASSIGNED_CONTEXT ( ( #159 ) ) GLOBAL_UNIT_ASSIGNED_CONTEXT ( ( #58, #17, #196 ) ) REPRESENTATION_CONTEXT ( 'NONE', 'WORKASPACE' ) );
#100 = EDGE_LOOP ( 'NONE', ( #240, #279, #264, #167 ) ) ;
#101 = CARTESIAN_POINT ( 'NONE',  ( -0.1818504999999994431, 0.0000000000000000000, 3.937007999999999619 ) ) ;
#102 = VECTOR ( 'NONE', #28, 39.37007874015748143 ) ;
#103 = ADVANCED_FACE ( 'NONE', ( #162 ), #210, .T. ) ;
#104 = ORIENTED_EDGE ( 'NONE', *, *, #236, .F. ) ;
#105 = EDGE_CURVE ( 'NONE', #74, #211, #197, .T. ) ;
#106 = ADVANCED_BREP_SHAPE_REPRESENTATION ( 'Micro_SFPM-100-20', ( #297, #19 ), #141 ) ;
#107 = ORIENTED_EDGE ( 'NONE', *, *, #61, .F. ) ;
#108 = PRESENTATION_STYLE_ASSIGNMENT (( #293 ) ) ;
#109 = CARTESIAN_POINT ( 'NONE',  ( 0.0000000000000000000, 0.0000000000000000000, 3.937007999999999619 ) ) ;
#110 =( NAMED_UNIT ( * ) PLANE_ANGLE_UNIT ( ) SI_UNIT ( $, .RADIAN. ) );
#111 = LINE ( 'NONE', #247, #37 ) ;
#112 = AXIS2_PLACEMENT_3D ( 'NONE', #226, #33, #170 ) ;
#113 = AXIS2_PLACEMENT_3D ( 'NONE', #87, #18, #288 ) ;
#114 = AXIS2_PLACEMENT_3D ( 'NONE', #97, #77, #172 ) ;
#115 = ADVANCED_FACE ( 'NONE', ( #182 ), #266, .T. ) ;
#116 = CARTESIAN_POINT ( 'NONE',  ( 0.1968505000000002614, 2.410723347355563419E-17, 2.166470394661832000 ) ) ;
#117 = AXIS2_PLACEMENT_3D ( 'NONE', #209, #124, #72 ) ;
#118 = ORIENTED_EDGE ( 'NONE', *, *, #42, .T. ) ;
#119 = CARTESIAN_POINT ( 'NONE',  ( 2.653161034270115535E-16, 0.0000000000000000000, 2.166470394661832000 ) ) ;
#120 = VERTEX_POINT ( 'NONE', #245 ) ;
#121 = CARTESIAN_POINT ( 'NONE',  ( 0.1818504999999994431, 2.318874837419505661E-17, 3.937007999999999619 ) ) ;
#122 = EDGE_LOOP ( 'NONE', ( #9, #273, #135, #2 ) ) ;
#123 = AXIS2_PLACEMENT_3D ( 'NONE', #277, #188, #10 ) ;
#124 = DIRECTION ( 'NONE',  ( -0.0000000000000000000, -0.0000000000000000000, -1.000000000000000000 ) ) ;
#125 = ORIENTED_EDGE ( 'NONE', *, *, #220, .F. ) ;
#126 = DIRECTION ( 'NONE',  ( 0.0000000000000000000, 0.0000000000000000000, -1.000000000000000000 ) ) ;
#127 = CARTESIAN_POINT ( 'NONE',  ( -0.1966536495000000273, 0.0000000000000000000, 2.408312624008205478E-17 ) ) ;
#128 = CIRCLE ( 'NONE', #12, 0.1968504999999999838 ) ;
#129 = DIRECTION ( 'NONE',  ( 1.000000000000000000, 0.0000000000000000000, -0.0000000000000000000 ) ) ;
#130 = LENGTH_MEASURE_WITH_UNIT ( LENGTH_MEASURE( 0.02539999999999999897 ), #227 );
#131 = VERTEX_POINT ( 'NONE', #116 ) ;
#132 = PRODUCT_DEFINITION_FORMATION_WITH_SPECIFIED_SOURCE ( 'ANY', '', #67, .NOT_KNOWN. ) ;
#133 = VECTOR ( 'NONE', #230, 39.37007874015748143 ) ;
#134 =( NAMED_UNIT ( * ) SI_UNIT ( $, .STERADIAN. ) SOLID_ANGLE_UNIT ( ) );
#135 = ORIENTED_EDGE ( 'NONE', *, *, #137, .T. ) ;
#136 = EDGE_CURVE ( 'NONE', #147, #211, #270, .T. ) ;
#137 = EDGE_CURVE ( 'NONE', #286, #131, #1, .T. ) ;
#138 = CONICAL_SURFACE ( 'NONE', #11, 0.1818504999999994431, 0.7853981633974403964 ) ;
#139 = DIRECTION ( 'NONE',  ( -1.224646799147353207E-16, -0.0000000000000000000, -1.000000000000000000 ) ) ;
#140 = DIRECTION ( 'NONE',  ( 0.0000000000000000000, 0.0000000000000000000, 1.000000000000000000 ) ) ;
#141 =( GEOMETRIC_REPRESENTATION_CONTEXT ( 3 ) GLOBAL_UNCERTAINTY_ASSIGNED_CONTEXT ( ( #31 ) ) GLOBAL_UNIT_ASSIGNED_CONTEXT ( ( #214, #110, #134 ) ) REPRESENTATION_CONTEXT ( 'NONE', 'WORKASPACE' ) );
#142 = AXIS2_PLACEMENT_3D ( 'NONE', #52, #149, #49 ) ;
#143 = CARTESIAN_POINT ( 'NONE',  ( 0.0000000000000000000, 0.0000000000000000000, 0.0000000000000000000 ) ) ;
#144 = VERTEX_POINT ( 'NONE', #121 ) ;
#145 = CARTESIAN_POINT ( 'NONE',  ( -0.1818504999999994431, 0.0000000000000000000, 3.937007999999999619 ) ) ;
#146 = DIRECTION ( 'NONE',  ( 1.000000000000000000, 0.0000000000000000000, 0.0000000000000000000 ) ) ;
#147 = VERTEX_POINT ( 'NONE', #3 ) ;
#148 = CARTESIAN_POINT ( 'NONE',  ( -0.1966536494999997775, 2.408312624008205478E-17, 2.165353999999999779 ) ) ;
#149 = DIRECTION ( 'NONE',  ( 0.0000000000000000000, 0.0000000000000000000, 1.000000000000000000 ) ) ;
#150 = ADVANCED_FACE ( 'NONE', ( #251 ), #202, .T. ) ;
#151 = FACE_OUTER_BOUND ( 'NONE', #250, .T. ) ;
#152 = ADVANCED_FACE ( 'NONE', ( #91 ), #7, .T. ) ;
#153 = DIRECTION ( 'NONE',  ( 1.000000000000000000, 0.0000000000000000000, 0.0000000000000000000 ) ) ;
#154 = DIRECTION ( 'NONE',  ( 0.0000000000000000000, 0.0000000000000000000, 1.000000000000000000 ) ) ;
#155 =( LENGTH_UNIT ( ) NAMED_UNIT ( * ) SI_UNIT ( $, .METRE. ) );
#156 = EDGE_LOOP ( 'NONE', ( #15, #192, #55, #201 ) ) ;
#157 = CIRCLE ( 'NONE', #180, 0.1966536495000000273 ) ;
#158 = DIRECTION ( 'NONE',  ( 0.0000000000000000000, 0.0000000000000000000, 1.000000000000000000 ) ) ;
#159 = UNCERTAINTY_MEASURE_WITH_UNIT (LENGTH_MEASURE( 1.000000000000000082E-05 ), #58, 'distance_accuracy_value', 'NONE');
#160 = VECTOR ( 'NONE', #206, 39.37007874015747433 ) ;
#161 = DIMENSIONAL_EXPONENTS ( 1.000000000000000000, 0.0000000000000000000, 0.0000000000000000000, 0.0000000000000000000, 0.0000000000000000000, 0.0000000000000000000, 0.0000000000000000000 ) ;
#162 = FACE_OUTER_BOUND ( 'NONE', #156, .T. ) ;
#163 = VECTOR ( 'NONE', #139, 39.37007874015748143 ) ;
#164 = AXIS2_PLACEMENT_3D ( 'NONE', #16, #93, #171 ) ;
#165 = FACE_OUTER_BOUND ( 'NONE', #292, .T. ) ;
#166 = PRODUCT_RELATED_PRODUCT_CATEGORY ( 'part', '', ( #67 ) ) ;
#167 = ORIENTED_EDGE ( 'NONE', *, *, #42, .F. ) ;
#168 = DIRECTION ( 'NONE',  ( -0.1736481776669309418, 2.126576849575780543E-17, 0.9848077530122080203 ) ) ;
#169 = CARTESIAN_POINT ( 'NONE',  ( 0.1966536495000003049, 0.0000000000000000000, 2.165353999999999779 ) ) ;
#170 = DIRECTION ( 'NONE',  ( 1.000000000000000000, 0.0000000000000000000, 0.0000000000000000000 ) ) ;
#171 = DIRECTION ( 'NONE',  ( -1.000000000000000000, 0.0000000000000000000, 1.224646799147353207E-16 ) ) ;
#172 = DIRECTION ( 'NONE',  ( -1.000000000000000000, 0.0000000000000000000, 0.0000000000000000000 ) ) ;
#173 = EDGE_CURVE ( 'NONE', #147, #229, #282, .T. ) ;
#174 = DIRECTION ( 'NONE',  ( 1.000000000000000000, 0.0000000000000000000, -0.0000000000000000000 ) ) ;
#175 = PRESENTATION_LAYER_ASSIGNMENT (  '', '', ( #265 ) ) ;
#176 = VERTEX_POINT ( 'NONE', #101 ) ;
#177 = EDGE_CURVE ( 'NONE', #176, #144, #78, .T. ) ;
#178 = CIRCLE ( 'NONE', #246, 0.1818504999999994431 ) ;
#179 = ORIENTED_EDGE ( 'NONE', *, *, #136, .T. ) ;
#180 = AXIS2_PLACEMENT_3D ( 'NONE', #259, #54, #187 ) ;
#181 = LENGTH_MEASURE_WITH_UNIT ( LENGTH_MEASURE( 0.02539999999999999897 ), #155 );
#182 = FACE_OUTER_BOUND ( 'NONE', #50, .T. ) ;
#183 = DIMENSIONAL_EXPONENTS ( 1.000000000000000000, 0.0000000000000000000, 0.0000000000000000000, 0.0000000000000000000, 0.0000000000000000000, 0.0000000000000000000, 0.0000000000000000000 ) ;
#184 = DIRECTION ( 'NONE',  ( -1.224646799147353207E-16, -0.0000000000000000000, -1.000000000000000000 ) ) ;
#185 = LENGTH_MEASURE_WITH_UNIT ( LENGTH_MEASURE( 0.02539999999999999897 ), #60 );
#186 = ORIENTED_EDGE ( 'NONE', *, *, #80, .F. ) ;
#187 = DIRECTION ( 'NONE',  ( -1.000000000000000000, 0.0000000000000000000, 0.0000000000000000000 ) ) ;
#188 = DIRECTION ( 'NONE',  ( -1.224646799147353207E-16, -0.0000000000000000000, -1.000000000000000000 ) ) ;
#189 = PRODUCT_CONTEXT ( 'NONE', #263, 'mechanical' ) ;
#190 = DIRECTION ( 'NONE',  ( 1.000000000000000000, 0.0000000000000000000, 0.0000000000000000000 ) ) ;
#191 = EDGE_CURVE ( 'NONE', #144, #120, #75, .T. ) ;
#192 = ORIENTED_EDGE ( 'NONE', *, *, #173, .T. ) ;
#193 = CARTESIAN_POINT ( 'NONE',  ( 0.0000000000000000000, 0.0000000000000000000, 3.922007999999999051 ) ) ;
#194 =( GEOMETRIC_REPRESENTATION_CONTEXT ( 3 ) GLOBAL_UNCERTAINTY_ASSIGNED_CONTEXT ( ( #45 ) ) GLOBAL_UNIT_ASSIGNED_CONTEXT ( ( #85, #228, #242 ) ) REPRESENTATION_CONTEXT ( 'NONE', 'WORKASPACE' ) );
#195 = EDGE_LOOP ( 'NONE', ( #71, #276, #284, #104 ) ) ;
#196 =( NAMED_UNIT ( * ) SI_UNIT ( $, .STERADIAN. ) SOLID_ANGLE_UNIT ( ) );
#197 = CIRCLE ( 'NONE', #65, 0.1966536494999999996 ) ;
#198 = DIRECTION ( 'NONE',  ( -1.000000000000000000, 0.0000000000000000000, 1.224646799147353207E-16 ) ) ;
#199 = EDGE_CURVE ( 'NONE', #131, #229, #234, .T. ) ;
#200 = DIRECTION ( 'NONE',  ( -1.224646799147353207E-16, -0.0000000000000000000, -1.000000000000000000 ) ) ;
#201 = ORIENTED_EDGE ( 'NONE', *, *, #137, .F. ) ;
#202 = CYLINDRICAL_SURFACE ( 'NONE', #117, 0.1968504999999999838 ) ;
#203 = CARTESIAN_POINT ( 'NONE',  ( 0.0000000000000000000, 0.0000000000000000000, 3.937007999999999619 ) ) ;
#204 = VERTEX_POINT ( 'NONE', #205 ) ;
#205 = CARTESIAN_POINT ( 'NONE',  ( -0.1968504999999999838, 0.0000000000000000000, 3.922007999999999051 ) ) ;
#206 = DIRECTION ( 'NONE',  ( 0.1736481776669311916, 0.0000000000000000000, 0.9848077530122080203 ) ) ;
#207 = CARTESIAN_POINT ( 'NONE',  ( 0.0000000000000000000, 0.0000000000000000000, 3.937007999999999619 ) ) ;
#208 = ORIENTED_EDGE ( 'NONE', *, *, #46, .F. ) ;
#209 = CARTESIAN_POINT ( 'NONE',  ( 0.0000000000000000000, 0.0000000000000000000, 3.937007999999999619 ) ) ;
#210 = CONICAL_SURFACE ( 'NONE', #283, 0.1966536495000000273, 0.1745329251994336694 ) ;
#211 = VERTEX_POINT ( 'NONE', #6 ) ;
#212 = FILL_AREA_STYLE_COLOUR ( '', #298 ) ;
#213 = ADVANCED_FACE ( 'NONE', ( #94 ), #289, .T. ) ;
#214 =( CONVERSION_BASED_UNIT ( 'INCH', #181 ) LENGTH_UNIT ( ) NAMED_UNIT ( #161 ) );
#215 = CIRCLE ( 'NONE', #59, 0.1968504999999999838 ) ;
#216 = SURFACE_SIDE_STYLE ('',( #40 ) ) ;
#217 = ORIENTED_EDGE ( 'NONE', *, *, #43, .F. ) ;
#218 = DIRECTION ( 'NONE',  ( 1.000000000000000000, 0.0000000000000000000, 0.0000000000000000000 ) ) ;
#219 = APPLICATION_CONTEXT ( 'automotive_design' ) ;
#220 = EDGE_CURVE ( 'NONE', #176, #204, #280, .T. ) ;
#221 = AXIS2_PLACEMENT_3D ( 'NONE', #76, #62, #153 ) ;
#222 = PRODUCT_DEFINITION ( 'UNKNOWN', '', #132, #272 ) ;
#223 = ORIENTED_EDGE ( 'NONE', *, *, #199, .F. ) ;
#224 = CARTESIAN_POINT ( 'NONE',  ( 0.0000000000000000000, 0.0000000000000000000, 3.937007999999999619 ) ) ;
#225 = PLANE ( 'NONE',  #244 ) ;
#226 = CARTESIAN_POINT ( 'NONE',  ( 2.653161034270115535E-16, 0.0000000000000000000, 2.166470394661832000 ) ) ;
#227 =( LENGTH_UNIT ( ) NAMED_UNIT ( * ) SI_UNIT ( $, .METRE. ) );
#228 =( NAMED_UNIT ( * ) PLANE_ANGLE_UNIT ( ) SI_UNIT ( $, .RADIAN. ) );
#229 = VERTEX_POINT ( 'NONE', #35 ) ;
#230 = DIRECTION ( 'NONE',  ( -0.7071067811865419106, 0.0000000000000000000, -0.7071067811865531239 ) ) ;
#231 = LINE ( 'NONE', #39, #163 ) ;
#232 = DIRECTION ( 'NONE',  ( -1.000000000000000000, 0.0000000000000000000, 0.0000000000000000000 ) ) ;
#233 = DIRECTION ( 'NONE',  ( 0.0000000000000000000, 0.0000000000000000000, -1.000000000000000000 ) ) ;
#234 = CIRCLE ( 'NONE', #112, 0.1968504999999999838 ) ;
#235 = AXIS2_PLACEMENT_3D ( 'NONE', #23, #243, #44 ) ;
#236 = EDGE_CURVE ( 'NONE', #120, #204, #128, .T. ) ;
#237 = ORIENTED_EDGE ( 'NONE', *, *, #29, .T. ) ;
#238 = DIRECTION ( 'NONE',  ( 1.000000000000000000, 0.0000000000000000000, 0.0000000000000000000 ) ) ;
#239 = FILL_AREA_STYLE ('',( #212 ) ) ;
#240 = ORIENTED_EDGE ( 'NONE', *, *, #46, .T. ) ;
#241 = CONICAL_SURFACE ( 'NONE', #14, 0.1818504999999994431, 0.7853981633974403964 ) ;
#242 =( NAMED_UNIT ( * ) SI_UNIT ( $, .STERADIAN. ) SOLID_ANGLE_UNIT ( ) );
#243 = DIRECTION ( 'NONE',  ( -0.0000000000000000000, -0.0000000000000000000, -1.000000000000000000 ) ) ;
#244 = AXIS2_PLACEMENT_3D ( 'NONE', #207, #30, #174 ) ;
#245 = CARTESIAN_POINT ( 'NONE',  ( 0.1968504999999999838, 2.410723347355560646E-17, 3.922007999999999051 ) ) ;
#246 = AXIS2_PLACEMENT_3D ( 'NONE', #109, #154, #238 ) ;
#247 = CARTESIAN_POINT ( 'NONE',  ( 0.1968504999999999838, 2.410723347355560646E-17, 3.937007999999999619 ) ) ;
#248 = PRODUCT_DEFINITION_SHAPE ( 'NONE', 'NONE',  #222 ) ;
#249 = CARTESIAN_POINT ( 'NONE',  ( 0.1966536494999999996, 2.408312624008205170E-17, 3.791200677927629740E-33 ) ) ;
#250 = EDGE_LOOP ( 'NONE', ( #81, #92, #208, #125 ) ) ;
#251 = FACE_OUTER_BOUND ( 'NONE', #100, .T. ) ;
#252 = FACE_OUTER_BOUND ( 'NONE', #287, .T. ) ;
#253 = APPLICATION_PROTOCOL_DEFINITION ( 'draft international standard', 'automotive_design', 1998, #219 ) ;
#254 = ORIENTED_EDGE ( 'NONE', *, *, #177, .T. ) ;
#255 = CARTESIAN_POINT ( 'NONE',  ( 0.1818504999999994431, 2.227026327483450676E-17, 3.937007999999999619 ) ) ;
#256 = DIRECTION ( 'NONE',  ( 1.224646799147353207E-16, 0.0000000000000000000, 1.000000000000000000 ) ) ;
#257 = STYLED_ITEM ( 'NONE', ( #98 ), #297 ) ;
#258 = VECTOR ( 'NONE', #51, 39.37007874015748143 ) ;
#259 = CARTESIAN_POINT ( 'NONE',  ( 2.651793845120917627E-16, 0.0000000000000000000, 2.165353999999999779 ) ) ;
#260 = SURFACE_STYLE_FILL_AREA ( #8 ) ;
#261 = EDGE_CURVE ( 'NONE', #147, #286, #299, .T. ) ;
#262 = CARTESIAN_POINT ( 'NONE',  ( 0.0000000000000000000, 0.0000000000000000000, 0.0000000000000000000 ) ) ;
#263 = APPLICATION_CONTEXT ( 'automotive_design' ) ;
#264 = ORIENTED_EDGE ( 'NONE', *, *, #96, .F. ) ;
#265 = STYLED_ITEM ( 'NONE', ( #108 ), #106 ) ;
#266 = CYLINDRICAL_SURFACE ( 'NONE', #235, 0.1968504999999999838 ) ;
#267 = EDGE_CURVE ( 'NONE', #286, #147, #157, .T. ) ;
#268 = ADVANCED_FACE ( 'NONE', ( #151 ), #241, .T. ) ;
#269 = DIRECTION ( 'NONE',  ( 1.224646799147353207E-16, 0.0000000000000000000, 1.000000000000000000 ) ) ;
#270 = LINE ( 'NONE', #127, #102 ) ;
#271 = DIRECTION ( 'NONE',  ( -0.0000000000000000000, -0.0000000000000000000, -1.000000000000000000 ) ) ;
#272 = PRODUCT_DEFINITION_CONTEXT ( 'detailed design', #219, 'design' ) ;
#273 = ORIENTED_EDGE ( 'NONE', *, *, #267, .F. ) ;
#274 = DIRECTION ( 'NONE',  ( -1.000000000000000000, 0.0000000000000000000, 0.0000000000000000000 ) ) ;
#275 = AXIS2_PLACEMENT_3D ( 'NONE', #89, #256, #190 ) ;
#276 = ORIENTED_EDGE ( 'NONE', *, *, #177, .F. ) ;
#277 = CARTESIAN_POINT ( 'NONE',  ( 0.0000000000000000000, 0.0000000000000000000, 0.0000000000000000000 ) ) ;
#278 = ADVANCED_FACE ( 'NONE', ( #165 ), #22, .T. ) ;
#279 = ORIENTED_EDGE ( 'NONE', *, *, #61, .T. ) ;
#280 = LINE ( 'NONE', #145, #133 ) ;
#281 = ORIENTED_EDGE ( 'NONE', *, *, #80, .T. ) ;
#282 = LINE ( 'NONE', #148, #25 ) ;
#283 = AXIS2_PLACEMENT_3D ( 'NONE', #64, #269, #218 ) ;
#284 = ORIENTED_EDGE ( 'NONE', *, *, #220, .T. ) ;
#285 = DIRECTION ( 'NONE',  ( 0.0000000000000000000, 0.0000000000000000000, -1.000000000000000000 ) ) ;
#286 = VERTEX_POINT ( 'NONE', #169 ) ;
#287 = EDGE_LOOP ( 'NONE', ( #254, #237 ) ) ;
#288 = DIRECTION ( 'NONE',  ( -1.000000000000000000, 0.0000000000000000000, 1.224646799147353207E-16 ) ) ;
#289 = CONICAL_SURFACE ( 'NONE', #275, 0.1966536495000000273, 0.1745329251994336694 ) ;
#290 = ADVANCED_FACE ( 'NONE', ( #69 ), #138, .T. ) ;
#291 = ORIENTED_EDGE ( 'NONE', *, *, #105, .T. ) ;
#292 = EDGE_LOOP ( 'NONE', ( #13, #41, #186, #5 ) ) ;
#293 = SURFACE_STYLE_USAGE ( .BOTH. , #216 ) ;
#294 = ADVANCED_FACE ( 'NONE', ( #252 ), #225, .T. ) ;
#295 = VECTOR ( 'NONE', #271, 39.37007874015748143 ) ;
#296 = SHAPE_DEFINITION_REPRESENTATION ( #248, #106 ) ;
#297 = MANIFOLD_SOLID_BREP ( 'Cut-Revolve1', #57 ) ;
#298 = COLOUR_RGB ( '',0.7921568627450980005, 0.8196078431372548767, 0.9333333333333333481 ) ;
#299 = CIRCLE ( 'NONE', #114, 0.1966536495000000273 ) ;
ENDSEC;
END-ISO-10303-21;
