ISO-10303-21;
HEADER;
FILE_DESCRIPTION (( 'STEP AP214' ),
    '1' );
FILE_NAME ('59841.STEP',
    '2023-06-22T23:08:11',
    ( '' ),
    ( '' ),
    'SwSTEP 2.0',
    'SolidWorks 2023',
    '' );
FILE_SCHEMA (( 'AUTOMOTIVE_DESIGN' ));
ENDSEC;

DATA;
#1 = ORIENTED_EDGE ( 'NONE', *, *, #23, .T. ) ;
#2 =( NAMED_UNIT ( * ) PLANE_ANGLE_UNIT ( ) SI_UNIT ( $, .RADIAN. ) );
#3 = FILL_AREA_STYLE ('',( #187 ) ) ;
#4 = DIRECTION ( 'NONE',  ( -0.000000000000000000, -1.000000000000000000, -0.000000000000000000 ) ) ;
#5 = EDGE_LOOP ( 'NONE', ( #47, #215 ) ) ;
#6 = DIRECTION ( 'NONE',  ( -0.000000000000000000, -1.000000000000000000, -0.000000000000000000 ) ) ;
#7 = LENGTH_MEASURE_WITH_UNIT ( LENGTH_MEASURE( 0.02539999999999999897 ), #139 );
#8 = PRESENTATION_LAYER_ASSIGNMENT (  '', '', ( #59 ) ) ;
#9 = SURFACE_STYLE_FILL_AREA ( #269 ) ;
#10 = PRODUCT_DEFINITION_FORMATION_WITH_SPECIFIED_SOURCE ( 'ANY', '', #301, .NOT_KNOWN. ) ;
#11 = FILL_AREA_STYLE_COLOUR ( '', #60 ) ;
#12 = ORIENTED_EDGE ( 'NONE', *, *, #285, .F. ) ;
#13 = DIRECTION ( 'NONE',  ( -3.061616997868386099E-17, 1.000000000000000000, -0.000000000000000000 ) ) ;
#14 =( LENGTH_UNIT ( ) NAMED_UNIT ( * ) SI_UNIT ( $, .METRE. ) );
#15 =( NAMED_UNIT ( * ) PLANE_ANGLE_UNIT ( ) SI_UNIT ( $, .RADIAN. ) );
#16 = ORIENTED_EDGE ( 'NONE', *, *, #249, .T. ) ;
#17 = DIRECTION ( 'NONE',  ( 1.000000000000000000, 3.061616997868386099E-17, 0.000000000000000000 ) ) ;
#18 = AXIS2_PLACEMENT_3D ( 'NONE', #280, #121, #275 ) ;
#19 = CARTESIAN_POINT ( 'NONE',  ( 0.1562500000000000000, 1.000000000000000000, 1.913510623667739771E-17 ) ) ;
#20 =( GEOMETRIC_REPRESENTATION_CONTEXT ( 3 ) GLOBAL_UNCERTAINTY_ASSIGNED_CONTEXT ( ( #186 ) ) GLOBAL_UNIT_ASSIGNED_CONTEXT ( ( #289, #117, #178 ) ) REPRESENTATION_CONTEXT ( 'NONE', 'WORKASPACE' ) );
#21 =( GEOMETRIC_REPRESENTATION_CONTEXT ( 3 ) GLOBAL_UNCERTAINTY_ASSIGNED_CONTEXT ( ( #51 ) ) GLOBAL_UNIT_ASSIGNED_CONTEXT ( ( #194, #91, #144 ) ) REPRESENTATION_CONTEXT ( 'NONE', 'WORKASPACE' ) );
#22 = DIRECTION ( 'NONE',  ( -3.061616997868386099E-17, 1.000000000000000000, -0.000000000000000000 ) ) ;
#23 = EDGE_CURVE ( 'NONE', #182, #297, #309, .T. ) ;
#24 = DIRECTION ( 'NONE',  ( 0.000000000000000000, 0.000000000000000000, -1.000000000000000000 ) ) ;
#25 = VERTEX_POINT ( 'NONE', #242 ) ;
#26 = FILL_AREA_STYLE_COLOUR ( '', #132 ) ;
#27 = ORIENTED_EDGE ( 'NONE', *, *, #152, .T. ) ;
#28 =( CONVERSION_BASED_UNIT ( 'INCH', #283 ) LENGTH_UNIT ( ) NAMED_UNIT ( #166 ) );
#29 = AXIS2_PLACEMENT_3D ( 'NONE', #141, #286, #288 ) ;
#30 = LINE ( 'NONE', #112, #298 ) ;
#31 = PLANE ( 'NONE',  #170 ) ;
#32 = PRESENTATION_LAYER_ASSIGNMENT (  '', '', ( #197 ) ) ;
#33 =( NAMED_UNIT ( * ) PLANE_ANGLE_UNIT ( ) SI_UNIT ( $, .RADIAN. ) );
#34 = CARTESIAN_POINT ( 'NONE',  ( 7.582401355855259480E-33, 1.000000000000000000, 0.000000000000000000 ) ) ;
#35 = ADVANCED_FACE ( 'NONE', ( #208 ), #284, .T. ) ;
#36 = CLOSED_SHELL ( 'NONE', ( #198, #65, #35, #308 ) ) ;
#37 = SURFACE_STYLE_USAGE ( .BOTH. , #150 ) ;
#38 = MANIFOLD_SOLID_BREP ( 'Revolve - Cutting Edge', #264 ) ;
#39 =( NAMED_UNIT ( * ) SI_UNIT ( $, .STERADIAN. ) SOLID_ANGLE_UNIT ( ) );
#40 = CIRCLE ( 'NONE', #29, 0.1562500000000000000 ) ;
#41 = DIRECTION ( 'NONE',  ( -1.000000000000000000, 0.000000000000000000, 0.000000000000000000 ) ) ;
#42 = APPLICATION_PROTOCOL_DEFINITION ( 'draft international standard', 'automotive_design', 1998, #210 ) ;
#43 = DIRECTION ( 'NONE',  ( 0.000000000000000000, 0.000000000000000000, -1.000000000000000000 ) ) ;
#44 = DIRECTION ( 'NONE',  ( -3.061616997868386099E-17, 1.000000000000000000, -0.000000000000000000 ) ) ;
#45 = LINE ( 'NONE', #106, #279 ) ;
#46 = ORIENTED_EDGE ( 'NONE', *, *, #136, .T. ) ;
#47 = ORIENTED_EDGE ( 'NONE', *, *, #123, .T. ) ;
#48 = CARTESIAN_POINT ( 'NONE',  ( 0.000000000000000000, 1.000000000000000000, 0.000000000000000000 ) ) ;
#49 = ORIENTED_EDGE ( 'NONE', *, *, #152, .F. ) ;
#50 = CARTESIAN_POINT ( 'NONE',  ( 0.000000000000000000, 0.000000000000000000, 0.000000000000000000 ) ) ;
#51 = UNCERTAINTY_MEASURE_WITH_UNIT (LENGTH_MEASURE( 1.000000000000000082E-05 ), #194, 'distance_accuracy_value', 'NONE');
#52 = DIMENSIONAL_EXPONENTS ( 1.000000000000000000, 0.000000000000000000, 0.000000000000000000, 0.000000000000000000, 0.000000000000000000, 0.000000000000000000, 0.000000000000000000 ) ;
#53 = AXIS2_PLACEMENT_3D ( 'NONE', #34, #13, #61 ) ;
#54 = SURFACE_STYLE_USAGE ( .BOTH. , #271 ) ;
#55 = DIRECTION ( 'NONE',  ( 1.000000000000000000, 0.000000000000000000, 0.000000000000000000 ) ) ;
#56 = SURFACE_STYLE_USAGE ( .BOTH. , #299 ) ;
#57 = DIRECTION ( 'NONE',  ( -3.061616997868386099E-17, 1.000000000000000000, -0.000000000000000000 ) ) ;
#58 = SURFACE_STYLE_FILL_AREA ( #256 ) ;
#59 = STYLED_ITEM ( 'NONE', ( #126 ), #185 ) ;
#60 = COLOUR_RGB ( '',1.000000000000000000, 0.000000000000000000, 0.000000000000000000 ) ;
#61 = DIRECTION ( 'NONE',  ( -1.000000000000000000, 0.000000000000000000, 0.000000000000000000 ) ) ;
#62 = CYLINDRICAL_SURFACE ( 'NONE', #18, 0.1562500000000000000 ) ;
#63 = DIRECTION ( 'NONE',  ( -1.000000000000000000, 0.000000000000000000, 0.000000000000000000 ) ) ;
#64 = DIRECTION ( 'NONE',  ( -0.000000000000000000, -1.000000000000000000, -0.000000000000000000 ) ) ;
#65 = ADVANCED_FACE ( 'NONE', ( #145 ), #118, .F. ) ;
#66 =( NAMED_UNIT ( * ) SI_UNIT ( $, .STERADIAN. ) SOLID_ANGLE_UNIT ( ) );
#67 = CARTESIAN_POINT ( 'NONE',  ( -6.123233995736772199E-17, 3.000000000000000444, 0.000000000000000000 ) ) ;
#68 = FACE_OUTER_BOUND ( 'NONE', #228, .T. ) ;
#69 = CIRCLE ( 'NONE', #133, 0.1562500000000000000 ) ;
#70 = DIRECTION ( 'NONE',  ( 0.000000000000000000, 0.000000000000000000, -1.000000000000000000 ) ) ;
#71 = VERTEX_POINT ( 'NONE', #114 ) ;
#72 = CARTESIAN_POINT ( 'NONE',  ( -6.123233995736772199E-17, 3.000000000000000444, 0.000000000000000000 ) ) ;
#73 = PRESENTATION_LAYER_ASSIGNMENT (  '', '', ( #207 ) ) ;
#74 = SURFACE_STYLE_USAGE ( .BOTH. , #217 ) ;
#75 = CARTESIAN_POINT ( 'NONE',  ( 0.1562500000000000000, 3.000000000000000444, 1.913510623667739771E-17 ) ) ;
#76 = DIRECTION ( 'NONE',  ( -1.000000000000000000, 0.000000000000000000, 0.000000000000000000 ) ) ;
#77 = PRODUCT_DEFINITION_CONTEXT ( 'detailed design', #210, 'design' ) ;
#78 = AXIS2_PLACEMENT_3D ( 'NONE', #173, #202, #41 ) ;
#79 = AXIS2_PLACEMENT_3D ( 'NONE', #258, #300, #76 ) ;
#80 = DIRECTION ( 'NONE',  ( -0.000000000000000000, -1.000000000000000000, -0.000000000000000000 ) ) ;
#81 = CARTESIAN_POINT ( 'NONE',  ( 0.000000000000000000, 0.000000000000000000, 0.000000000000000000 ) ) ;
#82 = SHAPE_DEFINITION_REPRESENTATION ( #98, #102 ) ;
#83 = DIRECTION ( 'NONE',  ( 0.000000000000000000, -1.000000000000000000, -0.000000000000000000 ) ) ;
#84 = ORIENTED_EDGE ( 'NONE', *, *, #249, .F. ) ;
#85 = AXIS2_PLACEMENT_3D ( 'NONE', #154, #57, #63 ) ;
#86 =( LENGTH_UNIT ( ) NAMED_UNIT ( * ) SI_UNIT ( $, .METRE. ) );
#87 = MECHANICAL_DESIGN_GEOMETRIC_PRESENTATION_REPRESENTATION (  '', ( #177 ), #277 ) ;
#88 = CARTESIAN_POINT ( 'NONE',  ( 1.913510623667739463E-17, 0.000000000000000000, 0.1562500000000000000 ) ) ;
#89 =( LENGTH_UNIT ( ) NAMED_UNIT ( * ) SI_UNIT ( $, .METRE. ) );
#90 = MECHANICAL_DESIGN_GEOMETRIC_PRESENTATION_REPRESENTATION (  '', ( #59 ), #131 ) ;
#91 =( NAMED_UNIT ( * ) PLANE_ANGLE_UNIT ( ) SI_UNIT ( $, .RADIAN. ) );
#92 = AXIS2_PLACEMENT_3D ( 'NONE', #171, #274, #55 ) ;
#93 = FILL_AREA_STYLE ('',( #11 ) ) ;
#94 = DIMENSIONAL_EXPONENTS ( 1.000000000000000000, 0.000000000000000000, 0.000000000000000000, 0.000000000000000000, 0.000000000000000000, 0.000000000000000000, 0.000000000000000000 ) ;
#95 = EDGE_CURVE ( 'NONE', #184, #182, #30, .T. ) ;
#96 = APPLICATION_PROTOCOL_DEFINITION ( 'draft international standard', 'automotive_design', 1998, #290 ) ;
#97 = CYLINDRICAL_SURFACE ( 'NONE', #79, 0.1562500000000000278 ) ;
#98 = PRODUCT_DEFINITION_SHAPE ( 'NONE', 'NONE',  #257 ) ;
#99 = FILL_AREA_STYLE_COLOUR ( '', #232 ) ;
#100 = ORIENTED_EDGE ( 'NONE', *, *, #136, .F. ) ;
#101 =( GEOMETRIC_REPRESENTATION_CONTEXT ( 3 ) GLOBAL_UNCERTAINTY_ASSIGNED_CONTEXT ( ( #270 ) ) GLOBAL_UNIT_ASSIGNED_CONTEXT ( ( #119, #33, #39 ) ) REPRESENTATION_CONTEXT ( 'NONE', 'WORKASPACE' ) );
#102 = ADVANCED_BREP_SHAPE_REPRESENTATION ( '59841', ( #38, #129, #92 ), #191 ) ;
#103 = LENGTH_MEASURE_WITH_UNIT ( LENGTH_MEASURE( 0.02539999999999999897 ), #14 );
#104 = PRESENTATION_LAYER_ASSIGNMENT (  '', '', ( #203 ) ) ;
#105 = DIRECTION ( 'NONE',  ( -1.000000000000000000, 0.000000000000000000, 0.000000000000000000 ) ) ;
#106 = CARTESIAN_POINT ( 'NONE',  ( 0.1562499999999999722, 3.000000000000000444, 1.913510623667739771E-17 ) ) ;
#107 = EDGE_LOOP ( 'NONE', ( #135, #213 ) ) ;
#108 = ADVANCED_FACE ( 'NONE', ( #246 ), #31, .T. ) ;
#109 = ORIENTED_EDGE ( 'NONE', *, *, #193, .F. ) ;
#110 = DIRECTION ( 'NONE',  ( -0.000000000000000000, -1.000000000000000000, -0.000000000000000000 ) ) ;
#111 = ORIENTED_EDGE ( 'NONE', *, *, #285, .T. ) ;
#112 = CARTESIAN_POINT ( 'NONE',  ( -0.1562500000000001110, 3.000000000000000444, 0.000000000000000000 ) ) ;
#113 = AXIS2_PLACEMENT_3D ( 'NONE', #81, #64, #231 ) ;
#114 = CARTESIAN_POINT ( 'NONE',  ( 0.000000000000000000, 0.000000000000000000, -0.1562500000000000000 ) ) ;
#115 = AXIS2_PLACEMENT_3D ( 'NONE', #48, #4, #43 ) ;
#116 = DIMENSIONAL_EXPONENTS ( 1.000000000000000000, 0.000000000000000000, 0.000000000000000000, 0.000000000000000000, 0.000000000000000000, 0.000000000000000000, 0.000000000000000000 ) ;
#117 =( NAMED_UNIT ( * ) PLANE_ANGLE_UNIT ( ) SI_UNIT ( $, .RADIAN. ) );
#118 = PLANE ( 'NONE',  #190 ) ;
#119 =( CONVERSION_BASED_UNIT ( 'INCH', #251 ) LENGTH_UNIT ( ) NAMED_UNIT ( #94 ) );
#120 =( LENGTH_UNIT ( ) NAMED_UNIT ( * ) SI_UNIT ( $, .METRE. ) );
#121 = DIRECTION ( 'NONE',  ( -0.000000000000000000, -1.000000000000000000, -0.000000000000000000 ) ) ;
#122 =( NAMED_UNIT ( * ) SI_UNIT ( $, .STERADIAN. ) SOLID_ANGLE_UNIT ( ) );
#123 = EDGE_CURVE ( 'NONE', #71, #159, #40, .T. ) ;
#124 = DIRECTION ( 'NONE',  ( 0.000000000000000000, 0.000000000000000000, -1.000000000000000000 ) ) ;
#125 =( NAMED_UNIT ( * ) SI_UNIT ( $, .STERADIAN. ) SOLID_ANGLE_UNIT ( ) );
#126 = PRESENTATION_STYLE_ASSIGNMENT (( #56 ) ) ;
#127 = CIRCLE ( 'NONE', #176, 0.1562500000000000000 ) ;
#128 = LINE ( 'NONE', #276, #235 ) ;
#129 = MANIFOLD_SOLID_BREP ( 'Revolve - Tool Body (Straight Shanked)', #36 ) ;
#130 = EDGE_LOOP ( 'NONE', ( #27, #16, #180, #140 ) ) ;
#131 =( GEOMETRIC_REPRESENTATION_CONTEXT ( 3 ) GLOBAL_UNCERTAINTY_ASSIGNED_CONTEXT ( ( #240 ) ) GLOBAL_UNIT_ASSIGNED_CONTEXT ( ( #282, #226, #122 ) ) REPRESENTATION_CONTEXT ( 'NONE', 'WORKASPACE' ) );
#132 = COLOUR_RGB ( '',0.7921568627450980005, 0.8196078431372548767, 0.9333333333333333481 ) ;
#133 = AXIS2_PLACEMENT_3D ( 'NONE', #236, #6, #24 ) ;
#134 = LINE ( 'NONE', #241, #205 ) ;
#135 = ORIENTED_EDGE ( 'NONE', *, *, #206, .F. ) ;
#136 = EDGE_CURVE ( 'NONE', #25, #238, #183, .T. ) ;
#137 = FILL_AREA_STYLE ('',( #26 ) ) ;
#138 = ORIENTED_EDGE ( 'NONE', *, *, #95, .T. ) ;
#139 =( LENGTH_UNIT ( ) NAMED_UNIT ( * ) SI_UNIT ( $, .METRE. ) );
#140 = ORIENTED_EDGE ( 'NONE', *, *, #142, .F. ) ;
#141 = CARTESIAN_POINT ( 'NONE',  ( 0.000000000000000000, 0.000000000000000000, 0.000000000000000000 ) ) ;
#142 = EDGE_CURVE ( 'NONE', #238, #71, #134, .T. ) ;
#143 =( CONVERSION_BASED_UNIT ( 'INCH', #7 ) LENGTH_UNIT ( ) NAMED_UNIT ( #218 ) );
#144 =( NAMED_UNIT ( * ) SI_UNIT ( $, .STERADIAN. ) SOLID_ANGLE_UNIT ( ) );
#145 = FACE_OUTER_BOUND ( 'NONE', #107, .T. ) ;
#146 = CIRCLE ( 'NONE', #53, 0.1562500000000000000 ) ;
#147 = SURFACE_STYLE_USAGE ( .BOTH. , #167 ) ;
#148 = LENGTH_MEASURE_WITH_UNIT ( LENGTH_MEASURE( 0.02539999999999999897 ), #172 );
#149 = CARTESIAN_POINT ( 'NONE',  ( -0.1562500000000000000, 1.000000000000000000, 0.000000000000000000 ) ) ;
#150 = SURFACE_SIDE_STYLE ('',( #58 ) ) ;
#151 = MECHANICAL_DESIGN_GEOMETRIC_PRESENTATION_REPRESENTATION (  '', ( #203 ), #20 ) ;
#152 = EDGE_CURVE ( 'NONE', #238, #25, #69, .T. ) ;
#153 = UNCERTAINTY_MEASURE_WITH_UNIT (LENGTH_MEASURE( 1.000000000000000082E-05 ), #201, 'distance_accuracy_value', 'NONE');
#154 = CARTESIAN_POINT ( 'NONE',  ( -6.123233995736772199E-17, 3.000000000000000444, 0.000000000000000000 ) ) ;
#155 = FILL_AREA_STYLE ('',( #99 ) ) ;
#156 = CARTESIAN_POINT ( 'NONE',  ( 0.000000000000000000, 0.000000000000000000, 0.000000000000000000 ) ) ;
#157 = DIRECTION ( 'NONE',  ( 0.000000000000000000, 1.000000000000000000, 0.000000000000000000 ) ) ;
#158 = PRESENTATION_LAYER_ASSIGNMENT (  '', '', ( #204 ) ) ;
#159 = VERTEX_POINT ( 'NONE', #88 ) ;
#160 = ORIENTED_EDGE ( 'NONE', *, *, #95, .F. ) ;
#161 = MECHANICAL_DESIGN_GEOMETRIC_PRESENTATION_REPRESENTATION (  '', ( #197 ), #292 ) ;
#162 = PLANE ( 'NONE',  #189 ) ;
#163 = PRESENTATION_STYLE_ASSIGNMENT (( #261 ) ) ;
#164 = SURFACE_STYLE_FILL_AREA ( #137 ) ;
#165 = AXIS2_PLACEMENT_3D ( 'NONE', #72, #22, #105 ) ;
#166 = DIMENSIONAL_EXPONENTS ( 1.000000000000000000, 0.000000000000000000, 0.000000000000000000, 0.000000000000000000, 0.000000000000000000, 0.000000000000000000, 0.000000000000000000 ) ;
#167 = SURFACE_SIDE_STYLE ('',( #291 ) ) ;
#168 = DIRECTION ( 'NONE',  ( -1.000000000000000000, -3.061616997868386099E-17, 0.000000000000000000 ) ) ;
#169 = EDGE_CURVE ( 'NONE', #287, #297, #45, .T. ) ;
#170 = AXIS2_PLACEMENT_3D ( 'NONE', #50, #83, #70 ) ;
#171 = CARTESIAN_POINT ( 'NONE',  ( 0.000000000000000000, 0.000000000000000000, 0.000000000000000000 ) ) ;
#172 =( LENGTH_UNIT ( ) NAMED_UNIT ( * ) SI_UNIT ( $, .METRE. ) );
#173 = CARTESIAN_POINT ( 'NONE',  ( 7.582401355855259480E-33, 1.000000000000000000, 0.000000000000000000 ) ) ;
#174 = LENGTH_MEASURE_WITH_UNIT ( LENGTH_MEASURE( 0.02539999999999999897 ), #120 );
#175 = CYLINDRICAL_SURFACE ( 'NONE', #113, 0.1562500000000000000 ) ;
#176 = AXIS2_PLACEMENT_3D ( 'NONE', #156, #278, #124 ) ;
#177 = STYLED_ITEM ( 'NONE', ( #214 ), #108 ) ;
#178 =( NAMED_UNIT ( * ) SI_UNIT ( $, .STERADIAN. ) SOLID_ANGLE_UNIT ( ) );
#179 = FACE_OUTER_BOUND ( 'NONE', #211, .T. ) ;
#180 = ORIENTED_EDGE ( 'NONE', *, *, #123, .F. ) ;
#181 = ADVANCED_FACE ( 'NONE', ( #68 ), #162, .T. ) ;
#182 = VERTEX_POINT ( 'NONE', #243 ) ;
#183 = CIRCLE ( 'NONE', #115, 0.1562500000000000000 ) ;
#184 = VERTEX_POINT ( 'NONE', #149 ) ;
#185 = ADVANCED_FACE ( 'NONE', ( #296 ), #175, .T. ) ;
#186 = UNCERTAINTY_MEASURE_WITH_UNIT (LENGTH_MEASURE( 1.000000000000000082E-05 ), #289, 'distance_accuracy_value', 'NONE');
#187 = FILL_AREA_STYLE_COLOUR ( '', #250 ) ;
#188 = DIRECTION ( 'NONE',  ( -1.000000000000000000, 0.000000000000000000, 0.000000000000000000 ) ) ;
#189 = AXIS2_PLACEMENT_3D ( 'NONE', #221, #157, #268 ) ;
#190 = AXIS2_PLACEMENT_3D ( 'NONE', #295, #245, #168 ) ;
#191 =( GEOMETRIC_REPRESENTATION_CONTEXT ( 3 ) GLOBAL_UNCERTAINTY_ASSIGNED_CONTEXT ( ( #153 ) ) GLOBAL_UNIT_ASSIGNED_CONTEXT ( ( #201, #15, #125 ) ) REPRESENTATION_CONTEXT ( 'NONE', 'WORKASPACE' ) );
#192 = FILL_AREA_STYLE_COLOUR ( '', #305 ) ;
#193 = EDGE_CURVE ( 'NONE', #159, #71, #127, .T. ) ;
#194 =( CONVERSION_BASED_UNIT ( 'INCH', #222 ) LENGTH_UNIT ( ) NAMED_UNIT ( #52 ) );
#195 = ORIENTED_EDGE ( 'NONE', *, *, #23, .F. ) ;
#196 = DIRECTION ( 'NONE',  ( 3.061616997868386099E-17, -1.000000000000000000, 0.000000000000000000 ) ) ;
#197 = STYLED_ITEM ( 'NONE', ( #163 ), #129 ) ;
#198 = ADVANCED_FACE ( 'NONE', ( #229 ), #97, .T. ) ;
#199 = PRODUCT_CONTEXT ( 'NONE', #290, 'mechanical' ) ;
#200 = PRESENTATION_STYLE_ASSIGNMENT (( #147 ) ) ;
#201 =( CONVERSION_BASED_UNIT ( 'INCH', #174 ) LENGTH_UNIT ( ) NAMED_UNIT ( #116 ) );
#202 = DIRECTION ( 'NONE',  ( -3.061616997868386099E-17, 1.000000000000000000, -0.000000000000000000 ) ) ;
#203 = STYLED_ITEM ( 'NONE', ( #200 ), #181 ) ;
#204 = STYLED_ITEM ( 'NONE', ( #293 ), #38 ) ;
#205 = VECTOR ( 'NONE', #110, 39.37007874015748143 ) ;
#206 = EDGE_CURVE ( 'NONE', #184, #287, #220, .T. ) ;
#207 = STYLED_ITEM ( 'NONE', ( #302 ), #254 ) ;
#208 = FACE_OUTER_BOUND ( 'NONE', #237, .T. ) ;
#209 = DIRECTION ( 'NONE',  ( -3.061616997868386099E-17, 1.000000000000000000, -0.000000000000000000 ) ) ;
#210 = APPLICATION_CONTEXT ( 'automotive_design' ) ;
#211 = EDGE_LOOP ( 'NONE', ( #1, #111 ) ) ;
#212 =( NAMED_UNIT ( * ) PLANE_ANGLE_UNIT ( ) SI_UNIT ( $, .RADIAN. ) );
#213 = ORIENTED_EDGE ( 'NONE', *, *, #266, .F. ) ;
#214 = PRESENTATION_STYLE_ASSIGNMENT (( #54 ) ) ;
#215 = ORIENTED_EDGE ( 'NONE', *, *, #193, .T. ) ;
#216 = SURFACE_SIDE_STYLE ('',( #164 ) ) ;
#217 = SURFACE_SIDE_STYLE ('',( #9 ) ) ;
#218 = DIMENSIONAL_EXPONENTS ( 1.000000000000000000, 0.000000000000000000, 0.000000000000000000, 0.000000000000000000, 0.000000000000000000, 0.000000000000000000, 0.000000000000000000 ) ;
#219 = DIRECTION ( 'NONE',  ( -3.061616997868386099E-17, 1.000000000000000000, -0.000000000000000000 ) ) ;
#220 = CIRCLE ( 'NONE', #78, 0.1562500000000000000 ) ;
#221 = CARTESIAN_POINT ( 'NONE',  ( 0.000000000000000000, 1.000000000000000000, 0.000000000000000000 ) ) ;
#222 = LENGTH_MEASURE_WITH_UNIT ( LENGTH_MEASURE( 0.02539999999999999897 ), #89 );
#223 = DIMENSIONAL_EXPONENTS ( 1.000000000000000000, 0.000000000000000000, 0.000000000000000000, 0.000000000000000000, 0.000000000000000000, 0.000000000000000000, 0.000000000000000000 ) ;
#224 = ORIENTED_EDGE ( 'NONE', *, *, #206, .T. ) ;
#225 = CARTESIAN_POINT ( 'NONE',  ( 0.1562500000000000000, 3.000000000000000444, 0.000000000000000000 ) ) ;
#226 =( NAMED_UNIT ( * ) PLANE_ANGLE_UNIT ( ) SI_UNIT ( $, .RADIAN. ) );
#227 = FILL_AREA_STYLE_COLOUR ( '', #262 ) ;
#228 = EDGE_LOOP ( 'NONE', ( #49, #100 ) ) ;
#229 = FACE_OUTER_BOUND ( 'NONE', #263, .T. ) ;
#230 = CIRCLE ( 'NONE', #85, 0.1562500000000000833 ) ;
#231 = DIRECTION ( 'NONE',  ( 0.000000000000000000, 0.000000000000000000, -1.000000000000000000 ) ) ;
#232 = COLOUR_RGB ( '',1.000000000000000000, 0.000000000000000000, 0.000000000000000000 ) ;
#233 = ORIENTED_EDGE ( 'NONE', *, *, #266, .T. ) ;
#234 = PRESENTATION_LAYER_ASSIGNMENT (  '', '', ( #177 ) ) ;
#235 = VECTOR ( 'NONE', #80, 39.37007874015748143 ) ;
#236 = CARTESIAN_POINT ( 'NONE',  ( 0.000000000000000000, 1.000000000000000000, 0.000000000000000000 ) ) ;
#237 = EDGE_LOOP ( 'NONE', ( #307, #233, #138, #12 ) ) ;
#238 = VERTEX_POINT ( 'NONE', #306 ) ;
#239 = ORIENTED_EDGE ( 'NONE', *, *, #169, .T. ) ;
#240 = UNCERTAINTY_MEASURE_WITH_UNIT (LENGTH_MEASURE( 1.000000000000000082E-05 ), #282, 'distance_accuracy_value', 'NONE');
#241 = CARTESIAN_POINT ( 'NONE',  ( 0.000000000000000000, 0.000000000000000000, -0.1562500000000000000 ) ) ;
#242 = CARTESIAN_POINT ( 'NONE',  ( 1.913510623667739463E-17, 1.000000000000000000, 0.1562500000000000000 ) ) ;
#243 = CARTESIAN_POINT ( 'NONE',  ( -0.1562500000000001388, 3.000000000000000444, 0.000000000000000000 ) ) ;
#244 = DIMENSIONAL_EXPONENTS ( 1.000000000000000000, 0.000000000000000000, 0.000000000000000000, 0.000000000000000000, 0.000000000000000000, 0.000000000000000000, 0.000000000000000000 ) ;
#245 = DIRECTION ( 'NONE',  ( -3.061616997868386099E-17, 1.000000000000000000, 0.000000000000000000 ) ) ;
#246 = FACE_OUTER_BOUND ( 'NONE', #5, .T. ) ;
#247 = SURFACE_STYLE_FILL_AREA ( #93 ) ;
#248 =( LENGTH_UNIT ( ) NAMED_UNIT ( * ) SI_UNIT ( $, .METRE. ) );
#249 = EDGE_CURVE ( 'NONE', #25, #159, #128, .T. ) ;
#250 = COLOUR_RGB ( '',1.000000000000000000, 0.000000000000000000, 0.000000000000000000 ) ;
#251 = LENGTH_MEASURE_WITH_UNIT ( LENGTH_MEASURE( 0.02539999999999999897 ), #248 );
#252 = AXIS2_PLACEMENT_3D ( 'NONE', #67, #44, #188 ) ;
#253 = SURFACE_STYLE_FILL_AREA ( #155 ) ;
#254 = ADVANCED_FACE ( 'NONE', ( #281 ), #62, .T. ) ;
#255 = PLANE ( 'NONE',  #272 ) ;
#256 = FILL_AREA_STYLE ('',( #227 ) ) ;
#257 = PRODUCT_DEFINITION ( 'UNKNOWN', '', #10, #77 ) ;
#258 = CARTESIAN_POINT ( 'NONE',  ( -6.123233995736772199E-17, 3.000000000000000444, 0.000000000000000000 ) ) ;
#259 = MECHANICAL_DESIGN_GEOMETRIC_PRESENTATION_REPRESENTATION (  '', ( #204 ), #21 ) ;
#260 = PRODUCT_RELATED_PRODUCT_CATEGORY ( 'part', '', ( #301 ) ) ;
#261 = SURFACE_STYLE_USAGE ( .BOTH. , #216 ) ;
#262 = COLOUR_RGB ( '',1.000000000000000000, 0.000000000000000000, 0.000000000000000000 ) ;
#263 = EDGE_LOOP ( 'NONE', ( #224, #239, #195, #160 ) ) ;
#264 = CLOSED_SHELL ( 'NONE', ( #185, #181, #254, #108 ) ) ;
#265 = ORIENTED_EDGE ( 'NONE', *, *, #142, .T. ) ;
#266 = EDGE_CURVE ( 'NONE', #287, #184, #146, .T. ) ;
#267 =( NAMED_UNIT ( * ) SI_UNIT ( $, .STERADIAN. ) SOLID_ANGLE_UNIT ( ) );
#268 = DIRECTION ( 'NONE',  ( 0.000000000000000000, -0.000000000000000000, 1.000000000000000000 ) ) ;
#269 = FILL_AREA_STYLE ('',( #192 ) ) ;
#270 = UNCERTAINTY_MEASURE_WITH_UNIT (LENGTH_MEASURE( 1.000000000000000082E-05 ), #119, 'distance_accuracy_value', 'NONE');
#271 = SURFACE_SIDE_STYLE ('',( #247 ) ) ;
#272 = AXIS2_PLACEMENT_3D ( 'NONE', #225, #196, #17 ) ;
#273 = EDGE_LOOP ( 'NONE', ( #84, #46, #265, #109 ) ) ;
#274 = DIRECTION ( 'NONE',  ( 0.000000000000000000, 0.000000000000000000, 1.000000000000000000 ) ) ;
#275 = DIRECTION ( 'NONE',  ( 0.000000000000000000, 0.000000000000000000, -1.000000000000000000 ) ) ;
#276 = CARTESIAN_POINT ( 'NONE',  ( 1.913510623667739463E-17, 0.000000000000000000, 0.1562500000000000000 ) ) ;
#277 =( GEOMETRIC_REPRESENTATION_CONTEXT ( 3 ) GLOBAL_UNCERTAINTY_ASSIGNED_CONTEXT ( ( #303 ) ) GLOBAL_UNIT_ASSIGNED_CONTEXT ( ( #28, #2, #267 ) ) REPRESENTATION_CONTEXT ( 'NONE', 'WORKASPACE' ) );
#278 = DIRECTION ( 'NONE',  ( -0.000000000000000000, -1.000000000000000000, -0.000000000000000000 ) ) ;
#279 = VECTOR ( 'NONE', #209, 39.37007874015748143 ) ;
#280 = CARTESIAN_POINT ( 'NONE',  ( 0.000000000000000000, 0.000000000000000000, 0.000000000000000000 ) ) ;
#281 = FACE_OUTER_BOUND ( 'NONE', #273, .T. ) ;
#282 =( CONVERSION_BASED_UNIT ( 'INCH', #148 ) LENGTH_UNIT ( ) NAMED_UNIT ( #223 ) );
#283 = LENGTH_MEASURE_WITH_UNIT ( LENGTH_MEASURE( 0.02539999999999999897 ), #86 );
#284 = CYLINDRICAL_SURFACE ( 'NONE', #252, 0.1562500000000000278 ) ;
#285 = EDGE_CURVE ( 'NONE', #297, #182, #230, .T. ) ;
#286 = DIRECTION ( 'NONE',  ( -0.000000000000000000, -1.000000000000000000, -0.000000000000000000 ) ) ;
#287 = VERTEX_POINT ( 'NONE', #19 ) ;
#288 = DIRECTION ( 'NONE',  ( 0.000000000000000000, 0.000000000000000000, -1.000000000000000000 ) ) ;
#289 =( CONVERSION_BASED_UNIT ( 'INCH', #103 ) LENGTH_UNIT ( ) NAMED_UNIT ( #244 ) );
#290 = APPLICATION_CONTEXT ( 'automotive_design' ) ;
#291 = SURFACE_STYLE_FILL_AREA ( #3 ) ;
#292 =( GEOMETRIC_REPRESENTATION_CONTEXT ( 3 ) GLOBAL_UNCERTAINTY_ASSIGNED_CONTEXT ( ( #294 ) ) GLOBAL_UNIT_ASSIGNED_CONTEXT ( ( #143, #212, #66 ) ) REPRESENTATION_CONTEXT ( 'NONE', 'WORKASPACE' ) );
#293 = PRESENTATION_STYLE_ASSIGNMENT (( #74 ) ) ;
#294 = UNCERTAINTY_MEASURE_WITH_UNIT (LENGTH_MEASURE( 1.000000000000000082E-05 ), #143, 'distance_accuracy_value', 'NONE');
#295 = CARTESIAN_POINT ( 'NONE',  ( 7.323045813778616568E-35, 1.000000000000000000, 0.000000000000000000 ) ) ;
#296 = FACE_OUTER_BOUND ( 'NONE', #130, .T. ) ;
#297 = VERTEX_POINT ( 'NONE', #75 ) ;
#298 = VECTOR ( 'NONE', #219, 39.37007874015748143 ) ;
#299 = SURFACE_SIDE_STYLE ('',( #253 ) ) ;
#300 = DIRECTION ( 'NONE',  ( -3.061616997868386099E-17, 1.000000000000000000, -0.000000000000000000 ) ) ;
#301 = PRODUCT ( '59841', '59841', '', ( #199 ) ) ;
#302 = PRESENTATION_STYLE_ASSIGNMENT (( #37 ) ) ;
#303 = UNCERTAINTY_MEASURE_WITH_UNIT (LENGTH_MEASURE( 1.000000000000000082E-05 ), #28, 'distance_accuracy_value', 'NONE');
#304 = MECHANICAL_DESIGN_GEOMETRIC_PRESENTATION_REPRESENTATION (  '', ( #207 ), #101 ) ;
#305 = COLOUR_RGB ( '',0.7921568627450980005, 0.8196078431372548767, 0.9333333333333333481 ) ;
#306 = CARTESIAN_POINT ( 'NONE',  ( 0.000000000000000000, 1.000000000000000000, -0.1562500000000000000 ) ) ;
#307 = ORIENTED_EDGE ( 'NONE', *, *, #169, .F. ) ;
#308 = ADVANCED_FACE ( 'NONE', ( #179 ), #255, .F. ) ;
#309 = CIRCLE ( 'NONE', #165, 0.1562500000000000833 ) ;
ENDSEC;
END-ISO-10303-21;
