ISO-10303-21;
HEADER;
FILE_DESCRIPTION (( 'STEP AP214' ),
    '1' );
FILE_NAME ('49060.STEP',
    '2023-06-30T21:56:28',
    ( '' ),
    ( '' ),
    'SwSTEP 2.0',
    'SolidWorks 2023',
    '' );
FILE_SCHEMA (( 'AUTOMOTIVE_DESIGN' ));
ENDSEC;

DATA;
#1 = CARTESIAN_POINT ( 'NONE',  ( 0.000000000000000000, 0.7500000000000001110, 0.000000000000000000 ) ) ;
#2 = MANIFOLD_SOLID_BREP ( 'Revolve - Tool Body (Straight Shanked)', #259 ) ;
#3 = ORIENTED_EDGE ( 'NONE', *, *, #201, .F. ) ;
#4 =( NAMED_UNIT ( * ) PLANE_ANGLE_UNIT ( ) SI_UNIT ( $, .RADIAN. ) );
#5 = MANIFOLD_SOLID_BREP ( 'Revolve - Cutting Edge', #213 ) ;
#6 = AXIS2_PLACEMENT_3D ( 'NONE', #298, #113, #114 ) ;
#7 = SURFACE_STYLE_USAGE ( .BOTH. , #127 ) ;
#8 = ORIENTED_EDGE ( 'NONE', *, *, #40, .T. ) ;
#9 = STYLED_ITEM ( 'NONE', ( #236 ), #211 ) ;
#10 = CARTESIAN_POINT ( 'NONE',  ( 0.000000000000000000, 0.09375000000000004163, 0.000000000000000000 ) ) ;
#11 =( GEOMETRIC_REPRESENTATION_CONTEXT ( 3 ) GLOBAL_UNCERTAINTY_ASSIGNED_CONTEXT ( ( #166 ) ) GLOBAL_UNIT_ASSIGNED_CONTEXT ( ( #208, #123, #76 ) ) REPRESENTATION_CONTEXT ( 'NONE', 'WORKASPACE' ) );
#12 = LENGTH_MEASURE_WITH_UNIT ( LENGTH_MEASURE( 0.02539999999999999897 ), #350 );
#13 = APPLICATION_CONTEXT ( 'automotive_design' ) ;
#14 = EDGE_CURVE ( 'NONE', #207, #308, #349, .T. ) ;
#15 = SURFACE_STYLE_FILL_AREA ( #97 ) ;
#16 = PRESENTATION_LAYER_ASSIGNMENT (  '', '', ( #9 ) ) ;
#17 = DIRECTION ( 'NONE',  ( 1.000000000000000000, 0.000000000000000000, 0.000000000000000000 ) ) ;
#18 = CARTESIAN_POINT ( 'NONE',  ( 0.000000000000000000, 0.000000000000000000, -0.09374999999999995837 ) ) ;
#19 = DIMENSIONAL_EXPONENTS ( 1.000000000000000000, 0.000000000000000000, 0.000000000000000000, 0.000000000000000000, 0.000000000000000000, 0.000000000000000000, 0.000000000000000000 ) ;
#20 =( CONVERSION_BASED_UNIT ( 'INCH', #342 ) LENGTH_UNIT ( ) NAMED_UNIT ( #19 ) );
#21 = CARTESIAN_POINT ( 'NONE',  ( -6.123233995736766036E-17, 2.500000000000000000, 0.000000000000000000 ) ) ;
#22 = CARTESIAN_POINT ( 'NONE',  ( 0.09374999999999988898, 2.500000000000000000, 1.148106374200642476E-17 ) ) ;
#23 = VECTOR ( 'NONE', #231, 39.37007874015748143 ) ;
#24 = UNCERTAINTY_MEASURE_WITH_UNIT (LENGTH_MEASURE( 1.000000000000000082E-05 ), #20, 'distance_accuracy_value', 'NONE');
#25 = DIRECTION ( 'NONE',  ( -1.000000000000000000, 0.000000000000000000, 0.000000000000000000 ) ) ;
#26 = AXIS2_PLACEMENT_3D ( 'NONE', #32, #203, #264 ) ;
#27 = CIRCLE ( 'NONE', #188, 0.09374999999999990286 ) ;
#28 = EDGE_LOOP ( 'NONE', ( #273, #351 ) ) ;
#29 = VECTOR ( 'NONE', #343, 39.37007874015748143 ) ;
#30 = ADVANCED_FACE ( 'NONE', ( #83 ), #163, .F. ) ;
#31 = LINE ( 'NONE', #200, #23 ) ;
#32 = CARTESIAN_POINT ( 'NONE',  ( 1.530808498934191078E-16, 0.7499999999999998890, 0.000000000000000000 ) ) ;
#33 =( LENGTH_UNIT ( ) NAMED_UNIT ( * ) SI_UNIT ( $, .METRE. ) );
#34 = CARTESIAN_POINT ( 'NONE',  ( 0.000000000000000000, 0.7500000000000001110, 0.000000000000000000 ) ) ;
#35 = FACE_OUTER_BOUND ( 'NONE', #357, .T. ) ;
#36 = FILL_AREA_STYLE ('',( #279 ) ) ;
#37 = DIRECTION ( 'NONE',  ( -1.000000000000000000, 0.000000000000000000, 0.000000000000000000 ) ) ;
#38 = STYLED_ITEM ( 'NONE', ( #267 ), #223 ) ;
#39 = ORIENTED_EDGE ( 'NONE', *, *, #49, .T. ) ;
#40 = EDGE_CURVE ( 'NONE', #142, #327, #260, .T. ) ;
#41 = PRODUCT_DEFINITION_FORMATION_WITH_SPECIFIED_SOURCE ( 'ANY', '', #224, .NOT_KNOWN. ) ;
#42 = FILL_AREA_STYLE_COLOUR ( '', #220 ) ;
#43 = CARTESIAN_POINT ( 'NONE',  ( 0.000000000000000000, 0.000000000000000000, 0.000000000000000000 ) ) ;
#44 = SURFACE_STYLE_USAGE ( .BOTH. , #194 ) ;
#45 = CARTESIAN_POINT ( 'NONE',  ( 1.148106374200643555E-17, 0.09375000000000004163, 0.09374999999999998612 ) ) ;
#46 = AXIS2_PLACEMENT_3D ( 'NONE', #105, #52, #313 ) ;
#47 = FACE_OUTER_BOUND ( 'NONE', #28, .T. ) ;
#48 = DIRECTION ( 'NONE',  ( -1.224646799147352961E-16, 1.000000000000000000, -0.000000000000000000 ) ) ;
#49 = EDGE_CURVE ( 'NONE', #307, #308, #131, .T. ) ;
#50 = DIMENSIONAL_EXPONENTS ( 1.000000000000000000, 0.000000000000000000, 0.000000000000000000, 0.000000000000000000, 0.000000000000000000, 0.000000000000000000, 0.000000000000000000 ) ;
#51 = LENGTH_MEASURE_WITH_UNIT ( LENGTH_MEASURE( 0.02539999999999999897 ), #192 );
#52 = DIRECTION ( 'NONE',  ( 1.224646799147353207E-16, -0.000000000000000000, 1.000000000000000000 ) ) ;
#53 = DIRECTION ( 'NONE',  ( -1.224646799147352961E-16, 1.000000000000000000, -0.000000000000000000 ) ) ;
#54 = CYLINDRICAL_SURFACE ( 'NONE', #326, 0.09374999999999984734 ) ;
#55 = COLOUR_RGB ( '',0.7921568627450980005, 0.8196078431372548767, 0.9333333333333333481 ) ;
#56 = DIRECTION ( 'NONE',  ( 0.000000000000000000, 0.000000000000000000, -1.000000000000000000 ) ) ;
#57 = APPLICATION_CONTEXT ( 'automotive_design' ) ;
#58 = CIRCLE ( 'NONE', #78, 0.09374999999999998612 ) ;
#59 = CIRCLE ( 'NONE', #286, 0.09374999999999975020 ) ;
#60 = MECHANICAL_DESIGN_GEOMETRIC_PRESENTATION_REPRESENTATION (  '', ( #38 ), #197 ) ;
#61 = PRODUCT_DEFINITION ( 'UNKNOWN', '', #41, #254 ) ;
#62 = ORIENTED_EDGE ( 'NONE', *, *, #158, .F. ) ;
#63 = ORIENTED_EDGE ( 'NONE', *, *, #49, .F. ) ;
#64 = CARTESIAN_POINT ( 'NONE',  ( 1.148106374200642938E-17, 0.7500000000000001110, 0.09374999999999990286 ) ) ;
#65 = UNCERTAINTY_MEASURE_WITH_UNIT (LENGTH_MEASURE( 1.000000000000000082E-05 ), #206, 'distance_accuracy_value', 'NONE');
#66 = SURFACE_STYLE_FILL_AREA ( #147 ) ;
#67 = SURFACE_STYLE_USAGE ( .BOTH. , #77 ) ;
#68 = CARTESIAN_POINT ( 'NONE',  ( 0.000000000000000000, 0.09375000000000004163, -0.09374999999999998612 ) ) ;
#69 =( NAMED_UNIT ( * ) SI_UNIT ( $, .STERADIAN. ) SOLID_ANGLE_UNIT ( ) );
#70 = VERTEX_POINT ( 'NONE', #164 ) ;
#71 = LENGTH_MEASURE_WITH_UNIT ( LENGTH_MEASURE( 0.02539999999999999897 ), #237 );
#72 = SURFACE_STYLE_USAGE ( .BOTH. , #214 ) ;
#73 =( GEOMETRIC_REPRESENTATION_CONTEXT ( 3 ) GLOBAL_UNCERTAINTY_ASSIGNED_CONTEXT ( ( #107 ) ) GLOBAL_UNIT_ASSIGNED_CONTEXT ( ( #332, #352, #171 ) ) REPRESENTATION_CONTEXT ( 'NONE', 'WORKASPACE' ) );
#74 = APPLICATION_PROTOCOL_DEFINITION ( 'draft international standard', 'automotive_design', 1998, #57 ) ;
#75 = SURFACE_STYLE_FILL_AREA ( #153 ) ;
#76 =( NAMED_UNIT ( * ) SI_UNIT ( $, .STERADIAN. ) SOLID_ANGLE_UNIT ( ) );
#77 = SURFACE_SIDE_STYLE ('',( #15 ) ) ;
#78 = AXIS2_PLACEMENT_3D ( 'NONE', #234, #124, #178 ) ;
#79 = CARTESIAN_POINT ( 'NONE',  ( 0.09374999999999998612, 0.09375000000000004163, 0.000000000000000000 ) ) ;
#80 = APPLICATION_PROTOCOL_DEFINITION ( 'draft international standard', 'automotive_design', 1998, #13 ) ;
#81 = SURFACE_SIDE_STYLE ('',( #162 ) ) ;
#82 = DIRECTION ( 'NONE',  ( 0.000000000000000000, 0.000000000000000000, -1.000000000000000000 ) ) ;
#83 = FACE_OUTER_BOUND ( 'NONE', #331, .T. ) ;
#84 = DIMENSIONAL_EXPONENTS ( 1.000000000000000000, 0.000000000000000000, 0.000000000000000000, 0.000000000000000000, 0.000000000000000000, 0.000000000000000000, 0.000000000000000000 ) ;
#85 = CYLINDRICAL_SURFACE ( 'NONE', #6, 0.09374999999999995837 ) ;
#86 = PRESENTATION_LAYER_ASSIGNMENT (  '', '', ( #324 ) ) ;
#87 = ORIENTED_EDGE ( 'NONE', *, *, #328, .T. ) ;
#88 = AXIS2_PLACEMENT_3D ( 'NONE', #219, #137, #25 ) ;
#89 = UNCERTAINTY_MEASURE_WITH_UNIT (LENGTH_MEASURE( 1.000000000000000082E-05 ), #148, 'distance_accuracy_value', 'NONE');
#90 =( GEOMETRIC_REPRESENTATION_CONTEXT ( 3 ) GLOBAL_UNCERTAINTY_ASSIGNED_CONTEXT ( ( #24 ) ) GLOBAL_UNIT_ASSIGNED_CONTEXT ( ( #20, #370, #218 ) ) REPRESENTATION_CONTEXT ( 'NONE', 'WORKASPACE' ) );
#91 = ORIENTED_EDGE ( 'NONE', *, *, #102, .F. ) ;
#92 =( CONVERSION_BASED_UNIT ( 'INCH', #12 ) LENGTH_UNIT ( ) NAMED_UNIT ( #283 ) );
#93 = PRESENTATION_LAYER_ASSIGNMENT (  '', '', ( #181 ) ) ;
#94 = VERTEX_POINT ( 'NONE', #79 ) ;
#95 =( NAMED_UNIT ( * ) SI_UNIT ( $, .STERADIAN. ) SOLID_ANGLE_UNIT ( ) );
#96 = CARTESIAN_POINT ( 'NONE',  ( 1.530808498934191078E-16, 0.7499999999999998890, 0.000000000000000000 ) ) ;
#97 = FILL_AREA_STYLE ('',( #42 ) ) ;
#98 = ORIENTED_EDGE ( 'NONE', *, *, #337, .F. ) ;
#99 = MECHANICAL_DESIGN_GEOMETRIC_PRESENTATION_REPRESENTATION (  '', ( #9 ), #140 ) ;
#100 = DIMENSIONAL_EXPONENTS ( 1.000000000000000000, 0.000000000000000000, 0.000000000000000000, 0.000000000000000000, 0.000000000000000000, 0.000000000000000000, 0.000000000000000000 ) ;
#101 = SURFACE_SIDE_STYLE ('',( #109 ) ) ;
#102 = EDGE_CURVE ( 'NONE', #229, #142, #344, .T. ) ;
#103 = DIRECTION ( 'NONE',  ( -1.000000000000000000, -1.224646799147352961E-16, 0.000000000000000000 ) ) ;
#104 = DIMENSIONAL_EXPONENTS ( 1.000000000000000000, 0.000000000000000000, 0.000000000000000000, 0.000000000000000000, 0.000000000000000000, 0.000000000000000000, 0.000000000000000000 ) ;
#105 = CARTESIAN_POINT ( 'NONE',  ( -1.148106374200644017E-17, 0.09375000000000002776, 0.000000000000000000 ) ) ;
#106 = DIRECTION ( 'NONE',  ( -1.224646799147352961E-16, 1.000000000000000000, -0.000000000000000000 ) ) ;
#107 = UNCERTAINTY_MEASURE_WITH_UNIT (LENGTH_MEASURE( 1.000000000000000082E-05 ), #332, 'distance_accuracy_value', 'NONE');
#108 = FACE_OUTER_BOUND ( 'NONE', #348, .T. ) ;
#109 = SURFACE_STYLE_FILL_AREA ( #287 ) ;
#110 = FACE_OUTER_BOUND ( 'NONE', #303, .T. ) ;
#111 = PRESENTATION_STYLE_ASSIGNMENT (( #196 ) ) ;
#112 = MECHANICAL_DESIGN_GEOMETRIC_PRESENTATION_REPRESENTATION (  '', ( #292 ), #321 ) ;
#113 = DIRECTION ( 'NONE',  ( -0.000000000000000000, -1.000000000000000000, -0.000000000000000000 ) ) ;
#114 = DIRECTION ( 'NONE',  ( 0.000000000000000000, 0.000000000000000000, -1.000000000000000000 ) ) ;
#115 = DIRECTION ( 'NONE',  ( -0.000000000000000000, -1.000000000000000000, -0.000000000000000000 ) ) ;
#116 = AXIS2_PLACEMENT_3D ( 'NONE', #320, #195, #252 ) ;
#117 = ADVANCED_FACE ( 'NONE', ( #108 ), #341, .T. ) ;
#118 = SPHERICAL_SURFACE ( 'NONE', #226, 0.09375000000000002776 ) ;
#119 = PRESENTATION_STYLE_ASSIGNMENT (( #72 ) ) ;
#120 = DIRECTION ( 'NONE',  ( 0.000000000000000000, 0.000000000000000000, -1.000000000000000000 ) ) ;
#121 = EDGE_CURVE ( 'NONE', #154, #207, #169, .T. ) ;
#122 = STYLED_ITEM ( 'NONE', ( #119 ), #5 ) ;
#123 =( NAMED_UNIT ( * ) PLANE_ANGLE_UNIT ( ) SI_UNIT ( $, .RADIAN. ) );
#124 = DIRECTION ( 'NONE',  ( -0.000000000000000000, -1.000000000000000000, -0.000000000000000000 ) ) ;
#125 = ORIENTED_EDGE ( 'NONE', *, *, #265, .T. ) ;
#126 = ORIENTED_EDGE ( 'NONE', *, *, #353, .T. ) ;
#127 = SURFACE_SIDE_STYLE ('',( #75 ) ) ;
#128 =( LENGTH_UNIT ( ) NAMED_UNIT ( * ) SI_UNIT ( $, .METRE. ) );
#129 = AXIS2_PLACEMENT_3D ( 'NONE', #138, #48, #187 ) ;
#130 = DIMENSIONAL_EXPONENTS ( 1.000000000000000000, 0.000000000000000000, 0.000000000000000000, 0.000000000000000000, 0.000000000000000000, 0.000000000000000000, 0.000000000000000000 ) ;
#131 = LINE ( 'NONE', #18, #29 ) ;
#132 = PRODUCT_DEFINITION_SHAPE ( 'NONE', 'NONE',  #61 ) ;
#133 = CARTESIAN_POINT ( 'NONE',  ( -1.148106374200644017E-17, 0.09375000000000002776, 0.000000000000000000 ) ) ;
#134 =( NAMED_UNIT ( * ) SI_UNIT ( $, .STERADIAN. ) SOLID_ANGLE_UNIT ( ) );
#135 = PRESENTATION_LAYER_ASSIGNMENT (  '', '', ( #38 ) ) ;
#136 = EDGE_CURVE ( 'NONE', #325, #307, #346, .T. ) ;
#137 = DIRECTION ( 'NONE',  ( -1.224646799147352961E-16, 1.000000000000000000, -0.000000000000000000 ) ) ;
#138 = CARTESIAN_POINT ( 'NONE',  ( -6.123233995736766036E-17, 2.500000000000000000, 0.000000000000000000 ) ) ;
#139 = UNCERTAINTY_MEASURE_WITH_UNIT (LENGTH_MEASURE( 1.000000000000000082E-05 ), #361, 'distance_accuracy_value', 'NONE');
#140 =( GEOMETRIC_REPRESENTATION_CONTEXT ( 3 ) GLOBAL_UNCERTAINTY_ASSIGNED_CONTEXT ( ( #322 ) ) GLOBAL_UNIT_ASSIGNED_CONTEXT ( ( #92, #356, #149 ) ) REPRESENTATION_CONTEXT ( 'NONE', 'WORKASPACE' ) );
#141 = ORIENTED_EDGE ( 'NONE', *, *, #256, .T. ) ;
#142 = VERTEX_POINT ( 'NONE', #22 ) ;
#143 = PRESENTATION_LAYER_ASSIGNMENT (  '', '', ( #315 ) ) ;
#144 = ORIENTED_EDGE ( 'NONE', *, *, #102, .T. ) ;
#145 = CARTESIAN_POINT ( 'NONE',  ( 0.000000000000000000, 0.7500000000000001110, -0.09374999999999990286 ) ) ;
#146 = ADVANCED_FACE ( 'NONE', ( #189 ), #255, .F. ) ;
#147 = FILL_AREA_STYLE ('',( #306 ) ) ;
#148 =( CONVERSION_BASED_UNIT ( 'INCH', #358 ) LENGTH_UNIT ( ) NAMED_UNIT ( #104 ) );
#149 =( NAMED_UNIT ( * ) SI_UNIT ( $, .STERADIAN. ) SOLID_ANGLE_UNIT ( ) );
#150 = ORIENTED_EDGE ( 'NONE', *, *, #121, .F. ) ;
#151 = ADVANCED_FACE ( 'NONE', ( #317 ), #54, .T. ) ;
#152 = AXIS2_PLACEMENT_3D ( 'NONE', #366, #363, #82 ) ;
#153 = FILL_AREA_STYLE ('',( #210 ) ) ;
#154 = VERTEX_POINT ( 'NONE', #45 ) ;
#155 = CIRCLE ( 'NONE', #333, 0.09374999999999997224 ) ;
#156 = VECTOR ( 'NONE', #239, 39.37007874015748143 ) ;
#157 = ORIENTED_EDGE ( 'NONE', *, *, #311, .T. ) ;
#158 = EDGE_CURVE ( 'NONE', #327, #142, #155, .T. ) ;
#159 = CARTESIAN_POINT ( 'NONE',  ( 0.000000000000000000, 0.09375000000000004163, 0.000000000000000000 ) ) ;
#160 = DIRECTION ( 'NONE',  ( 0.000000000000000000, 0.000000000000000000, -1.000000000000000000 ) ) ;
#161 = COLOUR_RGB ( '',1.000000000000000000, 0.000000000000000000, 0.000000000000000000 ) ;
#162 = SURFACE_STYLE_FILL_AREA ( #217 ) ;
#163 = PLANE ( 'NONE',  #184 ) ;
#164 = CARTESIAN_POINT ( 'NONE',  ( -0.09374999999999959754, 0.7499999999999998890, 0.000000000000000000 ) ) ;
#165 = FILL_AREA_STYLE_COLOUR ( '', #271 ) ;
#166 = UNCERTAINTY_MEASURE_WITH_UNIT (LENGTH_MEASURE( 1.000000000000000082E-05 ), #208, 'distance_accuracy_value', 'NONE');
#167 = DIRECTION ( 'NONE',  ( -1.224646799147352961E-16, 1.000000000000000000, -0.000000000000000000 ) ) ;
#168 = EDGE_LOOP ( 'NONE', ( #305, #125, #182, #126 ) ) ;
#169 = CIRCLE ( 'NONE', #116, 0.09374999999999998612 ) ;
#170 = VERTEX_POINT ( 'NONE', #281 ) ;
#171 =( NAMED_UNIT ( * ) SI_UNIT ( $, .STERADIAN. ) SOLID_ANGLE_UNIT ( ) );
#172 = ORIENTED_EDGE ( 'NONE', *, *, #158, .T. ) ;
#173 = CARTESIAN_POINT ( 'NONE',  ( -0.09375000000000004163, 2.500000000000000000, 0.000000000000000000 ) ) ;
#174 = DIRECTION ( 'NONE',  ( 0.000000000000000000, 0.000000000000000000, 1.000000000000000000 ) ) ;
#175 = DIRECTION ( 'NONE',  ( -1.224646799147352961E-16, 1.000000000000000000, -0.000000000000000000 ) ) ;
#176 = AXIS2_PLACEMENT_3D ( 'NONE', #365, #367, #103 ) ;
#177 = PRESENTATION_STYLE_ASSIGNMENT (( #67 ) ) ;
#178 = DIRECTION ( 'NONE',  ( 0.000000000000000000, 0.000000000000000000, -1.000000000000000000 ) ) ;
#179 = ORIENTED_EDGE ( 'NONE', *, *, #353, .F. ) ;
#180 = EDGE_LOOP ( 'NONE', ( #91, #230, #345, #232 ) ) ;
#181 = STYLED_ITEM ( 'NONE', ( #290 ), #274 ) ;
#182 = ORIENTED_EDGE ( 'NONE', *, *, #256, .F. ) ;
#183 =( LENGTH_UNIT ( ) NAMED_UNIT ( * ) SI_UNIT ( $, .METRE. ) );
#184 = AXIS2_PLACEMENT_3D ( 'NONE', #222, #250, #291 ) ;
#185 = ORIENTED_EDGE ( 'NONE', *, *, #201, .T. ) ;
#186 = PRODUCT_RELATED_PRODUCT_CATEGORY ( 'part', '', ( #224 ) ) ;
#187 = DIRECTION ( 'NONE',  ( -1.000000000000000000, 0.000000000000000000, 0.000000000000000000 ) ) ;
#188 = AXIS2_PLACEMENT_3D ( 'NONE', #1, #233, #56 ) ;
#189 = FACE_OUTER_BOUND ( 'NONE', #227, .T. ) ;
#190 = LENGTH_MEASURE_WITH_UNIT ( LENGTH_MEASURE( 0.02539999999999999897 ), #300 );
#191 = FACE_OUTER_BOUND ( 'NONE', #355, .T. ) ;
#192 =( LENGTH_UNIT ( ) NAMED_UNIT ( * ) SI_UNIT ( $, .METRE. ) );
#193 = ADVANCED_FACE ( 'NONE', ( #110 ), #85, .T. ) ;
#194 = SURFACE_SIDE_STYLE ('',( #318 ) ) ;
#195 = DIRECTION ( 'NONE',  ( -0.000000000000000000, -1.000000000000000000, -0.000000000000000000 ) ) ;
#196 = SURFACE_STYLE_USAGE ( .BOTH. , #81 ) ;
#197 =( GEOMETRIC_REPRESENTATION_CONTEXT ( 3 ) GLOBAL_UNCERTAINTY_ASSIGNED_CONTEXT ( ( #65 ) ) GLOBAL_UNIT_ASSIGNED_CONTEXT ( ( #206, #354, #69 ) ) REPRESENTATION_CONTEXT ( 'NONE', 'WORKASPACE' ) );
#198 = ORIENTED_EDGE ( 'NONE', *, *, #328, .F. ) ;
#199 =( NAMED_UNIT ( * ) SI_UNIT ( $, .STERADIAN. ) SOLID_ANGLE_UNIT ( ) );
#200 = CARTESIAN_POINT ( 'NONE',  ( 1.148106374200643092E-17, 0.000000000000000000, 0.09374999999999995837 ) ) ;
#201 = EDGE_CURVE ( 'NONE', #325, #154, #31, .T. ) ;
#202 = MECHANICAL_DESIGN_GEOMETRIC_PRESENTATION_REPRESENTATION (  '', ( #315 ), #253 ) ;
#203 = DIRECTION ( 'NONE',  ( -1.224646799147352961E-16, 1.000000000000000000, -0.000000000000000000 ) ) ;
#204 = CIRCLE ( 'NONE', #46, 0.09375000000000002776 ) ;
#205 = EDGE_CURVE ( 'NONE', #307, #325, #27, .T. ) ;
#206 =( CONVERSION_BASED_UNIT ( 'INCH', #272 ) LENGTH_UNIT ( ) NAMED_UNIT ( #100 ) );
#207 = VERTEX_POINT ( 'NONE', #293 ) ;
#208 =( CONVERSION_BASED_UNIT ( 'INCH', #241 ) LENGTH_UNIT ( ) NAMED_UNIT ( #130 ) );
#209 = DIRECTION ( 'NONE',  ( 0.000000000000000000, 0.000000000000000000, 1.000000000000000000 ) ) ;
#210 = FILL_AREA_STYLE_COLOUR ( '', #161 ) ;
#211 = ADVANCED_FACE ( 'NONE', ( #257 ), #118, .T. ) ;
#212 = CARTESIAN_POINT ( 'NONE',  ( -1.148106374200644017E-17, 0.09375000000000002776, 0.000000000000000000 ) ) ;
#213 = CLOSED_SHELL ( 'NONE', ( #211, #261, #274, #193, #223 ) ) ;
#214 = SURFACE_SIDE_STYLE ('',( #269 ) ) ;
#215 = PRODUCT_CONTEXT ( 'NONE', #57, 'mechanical' ) ;
#216 = PRESENTATION_STYLE_ASSIGNMENT (( #44 ) ) ;
#217 = FILL_AREA_STYLE ('',( #373 ) ) ;
#218 =( NAMED_UNIT ( * ) SI_UNIT ( $, .STERADIAN. ) SOLID_ANGLE_UNIT ( ) );
#219 = CARTESIAN_POINT ( 'NONE',  ( -6.123233995736766036E-17, 2.500000000000000000, 0.000000000000000000 ) ) ;
#220 = COLOUR_RGB ( '',0.7921568627450980005, 0.8196078431372548767, 0.9333333333333333481 ) ;
#221 = SURFACE_STYLE_USAGE ( .BOTH. , #101 ) ;
#222 = CARTESIAN_POINT ( 'NONE',  ( 0.09374999999999990286, 2.500000000000000000, 0.000000000000000000 ) ) ;
#223 = ADVANCED_FACE ( 'NONE', ( #35 ), #251, .T. ) ;
#224 = PRODUCT ( '49060', '49060', '', ( #215 ) ) ;
#225 = CARTESIAN_POINT ( 'NONE',  ( 0.09374999999999979183, 2.500000000000000000, 1.148106374200641860E-17 ) ) ;
#226 = AXIS2_PLACEMENT_3D ( 'NONE', #336, #174, #302 ) ;
#227 = EDGE_LOOP ( 'NONE', ( #262, #277 ) ) ;
#228 = UNCERTAINTY_MEASURE_WITH_UNIT (LENGTH_MEASURE( 1.000000000000000082E-05 ), #285, 'distance_accuracy_value', 'NONE');
#229 = VERTEX_POINT ( 'NONE', #278 ) ;
#230 = ORIENTED_EDGE ( 'NONE', *, *, #323, .T. ) ;
#231 = DIRECTION ( 'NONE',  ( -0.000000000000000000, -1.000000000000000000, -0.000000000000000000 ) ) ;
#232 = ORIENTED_EDGE ( 'NONE', *, *, #40, .F. ) ;
#233 = DIRECTION ( 'NONE',  ( -0.000000000000000000, -1.000000000000000000, -0.000000000000000000 ) ) ;
#234 = CARTESIAN_POINT ( 'NONE',  ( 0.000000000000000000, 0.09375000000000004163, 0.000000000000000000 ) ) ;
#235 = DIRECTION ( 'NONE',  ( 0.000000000000000000, 1.000000000000000000, 0.000000000000000000 ) ) ;
#236 = PRESENTATION_STYLE_ASSIGNMENT (( #7 ) ) ;
#237 =( LENGTH_UNIT ( ) NAMED_UNIT ( * ) SI_UNIT ( $, .METRE. ) );
#238 =( NAMED_UNIT ( * ) PLANE_ANGLE_UNIT ( ) SI_UNIT ( $, .RADIAN. ) );
#239 = DIRECTION ( 'NONE',  ( -1.224646799147352961E-16, 1.000000000000000000, -0.000000000000000000 ) ) ;
#240 = SURFACE_STYLE_USAGE ( .BOTH. , #268 ) ;
#241 = LENGTH_MEASURE_WITH_UNIT ( LENGTH_MEASURE( 0.02539999999999999897 ), #244 );
#242 = CIRCLE ( 'NONE', #329, 0.09375000000000002776 ) ;
#243 = FILL_AREA_STYLE_COLOUR ( '', #258 ) ;
#244 =( LENGTH_UNIT ( ) NAMED_UNIT ( * ) SI_UNIT ( $, .METRE. ) );
#245 = SHAPE_DEFINITION_REPRESENTATION ( #132, #297 ) ;
#246 = AXIS2_PLACEMENT_3D ( 'NONE', #159, #282, #369 ) ;
#247 = DIMENSIONAL_EXPONENTS ( 1.000000000000000000, 0.000000000000000000, 0.000000000000000000, 0.000000000000000000, 0.000000000000000000, 0.000000000000000000, 0.000000000000000000 ) ;
#248 = DIRECTION ( 'NONE',  ( 0.000000000000000000, 0.000000000000000000, 1.000000000000000000 ) ) ;
#249 = DIRECTION ( 'NONE',  ( 0.000000000000000000, 0.000000000000000000, -1.000000000000000000 ) ) ;
#250 = DIRECTION ( 'NONE',  ( 1.224646799147352961E-16, -1.000000000000000000, 0.000000000000000000 ) ) ;
#251 = SPHERICAL_SURFACE ( 'NONE', #359, 0.09375000000000002776 ) ;
#252 = DIRECTION ( 'NONE',  ( 0.000000000000000000, 0.000000000000000000, -1.000000000000000000 ) ) ;
#253 =( GEOMETRIC_REPRESENTATION_CONTEXT ( 3 ) GLOBAL_UNCERTAINTY_ASSIGNED_CONTEXT ( ( #228 ) ) GLOBAL_UNIT_ASSIGNED_CONTEXT ( ( #285, #4, #199 ) ) REPRESENTATION_CONTEXT ( 'NONE', 'WORKASPACE' ) );
#254 = PRODUCT_DEFINITION_CONTEXT ( 'detailed design', #13, 'design' ) ;
#255 = PLANE ( 'NONE',  #176 ) ;
#256 = EDGE_CURVE ( 'NONE', #94, #170, #242, .T. ) ;
#257 = FACE_OUTER_BOUND ( 'NONE', #168, .T. ) ;
#258 = COLOUR_RGB ( '',1.000000000000000000, 0.000000000000000000, 0.000000000000000000 ) ;
#259 = CLOSED_SHELL ( 'NONE', ( #117, #146, #151, #30 ) ) ;
#260 = CIRCLE ( 'NONE', #88, 0.09374999999999997224 ) ;
#261 = ADVANCED_FACE ( 'NONE', ( #191 ), #340, .T. ) ;
#262 = ORIENTED_EDGE ( 'NONE', *, *, #311, .F. ) ;
#263 = ORIENTED_EDGE ( 'NONE', *, *, #14, .T. ) ;
#264 = DIRECTION ( 'NONE',  ( -1.000000000000000000, 0.000000000000000000, 0.000000000000000000 ) ) ;
#265 = EDGE_CURVE ( 'NONE', #207, #170, #204, .T. ) ;
#266 = PRESENTATION_LAYER_ASSIGNMENT (  '', '', ( #122 ) ) ;
#267 = PRESENTATION_STYLE_ASSIGNMENT (( #240 ) ) ;
#268 = SURFACE_SIDE_STYLE ('',( #66 ) ) ;
#269 = SURFACE_STYLE_FILL_AREA ( #36 ) ;
#270 = LINE ( 'NONE', #334, #156 ) ;
#271 = COLOUR_RGB ( '',1.000000000000000000, 0.000000000000000000, 0.000000000000000000 ) ;
#272 = LENGTH_MEASURE_WITH_UNIT ( LENGTH_MEASURE( 0.02539999999999999897 ), #183 );
#273 = ORIENTED_EDGE ( 'NONE', *, *, #205, .F. ) ;
#274 = ADVANCED_FACE ( 'NONE', ( #47 ), #330, .T. ) ;
#275 = AXIS2_PLACEMENT_3D ( 'NONE', #339, #289, #249 ) ;
#276 = ORIENTED_EDGE ( 'NONE', *, *, #205, .T. ) ;
#277 = ORIENTED_EDGE ( 'NONE', *, *, #323, .F. ) ;
#278 = CARTESIAN_POINT ( 'NONE',  ( 0.09374999999999988898, 0.7499999999999998890, 1.148106374200642476E-17 ) ) ;
#279 = FILL_AREA_STYLE_COLOUR ( '', #55 ) ;
#280 = CIRCLE ( 'NONE', #26, 0.09374999999999975020 ) ;
#281 = CARTESIAN_POINT ( 'NONE',  ( -5.740531871003220085E-18, 0.000000000000000000, 0.000000000000000000 ) ) ;
#282 = DIRECTION ( 'NONE',  ( -0.000000000000000000, -1.000000000000000000, -0.000000000000000000 ) ) ;
#283 = DIMENSIONAL_EXPONENTS ( 1.000000000000000000, 0.000000000000000000, 0.000000000000000000, 0.000000000000000000, 0.000000000000000000, 0.000000000000000000, 0.000000000000000000 ) ;
#284 = AXIS2_PLACEMENT_3D ( 'NONE', #10, #115, #120 ) ;
#285 =( CONVERSION_BASED_UNIT ( 'INCH', #51 ) LENGTH_UNIT ( ) NAMED_UNIT ( #247 ) );
#286 = AXIS2_PLACEMENT_3D ( 'NONE', #96, #175, #37 ) ;
#287 = FILL_AREA_STYLE ('',( #243 ) ) ;
#288 = AXIS2_PLACEMENT_3D ( 'NONE', #34, #235, #299 ) ;
#289 = DIRECTION ( 'NONE',  ( -0.000000000000000000, -1.000000000000000000, -0.000000000000000000 ) ) ;
#290 = PRESENTATION_STYLE_ASSIGNMENT (( #221 ) ) ;
#291 = DIRECTION ( 'NONE',  ( 1.000000000000000000, 1.224646799147352961E-16, 0.000000000000000000 ) ) ;
#292 = STYLED_ITEM ( 'NONE', ( #177 ), #2 ) ;
#293 = CARTESIAN_POINT ( 'NONE',  ( -0.09375000000000002776, 0.09375000000000004163, 1.148106374200643555E-17 ) ) ;
#294 = PRESENTATION_LAYER_ASSIGNMENT (  '', '', ( #292 ) ) ;
#295 = ORIENTED_EDGE ( 'NONE', *, *, #14, .F. ) ;
#296 =( GEOMETRIC_REPRESENTATION_CONTEXT ( 3 ) GLOBAL_UNCERTAINTY_ASSIGNED_CONTEXT ( ( #139 ) ) GLOBAL_UNIT_ASSIGNED_CONTEXT ( ( #361, #316, #134 ) ) REPRESENTATION_CONTEXT ( 'NONE', 'WORKASPACE' ) );
#297 = ADVANCED_BREP_SHAPE_REPRESENTATION ( '49060', ( #5, #2, #364 ), #296 ) ;
#298 = CARTESIAN_POINT ( 'NONE',  ( 0.000000000000000000, 0.000000000000000000, 0.000000000000000000 ) ) ;
#299 = DIRECTION ( 'NONE',  ( 0.000000000000000000, -0.000000000000000000, 1.000000000000000000 ) ) ;
#300 =( LENGTH_UNIT ( ) NAMED_UNIT ( * ) SI_UNIT ( $, .METRE. ) );
#301 = MECHANICAL_DESIGN_GEOMETRIC_PRESENTATION_REPRESENTATION (  '', ( #324 ), #90 ) ;
#302 = DIRECTION ( 'NONE',  ( 1.000000000000000000, 0.000000000000000000, 0.000000000000000000 ) ) ;
#303 = EDGE_LOOP ( 'NONE', ( #3, #347, #39, #295, #150 ) ) ;
#304 = VECTOR ( 'NONE', #167, 39.37007874015748143 ) ;
#305 = ORIENTED_EDGE ( 'NONE', *, *, #121, .T. ) ;
#306 = FILL_AREA_STYLE_COLOUR ( '', #319 ) ;
#307 = VERTEX_POINT ( 'NONE', #145 ) ;
#308 = VERTEX_POINT ( 'NONE', #68 ) ;
#309 = CIRCLE ( 'NONE', #284, 0.09374999999999998612 ) ;
#310 = ORIENTED_EDGE ( 'NONE', *, *, #265, .F. ) ;
#311 = EDGE_CURVE ( 'NONE', #70, #229, #280, .T. ) ;
#312 = DIRECTION ( 'NONE',  ( -1.000000000000000000, 0.000000000000000000, 0.000000000000000000 ) ) ;
#313 = DIRECTION ( 'NONE',  ( 1.000000000000000000, 0.000000000000000000, -1.224646799147353207E-16 ) ) ;
#314 = CARTESIAN_POINT ( 'NONE',  ( -6.123233995736766036E-17, 2.500000000000000000, 0.000000000000000000 ) ) ;
#315 = STYLED_ITEM ( 'NONE', ( #111 ), #193 ) ;
#316 =( NAMED_UNIT ( * ) PLANE_ANGLE_UNIT ( ) SI_UNIT ( $, .RADIAN. ) );
#317 = FACE_OUTER_BOUND ( 'NONE', #180, .T. ) ;
#318 = SURFACE_STYLE_FILL_AREA ( #360 ) ;
#319 = COLOUR_RGB ( '',1.000000000000000000, 0.000000000000000000, 0.000000000000000000 ) ;
#320 = CARTESIAN_POINT ( 'NONE',  ( 0.000000000000000000, 0.09375000000000004163, 0.000000000000000000 ) ) ;
#321 =( GEOMETRIC_REPRESENTATION_CONTEXT ( 3 ) GLOBAL_UNCERTAINTY_ASSIGNED_CONTEXT ( ( #89 ) ) GLOBAL_UNIT_ASSIGNED_CONTEXT ( ( #148, #238, #95 ) ) REPRESENTATION_CONTEXT ( 'NONE', 'WORKASPACE' ) );
#322 = UNCERTAINTY_MEASURE_WITH_UNIT (LENGTH_MEASURE( 1.000000000000000082E-05 ), #92, 'distance_accuracy_value', 'NONE');
#323 = EDGE_CURVE ( 'NONE', #229, #70, #59, .T. ) ;
#324 = STYLED_ITEM ( 'NONE', ( #216 ), #261 ) ;
#325 = VERTEX_POINT ( 'NONE', #64 ) ;
#326 = AXIS2_PLACEMENT_3D ( 'NONE', #314, #53, #312 ) ;
#327 = VERTEX_POINT ( 'NONE', #173 ) ;
#328 = EDGE_CURVE ( 'NONE', #308, #94, #58, .T. ) ;
#329 = AXIS2_PLACEMENT_3D ( 'NONE', #212, #160, #338 ) ;
#330 = PLANE ( 'NONE',  #288 ) ;
#331 = EDGE_LOOP ( 'NONE', ( #172, #8 ) ) ;
#332 =( CONVERSION_BASED_UNIT ( 'INCH', #71 ) LENGTH_UNIT ( ) NAMED_UNIT ( #84 ) );
#333 = AXIS2_PLACEMENT_3D ( 'NONE', #21, #106, #372 ) ;
#334 = CARTESIAN_POINT ( 'NONE',  ( -0.09374999999999991673, 2.500000000000000000, 0.000000000000000000 ) ) ;
#335 = DIRECTION ( 'NONE',  ( 1.000000000000000000, 0.000000000000000000, 0.000000000000000000 ) ) ;
#336 = CARTESIAN_POINT ( 'NONE',  ( -1.148106374200644017E-17, 0.09375000000000002776, 0.000000000000000000 ) ) ;
#337 = EDGE_CURVE ( 'NONE', #70, #327, #270, .T. ) ;
#338 = DIRECTION ( 'NONE',  ( -1.000000000000000000, 0.000000000000000000, 0.000000000000000000 ) ) ;
#339 = CARTESIAN_POINT ( 'NONE',  ( 0.000000000000000000, 0.7500000000000001110, 0.000000000000000000 ) ) ;
#340 = CYLINDRICAL_SURFACE ( 'NONE', #152, 0.09374999999999995837 ) ;
#341 = CYLINDRICAL_SURFACE ( 'NONE', #129, 0.09374999999999984734 ) ;
#342 = LENGTH_MEASURE_WITH_UNIT ( LENGTH_MEASURE( 0.02539999999999999897 ), #128 );
#343 = DIRECTION ( 'NONE',  ( -0.000000000000000000, -1.000000000000000000, -0.000000000000000000 ) ) ;
#344 = LINE ( 'NONE', #225, #304 ) ;
#345 = ORIENTED_EDGE ( 'NONE', *, *, #337, .T. ) ;
#346 = CIRCLE ( 'NONE', #275, 0.09374999999999990286 ) ;
#347 = ORIENTED_EDGE ( 'NONE', *, *, #136, .T. ) ;
#348 = EDGE_LOOP ( 'NONE', ( #157, #144, #62, #98 ) ) ;
#349 = CIRCLE ( 'NONE', #246, 0.09374999999999998612 ) ;
#350 =( LENGTH_UNIT ( ) NAMED_UNIT ( * ) SI_UNIT ( $, .METRE. ) );
#351 = ORIENTED_EDGE ( 'NONE', *, *, #136, .F. ) ;
#352 =( NAMED_UNIT ( * ) PLANE_ANGLE_UNIT ( ) SI_UNIT ( $, .RADIAN. ) );
#353 = EDGE_CURVE ( 'NONE', #94, #154, #309, .T. ) ;
#354 =( NAMED_UNIT ( * ) PLANE_ANGLE_UNIT ( ) SI_UNIT ( $, .RADIAN. ) );
#355 = EDGE_LOOP ( 'NONE', ( #276, #185, #179, #198, #63 ) ) ;
#356 =( NAMED_UNIT ( * ) PLANE_ANGLE_UNIT ( ) SI_UNIT ( $, .RADIAN. ) );
#357 = EDGE_LOOP ( 'NONE', ( #310, #263, #87, #141 ) ) ;
#358 = LENGTH_MEASURE_WITH_UNIT ( LENGTH_MEASURE( 0.02539999999999999897 ), #33 );
#359 = AXIS2_PLACEMENT_3D ( 'NONE', #133, #248, #17 ) ;
#360 = FILL_AREA_STYLE ('',( #165 ) ) ;
#361 =( CONVERSION_BASED_UNIT ( 'INCH', #190 ) LENGTH_UNIT ( ) NAMED_UNIT ( #50 ) );
#362 = MECHANICAL_DESIGN_GEOMETRIC_PRESENTATION_REPRESENTATION (  '', ( #122 ), #11 ) ;
#363 = DIRECTION ( 'NONE',  ( -0.000000000000000000, -1.000000000000000000, -0.000000000000000000 ) ) ;
#364 = AXIS2_PLACEMENT_3D ( 'NONE', #43, #209, #335 ) ;
#365 = CARTESIAN_POINT ( 'NONE',  ( 1.530808498934191571E-16, 0.7500000000000001110, 0.000000000000000000 ) ) ;
#366 = CARTESIAN_POINT ( 'NONE',  ( 0.000000000000000000, 0.000000000000000000, 0.000000000000000000 ) ) ;
#367 = DIRECTION ( 'NONE',  ( -1.224646799147352961E-16, 1.000000000000000000, 0.000000000000000000 ) ) ;
#368 = MECHANICAL_DESIGN_GEOMETRIC_PRESENTATION_REPRESENTATION (  '', ( #181 ), #73 ) ;
#369 = DIRECTION ( 'NONE',  ( 0.000000000000000000, 0.000000000000000000, -1.000000000000000000 ) ) ;
#370 =( NAMED_UNIT ( * ) PLANE_ANGLE_UNIT ( ) SI_UNIT ( $, .RADIAN. ) );
#371 = COLOUR_RGB ( '',1.000000000000000000, 0.000000000000000000, 0.000000000000000000 ) ;
#372 = DIRECTION ( 'NONE',  ( -1.000000000000000000, 0.000000000000000000, 0.000000000000000000 ) ) ;
#373 = FILL_AREA_STYLE_COLOUR ( '', #371 ) ;
ENDSEC;
END-ISO-10303-21;
