ISO-10303-21;
HEADER;
FILE_DESCRIPTION (( 'STEP AP214' ),
    '1' );
FILE_NAME ('84056.STEP',
    '2023-06-23T11:22:03',
    ( '' ),
    ( '' ),
    'SwSTEP 2.0',
    'SolidWorks 2023',
    '' );
FILE_SCHEMA (( 'AUTOMOTIVE_DESIGN' ));
ENDSEC;

DATA;
#1 = EDGE_CURVE ( 'NONE', #334, #226, #132, .T. ) ;
#2 = VERTEX_POINT ( 'NONE', #150 ) ;
#3 = ORIENTED_EDGE ( 'NONE', *, *, #273, .F. ) ;
#4 = DIRECTION ( 'NONE',  ( -0.000000000000000000, -1.000000000000000000, -0.000000000000000000 ) ) ;
#5 = EDGE_LOOP ( 'NONE', ( #204, #97 ) ) ;
#6 = SURFACE_STYLE_FILL_AREA ( #37 ) ;
#7 = ORIENTED_EDGE ( 'NONE', *, *, #201, .F. ) ;
#8 =( NAMED_UNIT ( * ) SI_UNIT ( $, .STERADIAN. ) SOLID_ANGLE_UNIT ( ) );
#9 = ORIENTED_EDGE ( 'NONE', *, *, #39, .T. ) ;
#10 =( CONVERSION_BASED_UNIT ( 'INCH', #339 ) LENGTH_UNIT ( ) NAMED_UNIT ( #129 ) );
#11 = SURFACE_SIDE_STYLE ('',( #238 ) ) ;
#12 = DIRECTION ( 'NONE',  ( -1.000000000000000000, 0.000000000000000000, 0.000000000000000000 ) ) ;
#13 =( CONVERSION_BASED_UNIT ( 'INCH', #262 ) LENGTH_UNIT ( ) NAMED_UNIT ( #135 ) );
#14 = SURFACE_SIDE_STYLE ('',( #318 ) ) ;
#15 = UNCERTAINTY_MEASURE_WITH_UNIT (LENGTH_MEASURE( 1.000000000000000082E-05 ), #153, 'distance_accuracy_value', 'NONE');
#16 = APPLICATION_PROTOCOL_DEFINITION ( 'draft international standard', 'automotive_design', 1998, #128 ) ;
#17 = AXIS2_PLACEMENT_3D ( 'NONE', #41, #18, #246 ) ;
#18 = DIRECTION ( 'NONE',  ( 0.000000000000000000, 1.000000000000000000, 0.000000000000000000 ) ) ;
#19 = DIRECTION ( 'NONE',  ( -3.498990854706722745E-17, 1.000000000000000000, -0.000000000000000000 ) ) ;
#20 = DIRECTION ( 'NONE',  ( -1.000000000000000000, 0.000000000000000000, 0.000000000000000000 ) ) ;
#21 = EDGE_LOOP ( 'NONE', ( #228, #93, #200, #136 ) ) ;
#22 = AXIS2_PLACEMENT_3D ( 'NONE', #48, #178, #131 ) ;
#23 = SURFACE_SIDE_STYLE ('',( #191 ) ) ;
#24 = DIRECTION ( 'NONE',  ( -3.498990854706722745E-17, 1.000000000000000000, -0.000000000000000000 ) ) ;
#25 = ORIENTED_EDGE ( 'NONE', *, *, #259, .T. ) ;
#26 = DIRECTION ( 'NONE',  ( -3.498990854706722745E-17, 1.000000000000000000, -0.000000000000000000 ) ) ;
#27 = UNCERTAINTY_MEASURE_WITH_UNIT (LENGTH_MEASURE( 1.000000000000000082E-05 ), #13, 'distance_accuracy_value', 'NONE');
#28 = FACE_OUTER_BOUND ( 'NONE', #62, .T. ) ;
#29 = MECHANICAL_DESIGN_GEOMETRIC_PRESENTATION_REPRESENTATION (  '', ( #102 ), #43 ) ;
#30 = EDGE_CURVE ( 'NONE', #2, #258, #70, .T. ) ;
#31 = DIRECTION ( 'NONE',  ( 0.2588190451025211281, 0.9659258262890682012, 3.169619151431769872E-17 ) ) ;
#32 = FILL_AREA_STYLE_COLOUR ( '', #255 ) ;
#33 = CARTESIAN_POINT ( 'NONE',  ( 0.09375000000000001388, 0.7499999999999998890, 1.148106374200643863E-17 ) ) ;
#34 = DIRECTION ( 'NONE',  ( -0.000000000000000000, -1.000000000000000000, -0.000000000000000000 ) ) ;
#35 = DIRECTION ( 'NONE',  ( 0.000000000000000000, 0.000000000000000000, -1.000000000000000000 ) ) ;
#36 = ORIENTED_EDGE ( 'NONE', *, *, #140, .T. ) ;
#37 = FILL_AREA_STYLE ('',( #81 ) ) ;
#38 = DIRECTION ( 'NONE',  ( 3.498990854706722745E-17, -1.000000000000000000, 0.000000000000000000 ) ) ;
#39 = EDGE_CURVE ( 'NONE', #226, #334, #300, .T. ) ;
#40 = ORIENTED_EDGE ( 'NONE', *, *, #259, .F. ) ;
#41 = CARTESIAN_POINT ( 'NONE',  ( 0.000000000000000000, 0.7500000000000001110, 0.000000000000000000 ) ) ;
#42 = STYLED_ITEM ( 'NONE', ( #100 ), #147 ) ;
#43 =( GEOMETRIC_REPRESENTATION_CONTEXT ( 3 ) GLOBAL_UNCERTAINTY_ASSIGNED_CONTEXT ( ( #265 ) ) GLOBAL_UNIT_ASSIGNED_CONTEXT ( ( #357, #107, #166 ) ) REPRESENTATION_CONTEXT ( 'NONE', 'WORKASPACE' ) );
#44 = LENGTH_MEASURE_WITH_UNIT ( LENGTH_MEASURE( 0.02539999999999999897 ), #344 );
#45 = UNCERTAINTY_MEASURE_WITH_UNIT (LENGTH_MEASURE( 1.000000000000000082E-05 ), #47, 'distance_accuracy_value', 'NONE');
#46 =( LENGTH_UNIT ( ) NAMED_UNIT ( * ) SI_UNIT ( $, .METRE. ) );
#47 =( CONVERSION_BASED_UNIT ( 'INCH', #44 ) LENGTH_UNIT ( ) NAMED_UNIT ( #211 ) );
#48 = CARTESIAN_POINT ( 'NONE',  ( -4.080753639057601088E-18, 0.8666265877365271209, 0.000000000000000000 ) ) ;
#49 = AXIS2_PLACEMENT_3D ( 'NONE', #323, #340, #12 ) ;
#50 = PRESENTATION_LAYER_ASSIGNMENT (  '', '', ( #284 ) ) ;
#51 = CARTESIAN_POINT ( 'NONE',  ( 0.09375000000000001388, 0.7499999999999998890, 1.339457436567417686E-17 ) ) ;
#52 = EDGE_LOOP ( 'NONE', ( #281, #90, #310, #263 ) ) ;
#53 = FACE_OUTER_BOUND ( 'NONE', #224, .T. ) ;
#54 = AXIS2_PLACEMENT_3D ( 'NONE', #335, #314, #306 ) ;
#55 = FILL_AREA_STYLE_COLOUR ( '', #279 ) ;
#56 = ADVANCED_FACE ( 'NONE', ( #286 ), #231, .F. ) ;
#57 = DIRECTION ( 'NONE',  ( 0.000000000000000000, -1.000000000000000000, -0.000000000000000000 ) ) ;
#58 = FACE_OUTER_BOUND ( 'NONE', #52, .T. ) ;
#59 = CIRCLE ( 'NONE', #230, 0.1250000000000000555 ) ;
#60 = ORIENTED_EDGE ( 'NONE', *, *, #125, .F. ) ;
#61 = FILL_AREA_STYLE_COLOUR ( '', #267 ) ;
#62 = EDGE_LOOP ( 'NONE', ( #67, #156 ) ) ;
#63 = VERTEX_POINT ( 'NONE', #148 ) ;
#64 = CIRCLE ( 'NONE', #108, 0.1250000000000000555 ) ;
#65 = MECHANICAL_DESIGN_GEOMETRIC_PRESENTATION_REPRESENTATION (  '', ( #284 ), #151 ) ;
#66 = FILL_AREA_STYLE ('',( #309 ) ) ;
#67 = ORIENTED_EDGE ( 'NONE', *, *, #30, .F. ) ;
#68 =( NAMED_UNIT ( * ) SI_UNIT ( $, .STERADIAN. ) SOLID_ANGLE_UNIT ( ) );
#69 = CARTESIAN_POINT ( 'NONE',  ( 1.148106374200643863E-17, 0.000000000000000000, 0.09375000000000001388 ) ) ;
#70 = CIRCLE ( 'NONE', #54, 0.09375000000000001388 ) ;
#71 = AXIS2_PLACEMENT_3D ( 'NONE', #185, #278, #138 ) ;
#72 =( NAMED_UNIT ( * ) PLANE_ANGLE_UNIT ( ) SI_UNIT ( $, .RADIAN. ) );
#73 =( NAMED_UNIT ( * ) PLANE_ANGLE_UNIT ( ) SI_UNIT ( $, .RADIAN. ) );
#74 = PRODUCT_DEFINITION ( 'UNKNOWN', '', #82, #237 ) ;
#75 = FACE_OUTER_BOUND ( 'NONE', #5, .T. ) ;
#76 = AXIS2_PLACEMENT_3D ( 'NONE', #139, #26, #20 ) ;
#77 = PLANE ( 'NONE',  #179 ) ;
#78 = CARTESIAN_POINT ( 'NONE',  ( 0.1249999999999999584, 2.500000000000000000, 1.530808498934191817E-17 ) ) ;
#79 = ADVANCED_FACE ( 'NONE', ( #58 ), #261, .T. ) ;
#80 = LINE ( 'NONE', #243, #188 ) ;
#81 = FILL_AREA_STYLE_COLOUR ( '', #315 ) ;
#82 = PRODUCT_DEFINITION_FORMATION_WITH_SPECIFIED_SOURCE ( 'ANY', '', #245, .NOT_KNOWN. ) ;
#83 = EDGE_CURVE ( 'NONE', #114, #354, #59, .T. ) ;
#84 = CARTESIAN_POINT ( 'NONE',  ( 1.148106374200643863E-17, 0.7500000000000001110, 0.09375000000000001388 ) ) ;
#85 =( CONVERSION_BASED_UNIT ( 'INCH', #117 ) LENGTH_UNIT ( ) NAMED_UNIT ( #162 ) );
#86 = CARTESIAN_POINT ( 'NONE',  ( 0.1250000000000000000, 2.500000000000000000, 0.000000000000000000 ) ) ;
#87 = UNCERTAINTY_MEASURE_WITH_UNIT (LENGTH_MEASURE( 1.000000000000000082E-05 ), #99, 'distance_accuracy_value', 'NONE');
#88 = PRESENTATION_STYLE_ASSIGNMENT (( #143 ) ) ;
#89 = CIRCLE ( 'NONE', #223, 0.1250000000000000278 ) ;
#90 = ORIENTED_EDGE ( 'NONE', *, *, #328, .T. ) ;
#91 =( GEOMETRIC_REPRESENTATION_CONTEXT ( 3 ) GLOBAL_UNCERTAINTY_ASSIGNED_CONTEXT ( ( #159 ) ) GLOBAL_UNIT_ASSIGNED_CONTEXT ( ( #85, #118, #253 ) ) REPRESENTATION_CONTEXT ( 'NONE', 'WORKASPACE' ) );
#92 = CARTESIAN_POINT ( 'NONE',  ( 0.1250000000000000278, 2.500000000000000000, 1.530808498934192125E-17 ) ) ;
#93 = ORIENTED_EDGE ( 'NONE', *, *, #189, .T. ) ;
#94 = ADVANCED_FACE ( 'NONE', ( #271 ), #324, .T. ) ;
#95 = SURFACE_SIDE_STYLE ('',( #175 ) ) ;
#96 = ORIENTED_EDGE ( 'NONE', *, *, #273, .T. ) ;
#97 = ORIENTED_EDGE ( 'NONE', *, *, #39, .F. ) ;
#98 = VECTOR ( 'NONE', #145, 39.37007874015748143 ) ;
#99 =( CONVERSION_BASED_UNIT ( 'INCH', #232 ) LENGTH_UNIT ( ) NAMED_UNIT ( #239 ) );
#100 = PRESENTATION_STYLE_ASSIGNMENT (( #266 ) ) ;
#101 =( LENGTH_UNIT ( ) NAMED_UNIT ( * ) SI_UNIT ( $, .METRE. ) );
#102 = STYLED_ITEM ( 'NONE', ( #248 ), #225 ) ;
#103 = PRODUCT_CONTEXT ( 'NONE', #277, 'mechanical' ) ;
#104 = EDGE_CURVE ( 'NONE', #354, #114, #64, .T. ) ;
#105 = DIRECTION ( 'NONE',  ( 1.000000000000000000, 0.000000000000000000, 0.000000000000000000 ) ) ;
#106 = CARTESIAN_POINT ( 'NONE',  ( -6.123233995736766036E-17, 2.500000000000000000, 0.000000000000000000 ) ) ;
#107 =( NAMED_UNIT ( * ) PLANE_ANGLE_UNIT ( ) SI_UNIT ( $, .RADIAN. ) );
#108 = AXIS2_PLACEMENT_3D ( 'NONE', #208, #320, #290 ) ;
#109 =( GEOMETRIC_REPRESENTATION_CONTEXT ( 3 ) GLOBAL_UNCERTAINTY_ASSIGNED_CONTEXT ( ( #45 ) ) GLOBAL_UNIT_ASSIGNED_CONTEXT ( ( #47, #160, #8 ) ) REPRESENTATION_CONTEXT ( 'NONE', 'WORKASPACE' ) );
#110 = DIRECTION ( 'NONE',  ( -1.000000000000000000, -3.498990854706722745E-17, 0.000000000000000000 ) ) ;
#111 = VERTEX_POINT ( 'NONE', #69 ) ;
#112 = FACE_OUTER_BOUND ( 'NONE', #169, .T. ) ;
#113 = CARTESIAN_POINT ( 'NONE',  ( -6.123233995736766036E-17, 2.500000000000000000, 0.000000000000000000 ) ) ;
#114 = VERTEX_POINT ( 'NONE', #268 ) ;
#115 = PRESENTATION_LAYER_ASSIGNMENT (  '', '', ( #42 ) ) ;
#116 = CYLINDRICAL_SURFACE ( 'NONE', #76, 0.1250000000000000278 ) ;
#117 = LENGTH_MEASURE_WITH_UNIT ( LENGTH_MEASURE( 0.02539999999999999897 ), #359 );
#118 =( NAMED_UNIT ( * ) PLANE_ANGLE_UNIT ( ) SI_UNIT ( $, .RADIAN. ) );
#119 = DIRECTION ( 'NONE',  ( 0.000000000000000000, 0.000000000000000000, -1.000000000000000000 ) ) ;
#120 = ORIENTED_EDGE ( 'NONE', *, *, #104, .F. ) ;
#121 = DIRECTION ( 'NONE',  ( 0.000000000000000000, 0.000000000000000000, -1.000000000000000000 ) ) ;
#122 = ORIENTED_EDGE ( 'NONE', *, *, #125, .T. ) ;
#123 = LINE ( 'NONE', #33, #295 ) ;
#124 = ORIENTED_EDGE ( 'NONE', *, *, #30, .T. ) ;
#125 = EDGE_CURVE ( 'NONE', #252, #63, #236, .T. ) ;
#126 = CARTESIAN_POINT ( 'NONE',  ( 0.000000000000000000, 0.7500000000000001110, 0.000000000000000000 ) ) ;
#127 = AXIS2_PLACEMENT_3D ( 'NONE', #240, #157, #293 ) ;
#128 = APPLICATION_CONTEXT ( 'automotive_design' ) ;
#129 = DIMENSIONAL_EXPONENTS ( 1.000000000000000000, 0.000000000000000000, 0.000000000000000000, 0.000000000000000000, 0.000000000000000000, 0.000000000000000000, 0.000000000000000000 ) ;
#130 = DIRECTION ( 'NONE',  ( -1.000000000000000000, 0.000000000000000000, 0.000000000000000000 ) ) ;
#131 = DIRECTION ( 'NONE',  ( -1.000000000000000000, 0.000000000000000000, 0.000000000000000000 ) ) ;
#132 = CIRCLE ( 'NONE', #217, 0.09375000000000001388 ) ;
#133 = VECTOR ( 'NONE', #326, 39.37007874015748854 ) ;
#134 = SHAPE_DEFINITION_REPRESENTATION ( #301, #152 ) ;
#135 = DIMENSIONAL_EXPONENTS ( 1.000000000000000000, 0.000000000000000000, 0.000000000000000000, 0.000000000000000000, 0.000000000000000000, 0.000000000000000000, 0.000000000000000000 ) ;
#136 = ORIENTED_EDGE ( 'NONE', *, *, #140, .F. ) ;
#137 =( LENGTH_UNIT ( ) NAMED_UNIT ( * ) SI_UNIT ( $, .METRE. ) );
#138 = DIRECTION ( 'NONE',  ( -1.000000000000000000, 0.000000000000000000, 0.000000000000000000 ) ) ;
#139 = CARTESIAN_POINT ( 'NONE',  ( -6.123233995736766036E-17, 2.500000000000000000, 0.000000000000000000 ) ) ;
#140 = EDGE_CURVE ( 'NONE', #63, #252, #89, .T. ) ;
#141 = PRESENTATION_LAYER_ASSIGNMENT (  '', '', ( #294 ) ) ;
#142 = VECTOR ( 'NONE', #173, 39.37007874015748143 ) ;
#143 = SURFACE_STYLE_USAGE ( .BOTH. , #313 ) ;
#144 = ORIENTED_EDGE ( 'NONE', *, *, #83, .F. ) ;
#145 = DIRECTION ( 'NONE',  ( -0.000000000000000000, -1.000000000000000000, -0.000000000000000000 ) ) ;
#146 = FILL_AREA_STYLE ('',( #32 ) ) ;
#147 = ADVANCED_FACE ( 'NONE', ( #75 ), #182, .T. ) ;
#148 = CARTESIAN_POINT ( 'NONE',  ( 0.1250000000000000000, 0.8666265877365271209, 1.530808498934191509E-17 ) ) ;
#149 =( GEOMETRIC_REPRESENTATION_CONTEXT ( 3 ) GLOBAL_UNCERTAINTY_ASSIGNED_CONTEXT ( ( #15 ) ) GLOBAL_UNIT_ASSIGNED_CONTEXT ( ( #153, #194, #257 ) ) REPRESENTATION_CONTEXT ( 'NONE', 'WORKASPACE' ) );
#150 = CARTESIAN_POINT ( 'NONE',  ( -0.09375000000000001388, 0.7499999999999998890, 0.000000000000000000 ) ) ;
#151 =( GEOMETRIC_REPRESENTATION_CONTEXT ( 3 ) GLOBAL_UNCERTAINTY_ASSIGNED_CONTEXT ( ( #27 ) ) GLOBAL_UNIT_ASSIGNED_CONTEXT ( ( #13, #72, #68 ) ) REPRESENTATION_CONTEXT ( 'NONE', 'WORKASPACE' ) );
#152 = ADVANCED_BREP_SHAPE_REPRESENTATION ( '84056', ( #225, #347, #308 ), #109 ) ;
#153 =( CONVERSION_BASED_UNIT ( 'INCH', #282 ) LENGTH_UNIT ( ) NAMED_UNIT ( #184 ) );
#154 = DIRECTION ( 'NONE',  ( 1.000000000000000000, 3.498990854706722745E-17, 0.000000000000000000 ) ) ;
#155 = ADVANCED_FACE ( 'NONE', ( #190 ), #256, .T. ) ;
#156 = ORIENTED_EDGE ( 'NONE', *, *, #189, .F. ) ;
#157 = DIRECTION ( 'NONE',  ( -0.000000000000000000, -1.000000000000000000, -0.000000000000000000 ) ) ;
#158 = PRESENTATION_LAYER_ASSIGNMENT (  '', '', ( #102 ) ) ;
#159 = UNCERTAINTY_MEASURE_WITH_UNIT (LENGTH_MEASURE( 1.000000000000000082E-05 ), #85, 'distance_accuracy_value', 'NONE');
#160 =( NAMED_UNIT ( * ) PLANE_ANGLE_UNIT ( ) SI_UNIT ( $, .RADIAN. ) );
#161 = AXIS2_PLACEMENT_3D ( 'NONE', #305, #57, #121 ) ;
#162 = DIMENSIONAL_EXPONENTS ( 1.000000000000000000, 0.000000000000000000, 0.000000000000000000, 0.000000000000000000, 0.000000000000000000, 0.000000000000000000, 0.000000000000000000 ) ;
#163 = CYLINDRICAL_SURFACE ( 'NONE', #244, 0.1250000000000000278 ) ;
#164 = PRESENTATION_LAYER_ASSIGNMENT (  '', '', ( #319 ) ) ;
#165 = MECHANICAL_DESIGN_GEOMETRIC_PRESENTATION_REPRESENTATION (  '', ( #183 ), #91 ) ;
#166 =( NAMED_UNIT ( * ) SI_UNIT ( $, .STERADIAN. ) SOLID_ANGLE_UNIT ( ) );
#167 = VERTEX_POINT ( 'NONE', #247 ) ;
#168 = MECHANICAL_DESIGN_GEOMETRIC_PRESENTATION_REPRESENTATION (  '', ( #42 ), #307 ) ;
#169 = EDGE_LOOP ( 'NONE', ( #3, #36, #192, #120 ) ) ;
#170 = EDGE_LOOP ( 'NONE', ( #176, #25 ) ) ;
#171 =( LENGTH_UNIT ( ) NAMED_UNIT ( * ) SI_UNIT ( $, .METRE. ) );
#172 = ORIENTED_EDGE ( 'NONE', *, *, #328, .F. ) ;
#173 = DIRECTION ( 'NONE',  ( -3.498990854706722745E-17, 1.000000000000000000, -0.000000000000000000 ) ) ;
#174 = DIRECTION ( 'NONE',  ( 0.000000000000000000, 0.000000000000000000, -1.000000000000000000 ) ) ;
#175 = SURFACE_STYLE_FILL_AREA ( #66 ) ;
#176 = ORIENTED_EDGE ( 'NONE', *, *, #321, .T. ) ;
#177 = UNCERTAINTY_MEASURE_WITH_UNIT (LENGTH_MEASURE( 1.000000000000000082E-05 ), #10, 'distance_accuracy_value', 'NONE');
#178 = DIRECTION ( 'NONE',  ( -3.498990854706722745E-17, 1.000000000000000000, -0.000000000000000000 ) ) ;
#179 = AXIS2_PLACEMENT_3D ( 'NONE', #296, #272, #110 ) ;
#180 = CARTESIAN_POINT ( 'NONE',  ( 0.000000000000000000, 0.000000000000000000, 0.000000000000000000 ) ) ;
#181 =( NAMED_UNIT ( * ) SI_UNIT ( $, .STERADIAN. ) SOLID_ANGLE_UNIT ( ) );
#182 = PLANE ( 'NONE',  #17 ) ;
#183 = STYLED_ITEM ( 'NONE', ( #336 ), #347 ) ;
#184 = DIMENSIONAL_EXPONENTS ( 1.000000000000000000, 0.000000000000000000, 0.000000000000000000, 0.000000000000000000, 0.000000000000000000, 0.000000000000000000, 0.000000000000000000 ) ;
#185 = CARTESIAN_POINT ( 'NONE',  ( -7.582401355855259480E-33, 0.7499999999999998890, 0.000000000000000000 ) ) ;
#186 = DIRECTION ( 'NONE',  ( -3.498990854706722745E-17, 1.000000000000000000, -0.000000000000000000 ) ) ;
#187 = DIRECTION ( 'NONE',  ( 0.000000000000000000, 0.000000000000000000, -1.000000000000000000 ) ) ;
#188 = VECTOR ( 'NONE', #219, 39.37007874015748143 ) ;
#189 = EDGE_CURVE ( 'NONE', #258, #2, #289, .T. ) ;
#190 = FACE_OUTER_BOUND ( 'NONE', #198, .T. ) ;
#191 = SURFACE_STYLE_FILL_AREA ( #302 ) ;
#192 = ORIENTED_EDGE ( 'NONE', *, *, #343, .T. ) ;
#193 = ADVANCED_FACE ( 'NONE', ( #112 ), #116, .T. ) ;
#194 =( NAMED_UNIT ( * ) PLANE_ANGLE_UNIT ( ) SI_UNIT ( $, .RADIAN. ) );
#195 = AXIS2_PLACEMENT_3D ( 'NONE', #348, #292, #206 ) ;
#196 = SURFACE_STYLE_USAGE ( .BOTH. , #332 ) ;
#197 = FACE_OUTER_BOUND ( 'NONE', #216, .T. ) ;
#198 = EDGE_LOOP ( 'NONE', ( #124, #312, #60, #7 ) ) ;
#199 = LINE ( 'NONE', #251, #142 ) ;
#200 = ORIENTED_EDGE ( 'NONE', *, *, #201, .T. ) ;
#201 = EDGE_CURVE ( 'NONE', #2, #252, #355, .T. ) ;
#202 = CARTESIAN_POINT ( 'NONE',  ( 0.000000000000000000, 0.7500000000000001110, -0.09375000000000001388 ) ) ;
#203 = AXIS2_PLACEMENT_3D ( 'NONE', #220, #4, #35 ) ;
#204 = ORIENTED_EDGE ( 'NONE', *, *, #1, .F. ) ;
#205 = FILL_AREA_STYLE ('',( #342 ) ) ;
#206 = DIRECTION ( 'NONE',  ( 0.000000000000000000, 0.000000000000000000, -1.000000000000000000 ) ) ;
#207 = EDGE_CURVE ( 'NONE', #334, #167, #80, .T. ) ;
#208 = CARTESIAN_POINT ( 'NONE',  ( -6.123233995736766036E-17, 2.500000000000000000, 0.000000000000000000 ) ) ;
#209 =( NAMED_UNIT ( * ) SI_UNIT ( $, .STERADIAN. ) SOLID_ANGLE_UNIT ( ) );
#210 = DIRECTION ( 'NONE',  ( -3.498990854706722745E-17, 1.000000000000000000, -0.000000000000000000 ) ) ;
#211 = DIMENSIONAL_EXPONENTS ( 1.000000000000000000, 0.000000000000000000, 0.000000000000000000, 0.000000000000000000, 0.000000000000000000, 0.000000000000000000, 0.000000000000000000 ) ;
#212 = DIRECTION ( 'NONE',  ( -1.000000000000000000, 0.000000000000000000, 0.000000000000000000 ) ) ;
#213 =( GEOMETRIC_REPRESENTATION_CONTEXT ( 3 ) GLOBAL_UNCERTAINTY_ASSIGNED_CONTEXT ( ( #87 ) ) GLOBAL_UNIT_ASSIGNED_CONTEXT ( ( #99, #349, #209 ) ) REPRESENTATION_CONTEXT ( 'NONE', 'WORKASPACE' ) );
#214 = LINE ( 'NONE', #78, #270 ) ;
#215 = DIRECTION ( 'NONE',  ( -1.000000000000000000, 0.000000000000000000, 0.000000000000000000 ) ) ;
#216 = EDGE_LOOP ( 'NONE', ( #172, #9, #353, #40 ) ) ;
#217 = AXIS2_PLACEMENT_3D ( 'NONE', #283, #34, #119 ) ;
#218 = CIRCLE ( 'NONE', #275, 0.09375000000000001388 ) ;
#219 = DIRECTION ( 'NONE',  ( -0.000000000000000000, -1.000000000000000000, -0.000000000000000000 ) ) ;
#220 = CARTESIAN_POINT ( 'NONE',  ( 0.000000000000000000, 0.000000000000000000, 0.000000000000000000 ) ) ;
#221 = SURFACE_STYLE_FILL_AREA ( #146 ) ;
#222 = CLOSED_SHELL ( 'NONE', ( #79, #147, #356, #304 ) ) ;
#223 = AXIS2_PLACEMENT_3D ( 'NONE', #288, #19, #235 ) ;
#224 = EDGE_LOOP ( 'NONE', ( #122, #96, #144, #287 ) ) ;
#225 = MANIFOLD_SOLID_BREP ( 'Revolve - Cutting Edge', #222 ) ;
#226 = VERTEX_POINT ( 'NONE', #84 ) ;
#227 = FILL_AREA_STYLE ('',( #61 ) ) ;
#228 = ORIENTED_EDGE ( 'NONE', *, *, #333, .F. ) ;
#229 = AXIS2_PLACEMENT_3D ( 'NONE', #126, #280, #174 ) ;
#230 = AXIS2_PLACEMENT_3D ( 'NONE', #106, #210, #130 ) ;
#231 = PLANE ( 'NONE',  #249 ) ;
#232 = LENGTH_MEASURE_WITH_UNIT ( LENGTH_MEASURE( 0.02539999999999999897 ), #346 );
#233 = APPLICATION_PROTOCOL_DEFINITION ( 'draft international standard', 'automotive_design', 1998, #277 ) ;
#234 = CLOSED_SHELL ( 'NONE', ( #297, #155, #264, #94, #193, #56 ) ) ;
#235 = DIRECTION ( 'NONE',  ( -1.000000000000000000, 0.000000000000000000, 0.000000000000000000 ) ) ;
#236 = CIRCLE ( 'NONE', #22, 0.1250000000000000278 ) ;
#237 = PRODUCT_DEFINITION_CONTEXT ( 'detailed design', #128, 'design' ) ;
#238 = SURFACE_STYLE_FILL_AREA ( #227 ) ;
#239 = DIMENSIONAL_EXPONENTS ( 1.000000000000000000, 0.000000000000000000, 0.000000000000000000, 0.000000000000000000, 0.000000000000000000, 0.000000000000000000, 0.000000000000000000 ) ;
#240 = CARTESIAN_POINT ( 'NONE',  ( 0.000000000000000000, 0.000000000000000000, 0.000000000000000000 ) ) ;
#241 = PRODUCT_RELATED_PRODUCT_CATEGORY ( 'part', '', ( #245 ) ) ;
#242 = DIRECTION ( 'NONE',  ( -3.498990854706722745E-17, 1.000000000000000000, -0.000000000000000000 ) ) ;
#243 = CARTESIAN_POINT ( 'NONE',  ( 0.000000000000000000, 0.000000000000000000, -0.09375000000000001388 ) ) ;
#244 = AXIS2_PLACEMENT_3D ( 'NONE', #113, #24, #215 ) ;
#245 = PRODUCT ( '84056', '84056', '', ( #103 ) ) ;
#246 = DIRECTION ( 'NONE',  ( 0.000000000000000000, -0.000000000000000000, 1.000000000000000000 ) ) ;
#247 = CARTESIAN_POINT ( 'NONE',  ( 0.000000000000000000, 0.000000000000000000, -0.09375000000000001388 ) ) ;
#248 = PRESENTATION_STYLE_ASSIGNMENT (( #329 ) ) ;
#249 = AXIS2_PLACEMENT_3D ( 'NONE', #86, #38, #154 ) ;
#250 = COLOUR_RGB ( '',1.000000000000000000, 0.000000000000000000, 0.000000000000000000 ) ;
#251 = CARTESIAN_POINT ( 'NONE',  ( -0.1250000000000001110, 2.500000000000000000, 0.000000000000000000 ) ) ;
#252 = VERTEX_POINT ( 'NONE', #351 ) ;
#253 =( NAMED_UNIT ( * ) SI_UNIT ( $, .STERADIAN. ) SOLID_ANGLE_UNIT ( ) );
#254 = EDGE_LOOP ( 'NONE', ( #316, #331 ) ) ;
#255 = COLOUR_RGB ( '',1.000000000000000000, 0.000000000000000000, 0.000000000000000000 ) ;
#256 = CONICAL_SURFACE ( 'NONE', #352, 0.09375000000000001388, 0.2617993877991498519 ) ;
#257 =( NAMED_UNIT ( * ) SI_UNIT ( $, .STERADIAN. ) SOLID_ANGLE_UNIT ( ) );
#258 = VERTEX_POINT ( 'NONE', #51 ) ;
#259 = EDGE_CURVE ( 'NONE', #111, #167, #218, .T. ) ;
#260 = LINE ( 'NONE', #330, #98 ) ;
#261 = CYLINDRICAL_SURFACE ( 'NONE', #127, 0.09375000000000001388 ) ;
#262 = LENGTH_MEASURE_WITH_UNIT ( LENGTH_MEASURE( 0.02539999999999999897 ), #46 );
#263 = ORIENTED_EDGE ( 'NONE', *, *, #207, .F. ) ;
#264 = ADVANCED_FACE ( 'NONE', ( #28 ), #77, .F. ) ;
#265 = UNCERTAINTY_MEASURE_WITH_UNIT (LENGTH_MEASURE( 1.000000000000000082E-05 ), #357, 'distance_accuracy_value', 'NONE');
#266 = SURFACE_STYLE_USAGE ( .BOTH. , #14 ) ;
#267 = COLOUR_RGB ( '',1.000000000000000000, 0.000000000000000000, 0.000000000000000000 ) ;
#268 = CARTESIAN_POINT ( 'NONE',  ( -0.1250000000000001388, 2.500000000000000000, 0.000000000000000000 ) ) ;
#269 = PRESENTATION_STYLE_ASSIGNMENT (( #196 ) ) ;
#270 = VECTOR ( 'NONE', #186, 39.37007874015748143 ) ;
#271 = FACE_OUTER_BOUND ( 'NONE', #21, .T. ) ;
#272 = DIRECTION ( 'NONE',  ( -3.498990854706722745E-17, 1.000000000000000000, 0.000000000000000000 ) ) ;
#273 = EDGE_CURVE ( 'NONE', #63, #354, #214, .T. ) ;
#274 = CARTESIAN_POINT ( 'NONE',  ( -7.582401355855259480E-33, 0.7499999999999998890, 0.000000000000000000 ) ) ;
#275 = AXIS2_PLACEMENT_3D ( 'NONE', #303, #325, #187 ) ;
#276 = PRESENTATION_LAYER_ASSIGNMENT (  '', '', ( #183 ) ) ;
#277 = APPLICATION_CONTEXT ( 'automotive_design' ) ;
#278 = DIRECTION ( 'NONE',  ( -3.498990854706722745E-17, 1.000000000000000000, -0.000000000000000000 ) ) ;
#279 = COLOUR_RGB ( '',0.7921568627450980005, 0.8196078431372548767, 0.9333333333333333481 ) ;
#280 = DIRECTION ( 'NONE',  ( -0.000000000000000000, -1.000000000000000000, -0.000000000000000000 ) ) ;
#281 = ORIENTED_EDGE ( 'NONE', *, *, #1, .T. ) ;
#282 = LENGTH_MEASURE_WITH_UNIT ( LENGTH_MEASURE( 0.02539999999999999897 ), #171 );
#283 = CARTESIAN_POINT ( 'NONE',  ( 0.000000000000000000, 0.7500000000000001110, 0.000000000000000000 ) ) ;
#284 = STYLED_ITEM ( 'NONE', ( #317 ), #356 ) ;
#285 = SURFACE_STYLE_USAGE ( .BOTH. , #95 ) ;
#286 = FACE_OUTER_BOUND ( 'NONE', #254, .T. ) ;
#287 = ORIENTED_EDGE ( 'NONE', *, *, #343, .F. ) ;
#288 = CARTESIAN_POINT ( 'NONE',  ( -4.080753639057601088E-18, 0.8666265877365271209, 0.000000000000000000 ) ) ;
#289 = CIRCLE ( 'NONE', #71, 0.09375000000000001388 ) ;
#290 = DIRECTION ( 'NONE',  ( -1.000000000000000000, 0.000000000000000000, 0.000000000000000000 ) ) ;
#291 = DIRECTION ( 'NONE',  ( 0.000000000000000000, 0.000000000000000000, 1.000000000000000000 ) ) ;
#292 = DIRECTION ( 'NONE',  ( -0.000000000000000000, -1.000000000000000000, -0.000000000000000000 ) ) ;
#293 = DIRECTION ( 'NONE',  ( 0.000000000000000000, 0.000000000000000000, -1.000000000000000000 ) ) ;
#294 = STYLED_ITEM ( 'NONE', ( #269 ), #79 ) ;
#295 = VECTOR ( 'NONE', #31, 39.37007874015748143 ) ;
#296 = CARTESIAN_POINT ( 'NONE',  ( 5.738876719369351455E-35, 0.7500000000000001110, 0.000000000000000000 ) ) ;
#297 = ADVANCED_FACE ( 'NONE', ( #53 ), #163, .T. ) ;
#298 = CARTESIAN_POINT ( 'NONE',  ( -0.09375000000000001388, 0.7499999999999998890, 0.000000000000000000 ) ) ;
#299 = FACE_OUTER_BOUND ( 'NONE', #170, .T. ) ;
#300 = CIRCLE ( 'NONE', #229, 0.09375000000000001388 ) ;
#301 = PRODUCT_DEFINITION_SHAPE ( 'NONE', 'NONE',  #74 ) ;
#302 = FILL_AREA_STYLE ('',( #55 ) ) ;
#303 = CARTESIAN_POINT ( 'NONE',  ( 0.000000000000000000, 0.000000000000000000, 0.000000000000000000 ) ) ;
#304 = ADVANCED_FACE ( 'NONE', ( #299 ), #327, .T. ) ;
#305 = CARTESIAN_POINT ( 'NONE',  ( 0.000000000000000000, 0.000000000000000000, 0.000000000000000000 ) ) ;
#306 = DIRECTION ( 'NONE',  ( -1.000000000000000000, 0.000000000000000000, 0.000000000000000000 ) ) ;
#307 =( GEOMETRIC_REPRESENTATION_CONTEXT ( 3 ) GLOBAL_UNCERTAINTY_ASSIGNED_CONTEXT ( ( #177 ) ) GLOBAL_UNIT_ASSIGNED_CONTEXT ( ( #10, #73, #181 ) ) REPRESENTATION_CONTEXT ( 'NONE', 'WORKASPACE' ) );
#308 = AXIS2_PLACEMENT_3D ( 'NONE', #180, #291, #105 ) ;
#309 = FILL_AREA_STYLE_COLOUR ( '', #338 ) ;
#310 = ORIENTED_EDGE ( 'NONE', *, *, #321, .F. ) ;
#311 = CYLINDRICAL_SURFACE ( 'NONE', #195, 0.09375000000000001388 ) ;
#312 = ORIENTED_EDGE ( 'NONE', *, *, #333, .T. ) ;
#313 = SURFACE_SIDE_STYLE ('',( #6 ) ) ;
#314 = DIRECTION ( 'NONE',  ( -3.498990854706722745E-17, 1.000000000000000000, -0.000000000000000000 ) ) ;
#315 = COLOUR_RGB ( '',1.000000000000000000, 0.000000000000000000, 0.000000000000000000 ) ;
#316 = ORIENTED_EDGE ( 'NONE', *, *, #83, .T. ) ;
#317 = PRESENTATION_STYLE_ASSIGNMENT (( #341 ) ) ;
#318 = SURFACE_STYLE_FILL_AREA ( #205 ) ;
#319 = STYLED_ITEM ( 'NONE', ( #88 ), #304 ) ;
#320 = DIRECTION ( 'NONE',  ( -3.498990854706722745E-17, 1.000000000000000000, -0.000000000000000000 ) ) ;
#321 = EDGE_CURVE ( 'NONE', #167, #111, #358, .T. ) ;
#322 = DIMENSIONAL_EXPONENTS ( 1.000000000000000000, 0.000000000000000000, 0.000000000000000000, 0.000000000000000000, 0.000000000000000000, 0.000000000000000000, 0.000000000000000000 ) ;
#323 = CARTESIAN_POINT ( 'NONE',  ( -7.582401355855259480E-33, 0.7499999999999998890, 0.000000000000000000 ) ) ;
#324 = CONICAL_SURFACE ( 'NONE', #49, 0.09375000000000001388, 0.2617993877991498519 ) ;
#325 = DIRECTION ( 'NONE',  ( -0.000000000000000000, -1.000000000000000000, -0.000000000000000000 ) ) ;
#326 = DIRECTION ( 'NONE',  ( -0.2588190451025211836, 0.9659258262890679791, 0.000000000000000000 ) ) ;
#327 = PLANE ( 'NONE',  #161 ) ;
#328 = EDGE_CURVE ( 'NONE', #226, #111, #260, .T. ) ;
#329 = SURFACE_STYLE_USAGE ( .BOTH. , #23 ) ;
#330 = CARTESIAN_POINT ( 'NONE',  ( 1.148106374200643863E-17, 0.000000000000000000, 0.09375000000000001388 ) ) ;
#331 = ORIENTED_EDGE ( 'NONE', *, *, #104, .T. ) ;
#332 = SURFACE_SIDE_STYLE ('',( #221 ) ) ;
#333 = EDGE_CURVE ( 'NONE', #258, #63, #123, .T. ) ;
#334 = VERTEX_POINT ( 'NONE', #202 ) ;
#335 = CARTESIAN_POINT ( 'NONE',  ( -7.582401355855259480E-33, 0.7499999999999998890, 0.000000000000000000 ) ) ;
#336 = PRESENTATION_STYLE_ASSIGNMENT (( #285 ) ) ;
#337 = MECHANICAL_DESIGN_GEOMETRIC_PRESENTATION_REPRESENTATION (  '', ( #294 ), #213 ) ;
#338 = COLOUR_RGB ( '',0.7921568627450980005, 0.8196078431372548767, 0.9333333333333333481 ) ;
#339 = LENGTH_MEASURE_WITH_UNIT ( LENGTH_MEASURE( 0.02539999999999999897 ), #101 );
#340 = DIRECTION ( 'NONE',  ( -3.498990854706722745E-17, 1.000000000000000000, -0.000000000000000000 ) ) ;
#341 = SURFACE_STYLE_USAGE ( .BOTH. , #11 ) ;
#342 = FILL_AREA_STYLE_COLOUR ( '', #250 ) ;
#343 = EDGE_CURVE ( 'NONE', #252, #114, #199, .T. ) ;
#344 =( LENGTH_UNIT ( ) NAMED_UNIT ( * ) SI_UNIT ( $, .METRE. ) );
#345 = MECHANICAL_DESIGN_GEOMETRIC_PRESENTATION_REPRESENTATION (  '', ( #319 ), #149 ) ;
#346 =( LENGTH_UNIT ( ) NAMED_UNIT ( * ) SI_UNIT ( $, .METRE. ) );
#347 = MANIFOLD_SOLID_BREP ( 'Revolve - Tool Body (Reduced Cut Diameter)', #234 ) ;
#348 = CARTESIAN_POINT ( 'NONE',  ( 0.000000000000000000, 0.000000000000000000, 0.000000000000000000 ) ) ;
#349 =( NAMED_UNIT ( * ) PLANE_ANGLE_UNIT ( ) SI_UNIT ( $, .RADIAN. ) );
#350 = LENGTH_MEASURE_WITH_UNIT ( LENGTH_MEASURE( 0.02539999999999999897 ), #137 );
#351 = CARTESIAN_POINT ( 'NONE',  ( -0.1250000000000000000, 0.8666265877365271209, 0.000000000000000000 ) ) ;
#352 = AXIS2_PLACEMENT_3D ( 'NONE', #274, #242, #212 ) ;
#353 = ORIENTED_EDGE ( 'NONE', *, *, #207, .T. ) ;
#354 = VERTEX_POINT ( 'NONE', #92 ) ;
#355 = LINE ( 'NONE', #298, #133 ) ;
#356 = ADVANCED_FACE ( 'NONE', ( #197 ), #311, .T. ) ;
#357 =( CONVERSION_BASED_UNIT ( 'INCH', #350 ) LENGTH_UNIT ( ) NAMED_UNIT ( #322 ) );
#358 = CIRCLE ( 'NONE', #203, 0.09375000000000001388 ) ;
#359 =( LENGTH_UNIT ( ) NAMED_UNIT ( * ) SI_UNIT ( $, .METRE. ) );
ENDSEC;
END-ISO-10303-21;
