ISO-10303-21;
HEADER;
FILE_DESCRIPTION (( 'STEP AP214' ),
    '1' );
FILE_NAME ('Micro_SEM-203-04.STEP',
    '2021-09-02T02:17:31',
    ( '' ),
    ( '' ),
    'SwSTEP 2.0',
    'SolidWorks 2020',
    '' );
FILE_SCHEMA (( 'AUTOMOTIVE_DESIGN' ));
ENDSEC;

DATA;
#1 =( NAMED_UNIT ( * ) PLANE_ANGLE_UNIT ( ) SI_UNIT ( $, .RADIAN. ) );
#2 = CARTESIAN_POINT ( 'NONE',  ( 6.228155332734261484E-17, 0.0000000000000000000, 0.5085674773388167980 ) ) ;
#3 = EDGE_CURVE ( 'NONE', #32, #194, #20, .T. ) ;
#4 = DIRECTION ( 'NONE',  ( -1.224646799147353207E-16, -0.0000000000000000000, -1.000000000000000000 ) ) ;
#5 = VECTOR ( 'NONE', #255, 39.37007874015748143 ) ;
#6 = DIRECTION ( 'NONE',  ( -1.000000000000000000, 0.0000000000000000000, 1.224646799147353207E-16 ) ) ;
#7 = DIMENSIONAL_EXPONENTS ( 1.000000000000000000, 0.0000000000000000000, 0.0000000000000000000, 0.0000000000000000000, 0.0000000000000000000, 0.0000000000000000000, 0.0000000000000000000 ) ;
#8 = ADVANCED_FACE ( 'NONE', ( #251 ), #146, .T. ) ;
#9 = PRESENTATION_LAYER_ASSIGNMENT (  '', '', ( #213 ) ) ;
#10 = AXIS2_PLACEMENT_3D ( 'NONE', #96, #190, #77 ) ;
#11 = ORIENTED_EDGE ( 'NONE', *, *, #237, .T. ) ;
#12 = SURFACE_STYLE_FILL_AREA ( #167 ) ;
#13 = VERTEX_POINT ( 'NONE', #39 ) ;
#14 = AXIS2_PLACEMENT_3D ( 'NONE', #22, #73, #24 ) ;
#15 = ORIENTED_EDGE ( 'NONE', *, *, #31, .F. ) ;
#16 = DIRECTION ( 'NONE',  ( -1.000000000000000000, 0.0000000000000000000, 0.0000000000000000000 ) ) ;
#17 = VECTOR ( 'NONE', #253, 39.37007874015748143 ) ;
#18 = COLOUR_RGB ( '',0.7921568627450980005, 0.8196078431372548767, 0.9333333333333333481 ) ;
#19 = DIRECTION ( 'NONE',  ( 1.224646799147353207E-16, 0.0000000000000000000, 1.000000000000000000 ) ) ;
#20 = LINE ( 'NONE', #293, #208 ) ;
#21 =( CONVERSION_BASED_UNIT ( 'INCH', #137 ) LENGTH_UNIT ( ) NAMED_UNIT ( #7 ) );
#22 = CARTESIAN_POINT ( 'NONE',  ( 0.0000000000000000000, 0.0000000000000000000, 2.000000000000000000 ) ) ;
#23 = UNCERTAINTY_MEASURE_WITH_UNIT (LENGTH_MEASURE( 1.000000000000000082E-05 ), #57, 'distance_accuracy_value', 'NONE');
#24 = DIRECTION ( 'NONE',  ( 1.000000000000000000, 0.0000000000000000000, 0.0000000000000000000 ) ) ;
#25 = FACE_OUTER_BOUND ( 'NONE', #268, .T. ) ;
#26 = AXIS2_PLACEMENT_3D ( 'NONE', #296, #198, #16 ) ;
#27 = EDGE_CURVE ( 'NONE', #151, #13, #109, .T. ) ;
#28 = CYLINDRICAL_SURFACE ( 'NONE', #98, 0.1250000000000000000 ) ;
#29 = ORIENTED_EDGE ( 'NONE', *, *, #78, .F. ) ;
#30 = CIRCLE ( 'NONE', #131, 0.1014484499999999956 ) ;
#31 = EDGE_CURVE ( 'NONE', #68, #220, #61, .T. ) ;
#32 = VERTEX_POINT ( 'NONE', #43 ) ;
#33 = LENGTH_MEASURE_WITH_UNIT ( LENGTH_MEASURE( 0.02539999999999999897 ), #122 );
#34 = ORIENTED_EDGE ( 'NONE', *, *, #58, .T. ) ;
#35 = EDGE_LOOP ( 'NONE', ( #215, #225, #127, #266 ) ) ;
#36 = DIRECTION ( 'NONE',  ( -0.0000000000000000000, -0.0000000000000000000, -1.000000000000000000 ) ) ;
#37 = APPLICATION_PROTOCOL_DEFINITION ( 'draft international standard', 'automotive_design', 1998, #134 ) ;
#38 = PLANE ( 'NONE',  #82 ) ;
#39 = CARTESIAN_POINT ( 'NONE',  ( 0.1250000000000000000, 1.530808498934191509E-17, 1.984999999999999432 ) ) ;
#40 = AXIS2_PLACEMENT_3D ( 'NONE', #174, #19, #65 ) ;
#41 = VECTOR ( 'NONE', #4, 39.37007874015748143 ) ;
#42 = EDGE_CURVE ( 'NONE', #216, #295, #30, .T. ) ;
#43 = CARTESIAN_POINT ( 'NONE',  ( -0.1099999999999996397, 0.0000000000000000000, 2.000000000000000000 ) ) ;
#44 = CARTESIAN_POINT ( 'NONE',  ( 0.1099999999999996397, 1.347111479062084158E-17, 2.000000000000000000 ) ) ;
#45 = DIRECTION ( 'NONE',  ( 0.0000000000000000000, 0.0000000000000000000, -1.000000000000000000 ) ) ;
#46 = MECHANICAL_DESIGN_GEOMETRIC_PRESENTATION_REPRESENTATION (  '', ( #213 ), #66 ) ;
#47 = DIRECTION ( 'NONE',  ( 1.000000000000000000, 0.0000000000000000000, 0.0000000000000000000 ) ) ;
#48 = FACE_OUTER_BOUND ( 'NONE', #168, .T. ) ;
#49 = ORIENTED_EDGE ( 'NONE', *, *, #256, .F. ) ;
#50 = ORIENTED_EDGE ( 'NONE', *, *, #236, .F. ) ;
#51 = ADVANCED_FACE ( 'NONE', ( #181 ), #175, .T. ) ;
#52 = FILL_AREA_STYLE_COLOUR ( '', #18 ) ;
#53 = ORIENTED_EDGE ( 'NONE', *, *, #135, .F. ) ;
#54 = CONICAL_SURFACE ( 'NONE', #40, 0.1014484499999999956, 0.1745329251994338082 ) ;
#55 = STYLED_ITEM ( 'NONE', ( #217 ), #246 ) ;
#56 = EDGE_LOOP ( 'NONE', ( #285, #201, #238, #100 ) ) ;
#57 =( CONVERSION_BASED_UNIT ( 'INCH', #283 ) LENGTH_UNIT ( ) NAMED_UNIT ( #189 ) );
#58 = EDGE_CURVE ( 'NONE', #151, #32, #199, .T. ) ;
#59 = ORIENTED_EDGE ( 'NONE', *, *, #245, .T. ) ;
#60 = EDGE_CURVE ( 'NONE', #295, #216, #227, .T. ) ;
#61 = CIRCLE ( 'NONE', #163, 0.1014484499999999956 ) ;
#62 = VECTOR ( 'NONE', #286, 39.37007874015748143 ) ;
#63 = DIRECTION ( 'NONE',  ( -1.000000000000000000, 0.0000000000000000000, 0.0000000000000000000 ) ) ;
#64 = CARTESIAN_POINT ( 'NONE',  ( 1.521483053233823417E-33, 0.0000000000000000000, 1.242385195709603026E-17 ) ) ;
#65 = DIRECTION ( 'NONE',  ( 1.000000000000000000, 0.0000000000000000000, 0.0000000000000000000 ) ) ;
#66 =( GEOMETRIC_REPRESENTATION_CONTEXT ( 3 ) GLOBAL_UNCERTAINTY_ASSIGNED_CONTEXT ( ( #138 ) ) GLOBAL_UNIT_ASSIGNED_CONTEXT ( ( #21, #1, #111 ) ) REPRESENTATION_CONTEXT ( 'NONE', 'WORKASPACE' ) );
#67 = AXIS2_PLACEMENT_3D ( 'NONE', #278, #281, #182 ) ;
#68 = VERTEX_POINT ( 'NONE', #104 ) ;
#69 = CARTESIAN_POINT ( 'NONE',  ( 0.0000000000000000000, 0.0000000000000000000, 0.0000000000000000000 ) ) ;
#70 =( LENGTH_UNIT ( ) NAMED_UNIT ( * ) SI_UNIT ( $, .METRE. ) );
#71 = DIRECTION ( 'NONE',  ( 0.0000000000000000000, 0.0000000000000000000, 1.000000000000000000 ) ) ;
#72 = EDGE_CURVE ( 'NONE', #194, #149, #88, .T. ) ;
#73 = DIRECTION ( 'NONE',  ( 0.0000000000000000000, 0.0000000000000000000, 1.000000000000000000 ) ) ;
#74 = CLOSED_SHELL ( 'NONE', ( #178, #276, #180, #51, #298, #150, #8, #148, #272, #258 ) ) ;
#75 = ORIENTED_EDGE ( 'NONE', *, *, #3, .F. ) ;
#76 = AXIS2_PLACEMENT_3D ( 'NONE', #186, #261, #280 ) ;
#77 = DIRECTION ( 'NONE',  ( 1.000000000000000000, 0.0000000000000000000, 0.0000000000000000000 ) ) ;
#78 = EDGE_CURVE ( 'NONE', #13, #120, #197, .T. ) ;
#79 = DIRECTION ( 'NONE',  ( -0.0000000000000000000, -0.0000000000000000000, -1.000000000000000000 ) ) ;
#80 = ORIENTED_EDGE ( 'NONE', *, *, #60, .T. ) ;
#81 = EDGE_LOOP ( 'NONE', ( #288, #273, #267, #143 ) ) ;
#82 = AXIS2_PLACEMENT_3D ( 'NONE', #106, #130, #87 ) ;
#83 = ORIENTED_EDGE ( 'NONE', *, *, #60, .F. ) ;
#84 = CARTESIAN_POINT ( 'NONE',  ( 0.1014484499999999956, 1.242385195709603026E-17, -1.242385195709603026E-17 ) ) ;
#85 = ORIENTED_EDGE ( 'NONE', *, *, #58, .F. ) ;
#86 = COLOUR_RGB ( '',0.7921568627450980005, 0.8196078431372548767, 0.9333333333333333481 ) ;
#87 = DIRECTION ( 'NONE',  ( 1.000000000000000000, 0.0000000000000000000, -0.0000000000000000000 ) ) ;
#88 = LINE ( 'NONE', #179, #5 ) ;
#89 = CARTESIAN_POINT ( 'NONE',  ( 0.0000000000000000000, 0.0000000000000000000, 2.000000000000000000 ) ) ;
#90 = VECTOR ( 'NONE', #105, 39.37007874015748143 ) ;
#91 = CARTESIAN_POINT ( 'NONE',  ( 0.0000000000000000000, 0.0000000000000000000, 0.0000000000000000000 ) ) ;
#92 = FACE_OUTER_BOUND ( 'NONE', #172, .T. ) ;
#93 =( GEOMETRIC_REPRESENTATION_CONTEXT ( 3 ) GLOBAL_UNCERTAINTY_ASSIGNED_CONTEXT ( ( #23 ) ) GLOBAL_UNIT_ASSIGNED_CONTEXT ( ( #57, #115, #169 ) ) REPRESENTATION_CONTEXT ( 'NONE', 'WORKASPACE' ) );
#94 = PLANE ( 'NONE',  #260 ) ;
#95 = FACE_OUTER_BOUND ( 'NONE', #223, .T. ) ;
#96 = CARTESIAN_POINT ( 'NONE',  ( 0.0000000000000000000, 0.0000000000000000000, 0.0000000000000000000 ) ) ;
#97 = ORIENTED_EDGE ( 'NONE', *, *, #282, .T. ) ;
#98 = AXIS2_PLACEMENT_3D ( 'NONE', #118, #79, #191 ) ;
#99 = CARTESIAN_POINT ( 'NONE',  ( 0.0000000000000000000, 0.0000000000000000000, 1.984999999999999432 ) ) ;
#100 = ORIENTED_EDGE ( 'NONE', *, *, #72, .F. ) ;
#101 =( NAMED_UNIT ( * ) SI_UNIT ( $, .STERADIAN. ) SOLID_ANGLE_UNIT ( ) );
#102 = LINE ( 'NONE', #241, #62 ) ;
#103 = CONICAL_SURFACE ( 'NONE', #196, 0.1099999999999996397, 0.7853981633974426169 ) ;
#104 = CARTESIAN_POINT ( 'NONE',  ( 0.1014484499999999956, 1.242385195709603026E-17, 0.0000000000000000000 ) ) ;
#105 = DIRECTION ( 'NONE',  ( 0.7071067811865434649, 8.659560562354883554E-17, -0.7071067811865515695 ) ) ;
#106 = CARTESIAN_POINT ( 'NONE',  ( 0.0000000000000000000, 0.0000000000000000000, 2.000000000000000000 ) ) ;
#107 = AXIS2_PLACEMENT_3D ( 'NONE', #161, #160, #47 ) ;
#108 = DIRECTION ( 'NONE',  ( -1.000000000000000000, 0.0000000000000000000, 1.224646799147353207E-16 ) ) ;
#109 = LINE ( 'NONE', #44, #90 ) ;
#110 = CARTESIAN_POINT ( 'NONE',  ( 0.1014484500000000511, 0.0000000000000000000, 0.3750000000000000555 ) ) ;
#111 =( NAMED_UNIT ( * ) SI_UNIT ( $, .STERADIAN. ) SOLID_ANGLE_UNIT ( ) );
#112 = CYLINDRICAL_SURFACE ( 'NONE', #195, 0.1014484499999999956 ) ;
#113 = PRESENTATION_STYLE_ASSIGNMENT (( #187 ) ) ;
#114 = CYLINDRICAL_SURFACE ( 'NONE', #270, 0.1014484499999999956 ) ;
#115 =( NAMED_UNIT ( * ) PLANE_ANGLE_UNIT ( ) SI_UNIT ( $, .RADIAN. ) );
#116 = PRODUCT_CONTEXT ( 'NONE', #289, 'mechanical' ) ;
#117 = ORIENTED_EDGE ( 'NONE', *, *, #292, .F. ) ;
#118 = CARTESIAN_POINT ( 'NONE',  ( 0.0000000000000000000, 0.0000000000000000000, 2.000000000000000000 ) ) ;
#119 = CONICAL_SURFACE ( 'NONE', #140, 0.1014484499999999956, 0.1745329251994338082 ) ;
#120 = VERTEX_POINT ( 'NONE', #153 ) ;
#121 = AXIS2_PLACEMENT_3D ( 'NONE', #2, #232, #230 ) ;
#122 =( LENGTH_UNIT ( ) NAMED_UNIT ( * ) SI_UNIT ( $, .METRE. ) );
#123 = EDGE_LOOP ( 'NONE', ( #59, #34 ) ) ;
#124 = SURFACE_SIDE_STYLE ('',( #12 ) ) ;
#125 = ORIENTED_EDGE ( 'NONE', *, *, #237, .F. ) ;
#126 = PRODUCT_RELATED_PRODUCT_CATEGORY ( 'part', '', ( #211 ) ) ;
#127 = ORIENTED_EDGE ( 'NONE', *, *, #292, .T. ) ;
#128 = DIRECTION ( 'NONE',  ( -0.7071067811865434649, 0.0000000000000000000, -0.7071067811865515695 ) ) ;
#129 = CARTESIAN_POINT ( 'NONE',  ( 0.1250000000000000000, 1.530808498934191509E-17, 2.000000000000000000 ) ) ;
#130 = DIRECTION ( 'NONE',  ( 0.0000000000000000000, 0.0000000000000000000, 1.000000000000000000 ) ) ;
#131 = AXIS2_PLACEMENT_3D ( 'NONE', #299, #275, #136 ) ;
#132 = CIRCLE ( 'NONE', #107, 0.1250000000000000000 ) ;
#133 = FILL_AREA_STYLE_COLOUR ( '', #86 ) ;
#134 = APPLICATION_CONTEXT ( 'automotive_design' ) ;
#135 = EDGE_CURVE ( 'NONE', #216, #68, #200, .T. ) ;
#136 = DIRECTION ( 'NONE',  ( -1.000000000000000000, 0.0000000000000000000, 0.0000000000000000000 ) ) ;
#137 = LENGTH_MEASURE_WITH_UNIT ( LENGTH_MEASURE( 0.02539999999999999897 ), #70 );
#138 = UNCERTAINTY_MEASURE_WITH_UNIT (LENGTH_MEASURE( 1.000000000000000082E-05 ), #21, 'distance_accuracy_value', 'NONE');
#139 = VECTOR ( 'NONE', #36, 39.37007874015748143 ) ;
#140 = AXIS2_PLACEMENT_3D ( 'NONE', #162, #257, #205 ) ;
#141 = SURFACE_SIDE_STYLE ('',( #183 ) ) ;
#142 = LINE ( 'NONE', #206, #41 ) ;
#143 = ORIENTED_EDGE ( 'NONE', *, *, #282, .F. ) ;
#144 = DIRECTION ( 'NONE',  ( 0.0000000000000000000, 0.0000000000000000000, -1.000000000000000000 ) ) ;
#145 = ORIENTED_EDGE ( 'NONE', *, *, #203, .T. ) ;
#146 = CONICAL_SURFACE ( 'NONE', #212, 0.1099999999999996397, 0.7853981633974426169 ) ;
#147 = DIRECTION ( 'NONE',  ( 1.000000000000000000, 0.0000000000000000000, 0.0000000000000000000 ) ) ;
#148 = ADVANCED_FACE ( 'NONE', ( #274 ), #54, .T. ) ;
#149 = VERTEX_POINT ( 'NONE', #269 ) ;
#150 = ADVANCED_FACE ( 'NONE', ( #155 ), #38, .T. ) ;
#151 = VERTEX_POINT ( 'NONE', #254 ) ;
#152 = CIRCLE ( 'NONE', #121, 0.1250000000000000000 ) ;
#153 = CARTESIAN_POINT ( 'NONE',  ( 0.1250000000000000555, 1.530808498934192125E-17, 0.5085674773388167980 ) ) ;
#154 = FACE_OUTER_BOUND ( 'NONE', #264, .T. ) ;
#155 = FACE_OUTER_BOUND ( 'NONE', #123, .T. ) ;
#156 = DIRECTION ( 'NONE',  ( 0.0000000000000000000, 0.0000000000000000000, 1.000000000000000000 ) ) ;
#157 = DIRECTION ( 'NONE',  ( -1.224646799147353207E-16, -0.0000000000000000000, -1.000000000000000000 ) ) ;
#158 = MANIFOLD_SOLID_BREP ( 'Cut-Revolve1', #74 ) ;
#159 = PRODUCT_DEFINITION_CONTEXT ( 'detailed design', #134, 'design' ) ;
#160 = DIRECTION ( 'NONE',  ( 0.0000000000000000000, 0.0000000000000000000, -1.000000000000000000 ) ) ;
#161 = CARTESIAN_POINT ( 'NONE',  ( 0.0000000000000000000, 0.0000000000000000000, 1.984999999999999432 ) ) ;
#162 = CARTESIAN_POINT ( 'NONE',  ( 4.592425496802575451E-17, 0.0000000000000000000, 0.3750000000000000555 ) ) ;
#163 = AXIS2_PLACEMENT_3D ( 'NONE', #64, #202, #108 ) ;
#164 = DIRECTION ( 'NONE',  ( -0.1736481776669311083, 2.126576849575782084E-17, 0.9848077530122080203 ) ) ;
#165 = ORIENTED_EDGE ( 'NONE', *, *, #42, .T. ) ;
#166 = ORIENTED_EDGE ( 'NONE', *, *, #236, .T. ) ;
#167 = FILL_AREA_STYLE ('',( #52 ) ) ;
#168 = EDGE_LOOP ( 'NONE', ( #83, #242, #145, #117 ) ) ;
#169 =( NAMED_UNIT ( * ) SI_UNIT ( $, .STERADIAN. ) SOLID_ANGLE_UNIT ( ) );
#170 = ORIENTED_EDGE ( 'NONE', *, *, #31, .T. ) ;
#171 = CARTESIAN_POINT ( 'NONE',  ( -0.1014484499999999539, 1.386596847321897422E-17, 0.3750000000000000555 ) ) ;
#172 = EDGE_LOOP ( 'NONE', ( #11, #170 ) ) ;
#173 = SHAPE_DEFINITION_REPRESENTATION ( #231, #246 ) ;
#174 = CARTESIAN_POINT ( 'NONE',  ( 4.592425496802575451E-17, 0.0000000000000000000, 0.3750000000000000555 ) ) ;
#175 = CYLINDRICAL_SURFACE ( 'NONE', #26, 0.1250000000000000000 ) ;
#176 = MECHANICAL_DESIGN_GEOMETRIC_PRESENTATION_REPRESENTATION (  '', ( #55 ), #93 ) ;
#177 = ORIENTED_EDGE ( 'NONE', *, *, #72, .T. ) ;
#178 = ADVANCED_FACE ( 'NONE', ( #154 ), #112, .T. ) ;
#179 = CARTESIAN_POINT ( 'NONE',  ( -0.1250000000000000000, 0.0000000000000000000, 2.000000000000000000 ) ) ;
#180 = ADVANCED_FACE ( 'NONE', ( #95 ), #103, .T. ) ;
#181 = FACE_OUTER_BOUND ( 'NONE', #56, .T. ) ;
#182 = DIRECTION ( 'NONE',  ( 1.000000000000000000, 0.0000000000000000000, 0.0000000000000000000 ) ) ;
#183 = SURFACE_STYLE_FILL_AREA ( #263 ) ;
#184 = CARTESIAN_POINT ( 'NONE',  ( -0.1250000000000000000, 0.0000000000000000000, 1.984999999999999432 ) ) ;
#185 = UNCERTAINTY_MEASURE_WITH_UNIT (LENGTH_MEASURE( 1.000000000000000082E-05 ), #235, 'distance_accuracy_value', 'NONE');
#186 = CARTESIAN_POINT ( 'NONE',  ( 1.521483053233823417E-33, 0.0000000000000000000, 1.242385195709603026E-17 ) ) ;
#187 = SURFACE_STYLE_USAGE ( .BOTH. , #141 ) ;
#188 = SURFACE_STYLE_USAGE ( .BOTH. , #124 ) ;
#189 = DIMENSIONAL_EXPONENTS ( 1.000000000000000000, 0.0000000000000000000, 0.0000000000000000000, 0.0000000000000000000, 0.0000000000000000000, 0.0000000000000000000, 0.0000000000000000000 ) ;
#190 = DIRECTION ( 'NONE',  ( 0.0000000000000000000, 0.0000000000000000000, 1.000000000000000000 ) ) ;
#191 = DIRECTION ( 'NONE',  ( -1.000000000000000000, 0.0000000000000000000, 0.0000000000000000000 ) ) ;
#192 = EDGE_LOOP ( 'NONE', ( #29, #97, #177, #218 ) ) ;
#193 =( LENGTH_UNIT ( ) NAMED_UNIT ( * ) SI_UNIT ( $, .METRE. ) );
#194 = VERTEX_POINT ( 'NONE', #184 ) ;
#195 = AXIS2_PLACEMENT_3D ( 'NONE', #69, #262, #259 ) ;
#196 = AXIS2_PLACEMENT_3D ( 'NONE', #207, #45, #229 ) ;
#197 = LINE ( 'NONE', #129, #139 ) ;
#198 = DIRECTION ( 'NONE',  ( -0.0000000000000000000, -0.0000000000000000000, -1.000000000000000000 ) ) ;
#199 = CIRCLE ( 'NONE', #248, 0.1099999999999996397 ) ;
#200 = LINE ( 'NONE', #84, #17 ) ;
#201 = ORIENTED_EDGE ( 'NONE', *, *, #78, .T. ) ;
#202 = DIRECTION ( 'NONE',  ( -1.224646799147353207E-16, -0.0000000000000000000, -1.000000000000000000 ) ) ;
#203 = EDGE_CURVE ( 'NONE', #149, #120, #233, .T. ) ;
#204 = CARTESIAN_POINT ( 'NONE',  ( -0.1014484499999999956, 0.0000000000000000000, 2.484770391419206052E-17 ) ) ;
#205 = DIRECTION ( 'NONE',  ( 1.000000000000000000, 0.0000000000000000000, 0.0000000000000000000 ) ) ;
#206 = CARTESIAN_POINT ( 'NONE',  ( -0.1014484499999999956, 0.0000000000000000000, 1.242385195709603026E-17 ) ) ;
#207 = CARTESIAN_POINT ( 'NONE',  ( 0.0000000000000000000, 0.0000000000000000000, 2.000000000000000000 ) ) ;
#208 = VECTOR ( 'NONE', #128, 39.37007874015748143 ) ;
#209 = CARTESIAN_POINT ( 'NONE',  ( 0.0000000000000000000, 0.0000000000000000000, 0.0000000000000000000 ) ) ;
#210 = FACE_OUTER_BOUND ( 'NONE', #192, .T. ) ;
#211 = PRODUCT ( 'Micro_SEM-203-04', 'Micro_SEM-203-04', '', ( #116 ) ) ;
#212 = AXIS2_PLACEMENT_3D ( 'NONE', #89, #250, #221 ) ;
#213 = STYLED_ITEM ( 'NONE', ( #113 ), #158 ) ;
#214 = AXIS2_PLACEMENT_3D ( 'NONE', #99, #144, #147 ) ;
#215 = ORIENTED_EDGE ( 'NONE', *, *, #294, .F. ) ;
#216 = VERTEX_POINT ( 'NONE', #110 ) ;
#217 = PRESENTATION_STYLE_ASSIGNMENT (( #188 ) ) ;
#218 = ORIENTED_EDGE ( 'NONE', *, *, #247, .F. ) ;
#219 = PRODUCT_DEFINITION_FORMATION_WITH_SPECIFIED_SOURCE ( 'ANY', '', #211, .NOT_KNOWN. ) ;
#220 = VERTEX_POINT ( 'NONE', #204 ) ;
#221 = DIRECTION ( 'NONE',  ( -1.000000000000000000, 0.0000000000000000000, 0.0000000000000000000 ) ) ;
#222 = DIRECTION ( 'NONE',  ( 1.000000000000000000, 0.0000000000000000000, 0.0000000000000000000 ) ) ;
#223 = EDGE_LOOP ( 'NONE', ( #85, #244, #49, #75 ) ) ;
#224 = PRESENTATION_LAYER_ASSIGNMENT (  '', '', ( #55 ) ) ;
#225 = ORIENTED_EDGE ( 'NONE', *, *, #42, .F. ) ;
#226 = DIRECTION ( 'NONE',  ( -1.224646799147353207E-16, -0.0000000000000000000, -1.000000000000000000 ) ) ;
#227 = CIRCLE ( 'NONE', #239, 0.1014484499999999956 ) ;
#228 = VECTOR ( 'NONE', #164, 39.37007874015747433 ) ;
#229 = DIRECTION ( 'NONE',  ( -1.000000000000000000, 0.0000000000000000000, 0.0000000000000000000 ) ) ;
#230 = DIRECTION ( 'NONE',  ( 1.000000000000000000, 0.0000000000000000000, 0.0000000000000000000 ) ) ;
#231 = PRODUCT_DEFINITION_SHAPE ( 'NONE', 'NONE',  #252 ) ;
#232 = DIRECTION ( 'NONE',  ( -1.224646799147353207E-16, -0.0000000000000000000, -1.000000000000000000 ) ) ;
#233 = CIRCLE ( 'NONE', #67, 0.1250000000000000000 ) ;
#234 = CIRCLE ( 'NONE', #76, 0.1014484499999999956 ) ;
#235 =( CONVERSION_BASED_UNIT ( 'INCH', #33 ) LENGTH_UNIT ( ) NAMED_UNIT ( #297 ) );
#236 = EDGE_CURVE ( 'NONE', #295, #220, #142, .T. ) ;
#237 = EDGE_CURVE ( 'NONE', #220, #68, #234, .T. ) ;
#238 = ORIENTED_EDGE ( 'NONE', *, *, #203, .F. ) ;
#239 = AXIS2_PLACEMENT_3D ( 'NONE', #291, #226, #63 ) ;
#240 = CIRCLE ( 'NONE', #14, 0.1099999999999996397 ) ;
#241 = CARTESIAN_POINT ( 'NONE',  ( 0.1014484500000000511, 0.0000000000000000000, 0.3750000000000000555 ) ) ;
#242 = ORIENTED_EDGE ( 'NONE', *, *, #294, .T. ) ;
#243 = LINE ( 'NONE', #265, #228 ) ;
#244 = ORIENTED_EDGE ( 'NONE', *, *, #27, .T. ) ;
#245 = EDGE_CURVE ( 'NONE', #32, #151, #240, .T. ) ;
#246 = ADVANCED_BREP_SHAPE_REPRESENTATION ( 'Micro_SEM-203-04', ( #158, #10 ), #279 ) ;
#247 = EDGE_CURVE ( 'NONE', #120, #149, #152, .T. ) ;
#248 = AXIS2_PLACEMENT_3D ( 'NONE', #271, #156, #222 ) ;
#249 = CIRCLE ( 'NONE', #214, 0.1250000000000000000 ) ;
#250 = DIRECTION ( 'NONE',  ( 0.0000000000000000000, 0.0000000000000000000, -1.000000000000000000 ) ) ;
#251 = FACE_OUTER_BOUND ( 'NONE', #81, .T. ) ;
#252 = PRODUCT_DEFINITION ( 'UNKNOWN', '', #219, #159 ) ;
#253 = DIRECTION ( 'NONE',  ( -1.224646799147353207E-16, -0.0000000000000000000, -1.000000000000000000 ) ) ;
#254 = CARTESIAN_POINT ( 'NONE',  ( 0.1099999999999996397, 1.438959988998137757E-17, 2.000000000000000000 ) ) ;
#255 = DIRECTION ( 'NONE',  ( -0.0000000000000000000, -0.0000000000000000000, -1.000000000000000000 ) ) ;
#256 = EDGE_CURVE ( 'NONE', #194, #13, #132, .T. ) ;
#257 = DIRECTION ( 'NONE',  ( 1.224646799147353207E-16, 0.0000000000000000000, 1.000000000000000000 ) ) ;
#258 = ADVANCED_FACE ( 'NONE', ( #92 ), #94, .F. ) ;
#259 = DIRECTION ( 'NONE',  ( -1.000000000000000000, 0.0000000000000000000, 1.224646799147353207E-16 ) ) ;
#260 = AXIS2_PLACEMENT_3D ( 'NONE', #91, #71, #277 ) ;
#261 = DIRECTION ( 'NONE',  ( -1.224646799147353207E-16, -0.0000000000000000000, -1.000000000000000000 ) ) ;
#262 = DIRECTION ( 'NONE',  ( -1.224646799147353207E-16, -0.0000000000000000000, -1.000000000000000000 ) ) ;
#263 = FILL_AREA_STYLE ('',( #133 ) ) ;
#264 = EDGE_LOOP ( 'NONE', ( #80, #287, #125, #50 ) ) ;
#265 = CARTESIAN_POINT ( 'NONE',  ( -0.1014484499999999539, 1.242385195709603026E-17, 0.3750000000000000555 ) ) ;
#266 = ORIENTED_EDGE ( 'NONE', *, *, #247, .T. ) ;
#267 = ORIENTED_EDGE ( 'NONE', *, *, #3, .T. ) ;
#268 = EDGE_LOOP ( 'NONE', ( #53, #165, #166, #15 ) ) ;
#269 = CARTESIAN_POINT ( 'NONE',  ( -0.1249999999999999306, 0.0000000000000000000, 0.5085674773388167980 ) ) ;
#270 = AXIS2_PLACEMENT_3D ( 'NONE', #209, #157, #6 ) ;
#271 = CARTESIAN_POINT ( 'NONE',  ( 0.0000000000000000000, 0.0000000000000000000, 2.000000000000000000 ) ) ;
#272 = ADVANCED_FACE ( 'NONE', ( #25 ), #114, .T. ) ;
#273 = ORIENTED_EDGE ( 'NONE', *, *, #245, .F. ) ;
#274 = FACE_OUTER_BOUND ( 'NONE', #35, .T. ) ;
#275 = DIRECTION ( 'NONE',  ( -1.224646799147353207E-16, -0.0000000000000000000, -1.000000000000000000 ) ) ;
#276 = ADVANCED_FACE ( 'NONE', ( #48 ), #119, .T. ) ;
#277 = DIRECTION ( 'NONE',  ( 1.000000000000000000, 0.0000000000000000000, -0.0000000000000000000 ) ) ;
#278 = CARTESIAN_POINT ( 'NONE',  ( 6.228155332734261484E-17, 0.0000000000000000000, 0.5085674773388167980 ) ) ;
#279 =( GEOMETRIC_REPRESENTATION_CONTEXT ( 3 ) GLOBAL_UNCERTAINTY_ASSIGNED_CONTEXT ( ( #185 ) ) GLOBAL_UNIT_ASSIGNED_CONTEXT ( ( #235, #284, #101 ) ) REPRESENTATION_CONTEXT ( 'NONE', 'WORKASPACE' ) );
#280 = DIRECTION ( 'NONE',  ( -1.000000000000000000, 0.0000000000000000000, 1.224646799147353207E-16 ) ) ;
#281 = DIRECTION ( 'NONE',  ( -1.224646799147353207E-16, -0.0000000000000000000, -1.000000000000000000 ) ) ;
#282 = EDGE_CURVE ( 'NONE', #13, #194, #249, .T. ) ;
#283 = LENGTH_MEASURE_WITH_UNIT ( LENGTH_MEASURE( 0.02539999999999999897 ), #193 );
#284 =( NAMED_UNIT ( * ) PLANE_ANGLE_UNIT ( ) SI_UNIT ( $, .RADIAN. ) );
#285 = ORIENTED_EDGE ( 'NONE', *, *, #256, .T. ) ;
#286 = DIRECTION ( 'NONE',  ( 0.1736481776669313026, 0.0000000000000000000, 0.9848077530122077983 ) ) ;
#287 = ORIENTED_EDGE ( 'NONE', *, *, #135, .T. ) ;
#288 = ORIENTED_EDGE ( 'NONE', *, *, #27, .F. ) ;
#289 = APPLICATION_CONTEXT ( 'automotive_design' ) ;
#290 = APPLICATION_PROTOCOL_DEFINITION ( 'draft international standard', 'automotive_design', 1998, #289 ) ;
#291 = CARTESIAN_POINT ( 'NONE',  ( 4.592425496802575451E-17, 0.0000000000000000000, 0.3750000000000000555 ) ) ;
#292 = EDGE_CURVE ( 'NONE', #216, #120, #102, .T. ) ;
#293 = CARTESIAN_POINT ( 'NONE',  ( -0.1099999999999996397, 0.0000000000000000000, 2.000000000000000000 ) ) ;
#294 = EDGE_CURVE ( 'NONE', #295, #149, #243, .T. ) ;
#295 = VERTEX_POINT ( 'NONE', #171 ) ;
#296 = CARTESIAN_POINT ( 'NONE',  ( 0.0000000000000000000, 0.0000000000000000000, 2.000000000000000000 ) ) ;
#297 = DIMENSIONAL_EXPONENTS ( 1.000000000000000000, 0.0000000000000000000, 0.0000000000000000000, 0.0000000000000000000, 0.0000000000000000000, 0.0000000000000000000, 0.0000000000000000000 ) ;
#298 = ADVANCED_FACE ( 'NONE', ( #210 ), #28, .T. ) ;
#299 = CARTESIAN_POINT ( 'NONE',  ( 4.592425496802575451E-17, 0.0000000000000000000, 0.3750000000000000555 ) ) ;
ENDSEC;
END-ISO-10303-21;
