ISO-10303-21;
HEADER;
FILE_DESCRIPTION (( 'STEP AP214' ),
    '1' );
FILE_NAME ('84693.STEP',
    '2023-06-23T14:54:15',
    ( '' ),
    ( '' ),
    'SwSTEP 2.0',
    'SolidWorks 2023',
    '' );
FILE_SCHEMA (( 'AUTOMOTIVE_DESIGN' ));
ENDSEC;

DATA;
#1 = PLANE ( 'NONE',  #27 ) ;
#2 = FACE_OUTER_BOUND ( 'NONE', #119, .T. ) ;
#3 = STYLED_ITEM ( 'NONE', ( #96 ), #254 ) ;
#4 = SURFACE_STYLE_USAGE ( .BOTH. , #241 ) ;
#5 = CARTESIAN_POINT ( 'NONE',  ( -0.06249999999999890365, 2.500000000000000000, 0.000000000000000000 ) ) ;
#6 = SURFACE_SIDE_STYLE ('',( #147 ) ) ;
#7 = PRODUCT ( '84693', '84693', '', ( #8 ) ) ;
#8 = PRODUCT_CONTEXT ( 'NONE', #214, 'mechanical' ) ;
#9 =( GEOMETRIC_REPRESENTATION_CONTEXT ( 3 ) GLOBAL_UNCERTAINTY_ASSIGNED_CONTEXT ( ( #264 ) ) GLOBAL_UNIT_ASSIGNED_CONTEXT ( ( #287, #161, #68 ) ) REPRESENTATION_CONTEXT ( 'NONE', 'WORKASPACE' ) );
#10 = CARTESIAN_POINT ( 'NONE',  ( 0.000000000000000000, 0.000000000000000000, 0.000000000000000000 ) ) ;
#11 = UNCERTAINTY_MEASURE_WITH_UNIT (LENGTH_MEASURE( 1.000000000000000082E-05 ), #288, 'distance_accuracy_value', 'NONE');
#12 = PRODUCT_RELATED_PRODUCT_CATEGORY ( 'part', '', ( #7 ) ) ;
#13 = DIRECTION ( 'NONE',  ( -0.000000000000000000, -1.000000000000000000, -0.000000000000000000 ) ) ;
#14 = PRESENTATION_STYLE_ASSIGNMENT (( #300 ) ) ;
#15 = SURFACE_SIDE_STYLE ('',( #41 ) ) ;
#16 = COLOUR_RGB ( '',0.7921568627450980005, 0.8196078431372548767, 0.9333333333333333481 ) ;
#17 = SURFACE_SIDE_STYLE ('',( #210 ) ) ;
#18 =( NAMED_UNIT ( * ) SI_UNIT ( $, .STERADIAN. ) SOLID_ANGLE_UNIT ( ) );
#19 = FILL_AREA_STYLE ('',( #237 ) ) ;
#20 = DIRECTION ( 'NONE',  ( 0.000000000000000000, 0.000000000000000000, -1.000000000000000000 ) ) ;
#21 = LENGTH_MEASURE_WITH_UNIT ( LENGTH_MEASURE( 0.02539999999999999897 ), #63 );
#22 = STYLED_ITEM ( 'NONE', ( #192 ), #180 ) ;
#23 = AXIS2_PLACEMENT_3D ( 'NONE', #247, #142, #34 ) ;
#24 = PLANE ( 'NONE',  #188 ) ;
#25 = DIRECTION ( 'NONE',  ( 3.391329597638824038E-16, 1.000000000000000000, -0.000000000000000000 ) ) ;
#26 = CARTESIAN_POINT ( 'NONE',  ( 0.000000000000000000, 0.8749999999999997780, 0.000000000000000000 ) ) ;
#27 = AXIS2_PLACEMENT_3D ( 'NONE', #10, #292, #77 ) ;
#28 = EDGE_CURVE ( 'NONE', #122, #148, #123, .T. ) ;
#29 = PRESENTATION_LAYER_ASSIGNMENT (  '', '', ( #154 ) ) ;
#30 = ORIENTED_EDGE ( 'NONE', *, *, #62, .F. ) ;
#31 = DIRECTION ( 'NONE',  ( 0.000000000000000000, 0.000000000000000000, 1.000000000000000000 ) ) ;
#32 =( LENGTH_UNIT ( ) NAMED_UNIT ( * ) SI_UNIT ( $, .METRE. ) );
#33 = DIRECTION ( 'NONE',  ( 1.000000000000000000, 0.000000000000000000, 0.000000000000000000 ) ) ;
#34 = DIRECTION ( 'NONE',  ( 0.000000000000000000, 0.000000000000000000, -1.000000000000000000 ) ) ;
#35 = VERTEX_POINT ( 'NONE', #5 ) ;
#36 = LENGTH_MEASURE_WITH_UNIT ( LENGTH_MEASURE( 0.02539999999999999897 ), #32 );
#37 = EDGE_LOOP ( 'NONE', ( #73, #198 ) ) ;
#38 = FILL_AREA_STYLE ('',( #60 ) ) ;
#39 = FACE_OUTER_BOUND ( 'NONE', #166, .T. ) ;
#40 =( CONVERSION_BASED_UNIT ( 'INCH', #181 ) LENGTH_UNIT ( ) NAMED_UNIT ( #175 ) );
#41 = SURFACE_STYLE_FILL_AREA ( #209 ) ;
#42 = CIRCLE ( 'NONE', #23, 0.06250000000000001388 ) ;
#43 = LINE ( 'NONE', #206, #280 ) ;
#44 = AXIS2_PLACEMENT_3D ( 'NONE', #58, #153, #230 ) ;
#45 = DIRECTION ( 'NONE',  ( 3.391329597638824038E-16, 1.000000000000000000, -0.000000000000000000 ) ) ;
#46 = CARTESIAN_POINT ( 'NONE',  ( -0.06250000000000001388, 0.8749999999999997780, 0.000000000000000000 ) ) ;
#47 = AXIS2_PLACEMENT_3D ( 'NONE', #130, #204, #183 ) ;
#48 = CARTESIAN_POINT ( 'NONE',  ( 0.000000000000000000, 0.8749999999999997780, -0.06250000000000001388 ) ) ;
#49 = EDGE_CURVE ( 'NONE', #122, #195, #106, .T. ) ;
#50 = AXIS2_PLACEMENT_3D ( 'NONE', #66, #45, #285 ) ;
#51 = VECTOR ( 'NONE', #13, 39.37007874015748143 ) ;
#52 = PRODUCT_DEFINITION_CONTEXT ( 'detailed design', #194, 'design' ) ;
#53 = ORIENTED_EDGE ( 'NONE', *, *, #187, .T. ) ;
#54 = SURFACE_STYLE_USAGE ( .BOTH. , #6 ) ;
#55 =( NAMED_UNIT ( * ) PLANE_ANGLE_UNIT ( ) SI_UNIT ( $, .RADIAN. ) );
#56 = ORIENTED_EDGE ( 'NONE', *, *, #242, .F. ) ;
#57 =( NAMED_UNIT ( * ) PLANE_ANGLE_UNIT ( ) SI_UNIT ( $, .RADIAN. ) );
#58 = CARTESIAN_POINT ( 'NONE',  ( 5.510910596163089556E-16, 2.500000000000000000, 0.000000000000000000 ) ) ;
#59 =( NAMED_UNIT ( * ) PLANE_ANGLE_UNIT ( ) SI_UNIT ( $, .RADIAN. ) );
#60 = FILL_AREA_STYLE_COLOUR ( '', #16 ) ;
#61 = ADVANCED_FACE ( 'NONE', ( #39 ), #302, .T. ) ;
#62 = EDGE_CURVE ( 'NONE', #291, #173, #128, .T. ) ;
#63 =( LENGTH_UNIT ( ) NAMED_UNIT ( * ) SI_UNIT ( $, .METRE. ) );
#64 = CIRCLE ( 'NONE', #131, 0.06249999999999945877 ) ;
#65 = MECHANICAL_DESIGN_GEOMETRIC_PRESENTATION_REPRESENTATION (  '', ( #22 ), #244 ) ;
#66 = CARTESIAN_POINT ( 'NONE',  ( 5.510910596163089556E-16, 2.500000000000000000, 0.000000000000000000 ) ) ;
#67 = CARTESIAN_POINT ( 'NONE',  ( 7.654042494670959086E-18, 0.000000000000000000, 0.06250000000000001388 ) ) ;
#68 =( NAMED_UNIT ( * ) SI_UNIT ( $, .STERADIAN. ) SOLID_ANGLE_UNIT ( ) );
#69 = LINE ( 'NONE', #113, #144 ) ;
#70 =( NAMED_UNIT ( * ) PLANE_ANGLE_UNIT ( ) SI_UNIT ( $, .RADIAN. ) );
#71 = ORIENTED_EDGE ( 'NONE', *, *, #28, .T. ) ;
#72 = CARTESIAN_POINT ( 'NONE',  ( 5.510910596163089556E-16, 2.500000000000000000, 0.000000000000000000 ) ) ;
#73 = ORIENTED_EDGE ( 'NONE', *, *, #127, .F. ) ;
#74 = AXIS2_PLACEMENT_3D ( 'NONE', #26, #114, #220 ) ;
#75 = APPLICATION_PROTOCOL_DEFINITION ( 'draft international standard', 'automotive_design', 1998, #194 ) ;
#76 =( GEOMETRIC_REPRESENTATION_CONTEXT ( 3 ) GLOBAL_UNCERTAINTY_ASSIGNED_CONTEXT ( ( #289 ) ) GLOBAL_UNIT_ASSIGNED_CONTEXT ( ( #278, #253, #108 ) ) REPRESENTATION_CONTEXT ( 'NONE', 'WORKASPACE' ) );
#77 = DIRECTION ( 'NONE',  ( 0.000000000000000000, 0.000000000000000000, -1.000000000000000000 ) ) ;
#78 = ORIENTED_EDGE ( 'NONE', *, *, #89, .F. ) ;
#79 = ORIENTED_EDGE ( 'NONE', *, *, #234, .T. ) ;
#80 =( NAMED_UNIT ( * ) PLANE_ANGLE_UNIT ( ) SI_UNIT ( $, .RADIAN. ) );
#81 = ORIENTED_EDGE ( 'NONE', *, *, #49, .T. ) ;
#82 = PRESENTATION_LAYER_ASSIGNMENT (  '', '', ( #140 ) ) ;
#83 =( LENGTH_UNIT ( ) NAMED_UNIT ( * ) SI_UNIT ( $, .METRE. ) );
#84 = DIRECTION ( 'NONE',  ( 3.391329597638824038E-16, 1.000000000000000000, -0.000000000000000000 ) ) ;
#85 = EDGE_CURVE ( 'NONE', #148, #35, #43, .T. ) ;
#86 = DIRECTION ( 'NONE',  ( 0.000000000000000000, 0.000000000000000000, -1.000000000000000000 ) ) ;
#87 = MECHANICAL_DESIGN_GEOMETRIC_PRESENTATION_REPRESENTATION (  '', ( #170 ), #9 ) ;
#88 = AXIS2_PLACEMENT_3D ( 'NONE', #117, #31, #33 ) ;
#89 = EDGE_CURVE ( 'NONE', #195, #35, #307, .T. ) ;
#90 = FILL_AREA_STYLE ('',( #110 ) ) ;
#91 = ADVANCED_FACE ( 'NONE', ( #137 ), #259, .T. ) ;
#92 = SURFACE_SIDE_STYLE ('',( #93 ) ) ;
#93 = SURFACE_STYLE_FILL_AREA ( #90 ) ;
#94 = MANIFOLD_SOLID_BREP ( 'Revolve - Cutting Edge', #129 ) ;
#95 = CLOSED_SHELL ( 'NONE', ( #91, #163, #167, #266 ) ) ;
#96 = PRESENTATION_STYLE_ASSIGNMENT (( #4 ) ) ;
#97 = ORIENTED_EDGE ( 'NONE', *, *, #146, .F. ) ;
#98 = EDGE_LOOP ( 'NONE', ( #103, #81, #152, #294 ) ) ;
#99 = DIRECTION ( 'NONE',  ( 3.391329597638824038E-16, 1.000000000000000000, -0.000000000000000000 ) ) ;
#100 = AXIS2_PLACEMENT_3D ( 'NONE', #105, #109, #132 ) ;
#101 = DIMENSIONAL_EXPONENTS ( 1.000000000000000000, 0.000000000000000000, 0.000000000000000000, 0.000000000000000000, 0.000000000000000000, 0.000000000000000000, 0.000000000000000000 ) ;
#102 = FILL_AREA_STYLE_COLOUR ( '', #281 ) ;
#103 = ORIENTED_EDGE ( 'NONE', *, *, #127, .T. ) ;
#104 = ORIENTED_EDGE ( 'NONE', *, *, #49, .F. ) ;
#105 = CARTESIAN_POINT ( 'NONE',  ( 0.06250000000000001388, 2.500000000000000000, 0.000000000000000000 ) ) ;
#106 = LINE ( 'NONE', #304, #231 ) ;
#107 = COLOUR_RGB ( '',1.000000000000000000, 0.000000000000000000, 0.000000000000000000 ) ;
#108 =( NAMED_UNIT ( * ) SI_UNIT ( $, .STERADIAN. ) SOLID_ANGLE_UNIT ( ) );
#109 = DIRECTION ( 'NONE',  ( -3.391329597638824038E-16, -1.000000000000000000, 0.000000000000000000 ) ) ;
#110 = FILL_AREA_STYLE_COLOUR ( '', #256 ) ;
#111 = DIRECTION ( 'NONE',  ( 3.391329597638824038E-16, 1.000000000000000000, -0.000000000000000000 ) ) ;
#112 = AXIS2_PLACEMENT_3D ( 'NONE', #260, #236, #20 ) ;
#113 = CARTESIAN_POINT ( 'NONE',  ( 0.000000000000000000, 0.000000000000000000, -0.06250000000000001388 ) ) ;
#114 = DIRECTION ( 'NONE',  ( 3.391329597638824038E-16, 1.000000000000000000, -0.000000000000000000 ) ) ;
#115 = AXIS2_PLACEMENT_3D ( 'NONE', #263, #160, #191 ) ;
#116 = CIRCLE ( 'NONE', #112, 0.06250000000000001388 ) ;
#117 = CARTESIAN_POINT ( 'NONE',  ( 0.000000000000000000, 0.000000000000000000, 0.000000000000000000 ) ) ;
#118 = DIRECTION ( 'NONE',  ( 0.000000000000000000, 0.000000000000000000, -1.000000000000000000 ) ) ;
#119 = EDGE_LOOP ( 'NONE', ( #246, #248 ) ) ;
#120 = APPLICATION_PROTOCOL_DEFINITION ( 'draft international standard', 'automotive_design', 1998, #214 ) ;
#121 = FACE_OUTER_BOUND ( 'NONE', #223, .T. ) ;
#122 = VERTEX_POINT ( 'NONE', #141 ) ;
#123 = CIRCLE ( 'NONE', #74, 0.06250000000000001388 ) ;
#124 = UNCERTAINTY_MEASURE_WITH_UNIT (LENGTH_MEASURE( 1.000000000000000082E-05 ), #172, 'distance_accuracy_value', 'NONE');
#125 = VERTEX_POINT ( 'NONE', #48 ) ;
#126 = CARTESIAN_POINT ( 'NONE',  ( 0.000000000000000000, 0.000000000000000000, 0.000000000000000000 ) ) ;
#127 = EDGE_CURVE ( 'NONE', #148, #122, #184, .T. ) ;
#128 = LINE ( 'NONE', #229, #51 ) ;
#129 = CLOSED_SHELL ( 'NONE', ( #203, #254, #61, #180 ) ) ;
#130 = CARTESIAN_POINT ( 'NONE',  ( 0.000000000000000000, 0.8749999999999997780, 0.000000000000000000 ) ) ;
#131 = AXIS2_PLACEMENT_3D ( 'NONE', #72, #99, #193 ) ;
#132 = DIRECTION ( 'NONE',  ( 1.000000000000000000, -3.391329597638824038E-16, 0.000000000000000000 ) ) ;
#133 = PRESENTATION_STYLE_ASSIGNMENT (( #182 ) ) ;
#134 = MECHANICAL_DESIGN_GEOMETRIC_PRESENTATION_REPRESENTATION (  '', ( #3 ), #239 ) ;
#135 = SURFACE_STYLE_USAGE ( .BOTH. , #92 ) ;
#136 = SURFACE_STYLE_USAGE ( .BOTH. , #159 ) ;
#137 = FACE_OUTER_BOUND ( 'NONE', #98, .T. ) ;
#138 = EDGE_CURVE ( 'NONE', #291, #125, #116, .T. ) ;
#139 = CARTESIAN_POINT ( 'NONE',  ( 0.000000000000000000, 0.8749999999999997780, 0.000000000000000000 ) ) ;
#140 = STYLED_ITEM ( 'NONE', ( #267 ), #203 ) ;
#141 = CARTESIAN_POINT ( 'NONE',  ( 0.06250000000000001388, 0.8749999999999997780, 7.654042494670943678E-18 ) ) ;
#142 = DIRECTION ( 'NONE',  ( -0.000000000000000000, -1.000000000000000000, -0.000000000000000000 ) ) ;
#143 =( NAMED_UNIT ( * ) SI_UNIT ( $, .STERADIAN. ) SOLID_ANGLE_UNIT ( ) );
#144 = VECTOR ( 'NONE', #164, 39.37007874015748143 ) ;
#145 = PRODUCT_DEFINITION_SHAPE ( 'NONE', 'NONE',  #178 ) ;
#146 = EDGE_CURVE ( 'NONE', #125, #291, #290, .T. ) ;
#147 = SURFACE_STYLE_FILL_AREA ( #245 ) ;
#148 = VERTEX_POINT ( 'NONE', #46 ) ;
#149 = DIRECTION ( 'NONE',  ( 0.000000000000000000, 0.000000000000000000, -1.000000000000000000 ) ) ;
#150 = ORIENTED_EDGE ( 'NONE', *, *, #252, .F. ) ;
#151 =( NAMED_UNIT ( * ) SI_UNIT ( $, .STERADIAN. ) SOLID_ANGLE_UNIT ( ) );
#152 = ORIENTED_EDGE ( 'NONE', *, *, #187, .F. ) ;
#153 = DIRECTION ( 'NONE',  ( 3.391329597638824038E-16, 1.000000000000000000, -0.000000000000000000 ) ) ;
#154 = STYLED_ITEM ( 'NONE', ( #133 ), #61 ) ;
#155 =( NAMED_UNIT ( * ) SI_UNIT ( $, .STERADIAN. ) SOLID_ANGLE_UNIT ( ) );
#156 = FILL_AREA_STYLE_COLOUR ( '', #107 ) ;
#157 = PRESENTATION_LAYER_ASSIGNMENT (  '', '', ( #170 ) ) ;
#158 = AXIS2_PLACEMENT_3D ( 'NONE', #265, #219, #118 ) ;
#159 = SURFACE_SIDE_STYLE ('',( #286 ) ) ;
#160 = DIRECTION ( 'NONE',  ( 3.391329597638824038E-16, 1.000000000000000000, -0.000000000000000000 ) ) ;
#161 =( NAMED_UNIT ( * ) PLANE_ANGLE_UNIT ( ) SI_UNIT ( $, .RADIAN. ) );
#162 = CARTESIAN_POINT ( 'NONE',  ( 0.000000000000000000, 0.8749999999999997780, 0.000000000000000000 ) ) ;
#163 = ADVANCED_FACE ( 'NONE', ( #261 ), #24, .F. ) ;
#164 = DIRECTION ( 'NONE',  ( -0.000000000000000000, -1.000000000000000000, -0.000000000000000000 ) ) ;
#165 = CARTESIAN_POINT ( 'NONE',  ( 0.000000000000000000, 0.000000000000000000, 0.000000000000000000 ) ) ;
#166 = EDGE_LOOP ( 'NONE', ( #30, #169, #79, #150 ) ) ;
#167 = ADVANCED_FACE ( 'NONE', ( #190 ), #218, .T. ) ;
#168 = UNCERTAINTY_MEASURE_WITH_UNIT (LENGTH_MEASURE( 1.000000000000000082E-05 ), #40, 'distance_accuracy_value', 'NONE');
#169 = ORIENTED_EDGE ( 'NONE', *, *, #138, .T. ) ;
#170 = STYLED_ITEM ( 'NONE', ( #306 ), #94 ) ;
#171 = AXIS2_PLACEMENT_3D ( 'NONE', #165, #197, #149 ) ;
#172 =( CONVERSION_BASED_UNIT ( 'INCH', #213 ) LENGTH_UNIT ( ) NAMED_UNIT ( #101 ) );
#173 = VERTEX_POINT ( 'NONE', #67 ) ;
#174 = SHAPE_DEFINITION_REPRESENTATION ( #145, #212 ) ;
#175 = DIMENSIONAL_EXPONENTS ( 1.000000000000000000, 0.000000000000000000, 0.000000000000000000, 0.000000000000000000, 0.000000000000000000, 0.000000000000000000, 0.000000000000000000 ) ;
#176 = CARTESIAN_POINT ( 'NONE',  ( 0.06250000000000001388, 2.500000000000000000, 7.654042494670943678E-18 ) ) ;
#177 = ORIENTED_EDGE ( 'NONE', *, *, #85, .T. ) ;
#178 = PRODUCT_DEFINITION ( 'UNKNOWN', '', #257, #52 ) ;
#179 = ORIENTED_EDGE ( 'NONE', *, *, #234, .F. ) ;
#180 = ADVANCED_FACE ( 'NONE', ( #2 ), #1, .T. ) ;
#181 = LENGTH_MEASURE_WITH_UNIT ( LENGTH_MEASURE( 0.02539999999999999897 ), #282 );
#182 = SURFACE_STYLE_USAGE ( .BOTH. , #15 ) ;
#183 = DIRECTION ( 'NONE',  ( 0.000000000000000000, -0.000000000000000000, 1.000000000000000000 ) ) ;
#184 = CIRCLE ( 'NONE', #303, 0.06250000000000001388 ) ;
#185 =( GEOMETRIC_REPRESENTATION_CONTEXT ( 3 ) GLOBAL_UNCERTAINTY_ASSIGNED_CONTEXT ( ( #11 ) ) GLOBAL_UNIT_ASSIGNED_CONTEXT ( ( #288, #70, #143 ) ) REPRESENTATION_CONTEXT ( 'NONE', 'WORKASPACE' ) );
#186 = DIRECTION ( 'NONE',  ( -0.000000000000000000, -1.000000000000000000, -0.000000000000000000 ) ) ;
#187 = EDGE_CURVE ( 'NONE', #35, #195, #64, .T. ) ;
#188 = AXIS2_PLACEMENT_3D ( 'NONE', #217, #25, #309 ) ;
#189 = MECHANICAL_DESIGN_GEOMETRIC_PRESENTATION_REPRESENTATION (  '', ( #243 ), #284 ) ;
#190 = FACE_OUTER_BOUND ( 'NONE', #268, .T. ) ;
#191 = DIRECTION ( 'NONE',  ( -1.000000000000000000, 0.000000000000000000, 0.000000000000000000 ) ) ;
#192 = PRESENTATION_STYLE_ASSIGNMENT (( #135 ) ) ;
#193 = DIRECTION ( 'NONE',  ( -1.000000000000000000, 0.000000000000000000, 0.000000000000000000 ) ) ;
#194 = APPLICATION_CONTEXT ( 'automotive_design' ) ;
#195 = VERTEX_POINT ( 'NONE', #176 ) ;
#196 = DIMENSIONAL_EXPONENTS ( 1.000000000000000000, 0.000000000000000000, 0.000000000000000000, 0.000000000000000000, 0.000000000000000000, 0.000000000000000000, 0.000000000000000000 ) ;
#197 = DIRECTION ( 'NONE',  ( -0.000000000000000000, -1.000000000000000000, -0.000000000000000000 ) ) ;
#198 = ORIENTED_EDGE ( 'NONE', *, *, #28, .F. ) ;
#199 = PRESENTATION_LAYER_ASSIGNMENT (  '', '', ( #22 ) ) ;
#200 = PRESENTATION_LAYER_ASSIGNMENT (  '', '', ( #3 ) ) ;
#201 = SURFACE_STYLE_FILL_AREA ( #222 ) ;
#202 = ORIENTED_EDGE ( 'NONE', *, *, #89, .T. ) ;
#203 = ADVANCED_FACE ( 'NONE', ( #249 ), #273, .T. ) ;
#204 = DIRECTION ( 'NONE',  ( 0.000000000000000000, 1.000000000000000000, 0.000000000000000000 ) ) ;
#205 = EDGE_LOOP ( 'NONE', ( #53, #202 ) ) ;
#206 = CARTESIAN_POINT ( 'NONE',  ( -0.06249999999999918815, 2.500000000000000000, 0.000000000000000000 ) ) ;
#207 = COLOUR_RGB ( '',0.7921568627450980005, 0.8196078431372548767, 0.9333333333333333481 ) ;
#208 = CARTESIAN_POINT ( 'NONE',  ( 0.000000000000000000, 0.000000000000000000, -0.06250000000000001388 ) ) ;
#209 = FILL_AREA_STYLE ('',( #156 ) ) ;
#210 = SURFACE_STYLE_FILL_AREA ( #38 ) ;
#211 =( LENGTH_UNIT ( ) NAMED_UNIT ( * ) SI_UNIT ( $, .METRE. ) );
#212 = ADVANCED_BREP_SHAPE_REPRESENTATION ( '84693', ( #94, #293, #88 ), #76 ) ;
#213 = LENGTH_MEASURE_WITH_UNIT ( LENGTH_MEASURE( 0.02539999999999999897 ), #235 );
#214 = APPLICATION_CONTEXT ( 'automotive_design' ) ;
#215 = MECHANICAL_DESIGN_GEOMETRIC_PRESENTATION_REPRESENTATION (  '', ( #154 ), #238 ) ;
#216 = PRESENTATION_LAYER_ASSIGNMENT (  '', '', ( #243 ) ) ;
#217 = CARTESIAN_POINT ( 'NONE',  ( 3.594098887444097464E-33, 0.8749999999999997780, 0.000000000000000000 ) ) ;
#218 = CYLINDRICAL_SURFACE ( 'NONE', #115, 0.06249999999999974326 ) ;
#219 = DIRECTION ( 'NONE',  ( -0.000000000000000000, -1.000000000000000000, -0.000000000000000000 ) ) ;
#220 = DIRECTION ( 'NONE',  ( -1.000000000000000000, 0.000000000000000000, 0.000000000000000000 ) ) ;
#221 = DIMENSIONAL_EXPONENTS ( 1.000000000000000000, 0.000000000000000000, 0.000000000000000000, 0.000000000000000000, 0.000000000000000000, 0.000000000000000000, 0.000000000000000000 ) ;
#222 = FILL_AREA_STYLE ('',( #102 ) ) ;
#223 = EDGE_LOOP ( 'NONE', ( #97, #226 ) ) ;
#224 = DIMENSIONAL_EXPONENTS ( 1.000000000000000000, 0.000000000000000000, 0.000000000000000000, 0.000000000000000000, 0.000000000000000000, 0.000000000000000000, 0.000000000000000000 ) ;
#225 = PLANE ( 'NONE',  #47 ) ;
#226 = ORIENTED_EDGE ( 'NONE', *, *, #138, .F. ) ;
#227 = AXIS2_PLACEMENT_3D ( 'NONE', #126, #255, #86 ) ;
#228 = PLANE ( 'NONE',  #100 ) ;
#229 = CARTESIAN_POINT ( 'NONE',  ( 7.654042494670959086E-18, 0.000000000000000000, 0.06250000000000001388 ) ) ;
#230 = DIRECTION ( 'NONE',  ( -1.000000000000000000, 0.000000000000000000, 0.000000000000000000 ) ) ;
#231 = VECTOR ( 'NONE', #232, 39.37007874015748143 ) ;
#232 = DIRECTION ( 'NONE',  ( 3.391329597638824038E-16, 1.000000000000000000, -0.000000000000000000 ) ) ;
#233 =( CONVERSION_BASED_UNIT ( 'INCH', #296 ) LENGTH_UNIT ( ) NAMED_UNIT ( #295 ) );
#234 = EDGE_CURVE ( 'NONE', #125, #276, #69, .T. ) ;
#235 =( LENGTH_UNIT ( ) NAMED_UNIT ( * ) SI_UNIT ( $, .METRE. ) );
#236 = DIRECTION ( 'NONE',  ( -0.000000000000000000, -1.000000000000000000, -0.000000000000000000 ) ) ;
#237 = FILL_AREA_STYLE_COLOUR ( '', #207 ) ;
#238 =( GEOMETRIC_REPRESENTATION_CONTEXT ( 3 ) GLOBAL_UNCERTAINTY_ASSIGNED_CONTEXT ( ( #298 ) ) GLOBAL_UNIT_ASSIGNED_CONTEXT ( ( #258, #59, #283 ) ) REPRESENTATION_CONTEXT ( 'NONE', 'WORKASPACE' ) );
#239 =( GEOMETRIC_REPRESENTATION_CONTEXT ( 3 ) GLOBAL_UNCERTAINTY_ASSIGNED_CONTEXT ( ( #168 ) ) GLOBAL_UNIT_ASSIGNED_CONTEXT ( ( #40, #57, #18 ) ) REPRESENTATION_CONTEXT ( 'NONE', 'WORKASPACE' ) );
#240 = DIRECTION ( 'NONE',  ( -1.000000000000000000, 0.000000000000000000, 0.000000000000000000 ) ) ;
#241 = SURFACE_SIDE_STYLE ('',( #201 ) ) ;
#242 = EDGE_CURVE ( 'NONE', #276, #173, #271, .T. ) ;
#243 = STYLED_ITEM ( 'NONE', ( #14 ), #293 ) ;
#244 =( GEOMETRIC_REPRESENTATION_CONTEXT ( 3 ) GLOBAL_UNCERTAINTY_ASSIGNED_CONTEXT ( ( #124 ) ) GLOBAL_UNIT_ASSIGNED_CONTEXT ( ( #172, #55, #151 ) ) REPRESENTATION_CONTEXT ( 'NONE', 'WORKASPACE' ) );
#245 = FILL_AREA_STYLE ('',( #270 ) ) ;
#246 = ORIENTED_EDGE ( 'NONE', *, *, #242, .T. ) ;
#247 = CARTESIAN_POINT ( 'NONE',  ( 0.000000000000000000, 0.000000000000000000, 0.000000000000000000 ) ) ;
#248 = ORIENTED_EDGE ( 'NONE', *, *, #252, .T. ) ;
#249 = FACE_OUTER_BOUND ( 'NONE', #297, .T. ) ;
#250 = ORIENTED_EDGE ( 'NONE', *, *, #146, .T. ) ;
#251 = CARTESIAN_POINT ( 'NONE',  ( 7.654042494670959086E-18, 0.8749999999999997780, 0.06250000000000001388 ) ) ;
#252 = EDGE_CURVE ( 'NONE', #173, #276, #42, .T. ) ;
#253 =( NAMED_UNIT ( * ) PLANE_ANGLE_UNIT ( ) SI_UNIT ( $, .RADIAN. ) );
#254 = ADVANCED_FACE ( 'NONE', ( #121 ), #225, .T. ) ;
#255 = DIRECTION ( 'NONE',  ( -0.000000000000000000, -1.000000000000000000, -0.000000000000000000 ) ) ;
#256 = COLOUR_RGB ( '',1.000000000000000000, 0.000000000000000000, 0.000000000000000000 ) ;
#257 = PRODUCT_DEFINITION_FORMATION_WITH_SPECIFIED_SOURCE ( 'ANY', '', #7, .NOT_KNOWN. ) ;
#258 =( CONVERSION_BASED_UNIT ( 'INCH', #279 ) LENGTH_UNIT ( ) NAMED_UNIT ( #224 ) );
#259 = CYLINDRICAL_SURFACE ( 'NONE', #50, 0.06249999999999974326 ) ;
#260 = CARTESIAN_POINT ( 'NONE',  ( 0.000000000000000000, 0.8749999999999997780, 0.000000000000000000 ) ) ;
#261 = FACE_OUTER_BOUND ( 'NONE', #37, .T. ) ;
#262 = DIMENSIONAL_EXPONENTS ( 1.000000000000000000, 0.000000000000000000, 0.000000000000000000, 0.000000000000000000, 0.000000000000000000, 0.000000000000000000, 0.000000000000000000 ) ;
#263 = CARTESIAN_POINT ( 'NONE',  ( 5.510910596163089556E-16, 2.500000000000000000, 0.000000000000000000 ) ) ;
#264 = UNCERTAINTY_MEASURE_WITH_UNIT (LENGTH_MEASURE( 1.000000000000000082E-05 ), #287, 'distance_accuracy_value', 'NONE');
#265 = CARTESIAN_POINT ( 'NONE',  ( 0.000000000000000000, 0.000000000000000000, 0.000000000000000000 ) ) ;
#266 = ADVANCED_FACE ( 'NONE', ( #277 ), #228, .F. ) ;
#267 = PRESENTATION_STYLE_ASSIGNMENT (( #54 ) ) ;
#268 = EDGE_LOOP ( 'NONE', ( #104, #71, #177, #78 ) ) ;
#269 = MECHANICAL_DESIGN_GEOMETRIC_PRESENTATION_REPRESENTATION (  '', ( #140 ), #185 ) ;
#270 = FILL_AREA_STYLE_COLOUR ( '', #308 ) ;
#271 = CIRCLE ( 'NONE', #158, 0.06250000000000001388 ) ;
#272 = ORIENTED_EDGE ( 'NONE', *, *, #62, .T. ) ;
#273 = CYLINDRICAL_SURFACE ( 'NONE', #171, 0.06250000000000001388 ) ;
#274 = UNCERTAINTY_MEASURE_WITH_UNIT (LENGTH_MEASURE( 1.000000000000000082E-05 ), #233, 'distance_accuracy_value', 'NONE');
#275 = LENGTH_MEASURE_WITH_UNIT ( LENGTH_MEASURE( 0.02539999999999999897 ), #83 );
#276 = VERTEX_POINT ( 'NONE', #208 ) ;
#277 = FACE_OUTER_BOUND ( 'NONE', #205, .T. ) ;
#278 =( CONVERSION_BASED_UNIT ( 'INCH', #275 ) LENGTH_UNIT ( ) NAMED_UNIT ( #262 ) );
#279 = LENGTH_MEASURE_WITH_UNIT ( LENGTH_MEASURE( 0.02539999999999999897 ), #211 );
#280 = VECTOR ( 'NONE', #84, 39.37007874015748143 ) ;
#281 = COLOUR_RGB ( '',1.000000000000000000, 0.000000000000000000, 0.000000000000000000 ) ;
#282 =( LENGTH_UNIT ( ) NAMED_UNIT ( * ) SI_UNIT ( $, .METRE. ) );
#283 =( NAMED_UNIT ( * ) SI_UNIT ( $, .STERADIAN. ) SOLID_ANGLE_UNIT ( ) );
#284 =( GEOMETRIC_REPRESENTATION_CONTEXT ( 3 ) GLOBAL_UNCERTAINTY_ASSIGNED_CONTEXT ( ( #274 ) ) GLOBAL_UNIT_ASSIGNED_CONTEXT ( ( #233, #80, #155 ) ) REPRESENTATION_CONTEXT ( 'NONE', 'WORKASPACE' ) );
#285 = DIRECTION ( 'NONE',  ( -1.000000000000000000, 0.000000000000000000, 0.000000000000000000 ) ) ;
#286 = SURFACE_STYLE_FILL_AREA ( #19 ) ;
#287 =( CONVERSION_BASED_UNIT ( 'INCH', #21 ) LENGTH_UNIT ( ) NAMED_UNIT ( #196 ) );
#288 =( CONVERSION_BASED_UNIT ( 'INCH', #36 ) LENGTH_UNIT ( ) NAMED_UNIT ( #221 ) );
#289 = UNCERTAINTY_MEASURE_WITH_UNIT (LENGTH_MEASURE( 1.000000000000000082E-05 ), #278, 'distance_accuracy_value', 'NONE');
#290 = CIRCLE ( 'NONE', #299, 0.06250000000000001388 ) ;
#291 = VERTEX_POINT ( 'NONE', #251 ) ;
#292 = DIRECTION ( 'NONE',  ( 0.000000000000000000, -1.000000000000000000, -0.000000000000000000 ) ) ;
#293 = MANIFOLD_SOLID_BREP ( 'Revolve - Tool Body (Straight Shanked)', #95 ) ;
#294 = ORIENTED_EDGE ( 'NONE', *, *, #85, .F. ) ;
#295 = DIMENSIONAL_EXPONENTS ( 1.000000000000000000, 0.000000000000000000, 0.000000000000000000, 0.000000000000000000, 0.000000000000000000, 0.000000000000000000, 0.000000000000000000 ) ;
#296 = LENGTH_MEASURE_WITH_UNIT ( LENGTH_MEASURE( 0.02539999999999999897 ), #301 );
#297 = EDGE_LOOP ( 'NONE', ( #250, #272, #56, #179 ) ) ;
#298 = UNCERTAINTY_MEASURE_WITH_UNIT (LENGTH_MEASURE( 1.000000000000000082E-05 ), #258, 'distance_accuracy_value', 'NONE');
#299 = AXIS2_PLACEMENT_3D ( 'NONE', #162, #186, #305 ) ;
#300 = SURFACE_STYLE_USAGE ( .BOTH. , #17 ) ;
#301 =( LENGTH_UNIT ( ) NAMED_UNIT ( * ) SI_UNIT ( $, .METRE. ) );
#302 = CYLINDRICAL_SURFACE ( 'NONE', #227, 0.06250000000000001388 ) ;
#303 = AXIS2_PLACEMENT_3D ( 'NONE', #139, #111, #240 ) ;
#304 = CARTESIAN_POINT ( 'NONE',  ( 0.06250000000000029143, 2.500000000000000000, 7.654042494670926730E-18 ) ) ;
#305 = DIRECTION ( 'NONE',  ( 0.000000000000000000, 0.000000000000000000, -1.000000000000000000 ) ) ;
#306 = PRESENTATION_STYLE_ASSIGNMENT (( #136 ) ) ;
#307 = CIRCLE ( 'NONE', #44, 0.06249999999999945877 ) ;
#308 = COLOUR_RGB ( '',1.000000000000000000, 0.000000000000000000, 0.000000000000000000 ) ;
#309 = DIRECTION ( 'NONE',  ( -1.000000000000000000, 3.391329597638824038E-16, 0.000000000000000000 ) ) ;
ENDSEC;
END-ISO-10303-21;
