ISO-10303-21;
HEADER;
FILE_DESCRIPTION (( 'STEP AP214' ),
    '1' );
FILE_NAME ('Micro_SFA-125-44.STEP',
    '2021-09-02T03:42:37',
    ( '' ),
    ( '' ),
    'SwSTEP 2.0',
    'SolidWorks 2020',
    '' );
FILE_SCHEMA (( 'AUTOMOTIVE_DESIGN' ));
ENDSEC;

DATA;
#1 = ADVANCED_FACE ( 'NONE', ( #8 ), #269, .T. ) ;
#2 = CARTESIAN_POINT ( 'NONE',  ( -0.06243750000000001382, 0.0000000000000000000, 1.529277690435257783E-17 ) ) ;
#3 = EDGE_LOOP ( 'NONE', ( #130, #281, #198, #28 ) ) ;
#4 = ORIENTED_EDGE ( 'NONE', *, *, #222, .T. ) ;
#5 = DIRECTION ( 'NONE',  ( 0.0000000000000000000, 0.0000000000000000000, -1.000000000000000000 ) ) ;
#6 = ADVANCED_FACE ( 'NONE', ( #38 ), #54, .T. ) ;
#7 =( NAMED_UNIT ( * ) PLANE_ANGLE_UNIT ( ) SI_UNIT ( $, .RADIAN. ) );
#8 = FACE_OUTER_BOUND ( 'NONE', #3, .T. ) ;
#9 = ORIENTED_EDGE ( 'NONE', *, *, #70, .F. ) ;
#10 = APPLICATION_CONTEXT ( 'automotive_design' ) ;
#11 = DIRECTION ( 'NONE',  ( -1.000000000000000000, 0.0000000000000000000, 0.0000000000000000000 ) ) ;
#12 = SURFACE_SIDE_STYLE ('',( #157 ) ) ;
#13 = SURFACE_STYLE_FILL_AREA ( #164 ) ;
#14 = CIRCLE ( 'NONE', #277, 0.1250000000000000000 ) ;
#15 = CARTESIAN_POINT ( 'NONE',  ( 0.0000000000000000000, 0.0000000000000000000, 0.0000000000000000000 ) ) ;
#16 = CARTESIAN_POINT ( 'NONE',  ( 0.1250000000000001110, 1.530808498934192742E-17, 0.8548095688398309466 ) ) ;
#17 = CARTESIAN_POINT ( 'NONE',  ( 9.364125142994975765E-34, 0.0000000000000000000, 7.646388452176288915E-18 ) ) ;
#18 = SURFACE_STYLE_USAGE ( .BOTH. , #12 ) ;
#19 = LINE ( 'NONE', #85, #60 ) ;
#20 =( GEOMETRIC_REPRESENTATION_CONTEXT ( 3 ) GLOBAL_UNCERTAINTY_ASSIGNED_CONTEXT ( ( #202 ) ) GLOBAL_UNIT_ASSIGNED_CONTEXT ( ( #297, #294, #276 ) ) REPRESENTATION_CONTEXT ( 'NONE', 'WORKASPACE' ) );
#21 = ADVANCED_FACE ( 'NONE', ( #56 ), #151, .T. ) ;
#22 = CYLINDRICAL_SURFACE ( 'NONE', #138, 0.1250000000000000000 ) ;
#23 = CONICAL_SURFACE ( 'NONE', #194, 0.1099999999999996397, 0.7853981633974426169 ) ;
#24 = CIRCLE ( 'NONE', #159, 0.1250000000000000000 ) ;
#25 = PRODUCT_RELATED_PRODUCT_CATEGORY ( 'part', '', ( #93 ) ) ;
#26 = DIRECTION ( 'NONE',  ( 0.0000000000000000000, 0.0000000000000000000, -1.000000000000000000 ) ) ;
#27 = ADVANCED_FACE ( 'NONE', ( #182 ), #23, .T. ) ;
#28 = ORIENTED_EDGE ( 'NONE', *, *, #35, .T. ) ;
#29 = LINE ( 'NONE', #275, #171 ) ;
#30 = ORIENTED_EDGE ( 'NONE', *, *, #149, .T. ) ;
#31 = AXIS2_PLACEMENT_3D ( 'NONE', #44, #263, #262 ) ;
#32 = VERTEX_POINT ( 'NONE', #193 ) ;
#33 = VERTEX_POINT ( 'NONE', #160 ) ;
#34 = CARTESIAN_POINT ( 'NONE',  ( 0.0000000000000000000, 0.0000000000000000000, 2.000000000000000000 ) ) ;
#35 = EDGE_CURVE ( 'NONE', #128, #82, #120, .T. ) ;
#36 = VECTOR ( 'NONE', #243, 39.37007874015748143 ) ;
#37 = ORIENTED_EDGE ( 'NONE', *, *, #113, .T. ) ;
#38 = FACE_OUTER_BOUND ( 'NONE', #214, .T. ) ;
#39 =( LENGTH_UNIT ( ) NAMED_UNIT ( * ) SI_UNIT ( $, .METRE. ) );
#40 = DIRECTION ( 'NONE',  ( 1.000000000000000000, 0.0000000000000000000, 0.0000000000000000000 ) ) ;
#41 = DIRECTION ( 'NONE',  ( -0.7071067811865434649, 0.0000000000000000000, -0.7071067811865515695 ) ) ;
#42 = MECHANICAL_DESIGN_GEOMETRIC_PRESENTATION_REPRESENTATION (  '', ( #270 ), #20 ) ;
#43 = CARTESIAN_POINT ( 'NONE',  ( 0.1250000000000000000, 1.530808498934191509E-17, 1.984999999999999432 ) ) ;
#44 = CARTESIAN_POINT ( 'NONE',  ( 0.0000000000000000000, 0.0000000000000000000, 2.000000000000000000 ) ) ;
#45 = PRESENTATION_STYLE_ASSIGNMENT (( #250 ) ) ;
#46 = PRODUCT_DEFINITION_FORMATION_WITH_SPECIFIED_SOURCE ( 'ANY', '', #93, .NOT_KNOWN. ) ;
#47 = CARTESIAN_POINT ( 'NONE',  ( -0.06243749999999994443, 1.147723672075910277E-17, 0.5000000000000000000 ) ) ;
#48 = UNCERTAINTY_MEASURE_WITH_UNIT (LENGTH_MEASURE( 1.000000000000000082E-05 ), #111, 'distance_accuracy_value', 'NONE');
#49 = AXIS2_PLACEMENT_3D ( 'NONE', #15, #200, #40 ) ;
#50 = EDGE_CURVE ( 'NONE', #241, #252, #229, .T. ) ;
#51 = DIRECTION ( 'NONE',  ( -0.0000000000000000000, -0.0000000000000000000, -1.000000000000000000 ) ) ;
#52 = ORIENTED_EDGE ( 'NONE', *, *, #170, .T. ) ;
#53 = ORIENTED_EDGE ( 'NONE', *, *, #232, .F. ) ;
#54 = CONICAL_SURFACE ( 'NONE', #131, 0.06243749999999999994, 0.1745329251994338637 ) ;
#55 = CIRCLE ( 'NONE', #72, 0.06243749999999999994 ) ;
#56 = FACE_OUTER_BOUND ( 'NONE', #100, .T. ) ;
#57 = DIRECTION ( 'NONE',  ( 1.000000000000000000, 0.0000000000000000000, 0.0000000000000000000 ) ) ;
#58 = EDGE_CURVE ( 'NONE', #74, #128, #118, .T. ) ;
#59 = PLANE ( 'NONE',  #121 ) ;
#60 = VECTOR ( 'NONE', #41, 39.37007874015748143 ) ;
#61 = ORIENTED_EDGE ( 'NONE', *, *, #272, .F. ) ;
#62 = ORIENTED_EDGE ( 'NONE', *, *, #272, .T. ) ;
#63 = FILL_AREA_STYLE_COLOUR ( '', #176 ) ;
#64 = CARTESIAN_POINT ( 'NONE',  ( 0.0000000000000000000, 0.0000000000000000000, 0.0000000000000000000 ) ) ;
#65 = CARTESIAN_POINT ( 'NONE',  ( -0.1099999999999996397, 0.0000000000000000000, 2.000000000000000000 ) ) ;
#66 = AXIS2_PLACEMENT_3D ( 'NONE', #224, #90, #268 ) ;
#67 = AXIS2_PLACEMENT_3D ( 'NONE', #163, #167, #124 ) ;
#68 = LINE ( 'NONE', #187, #36 ) ;
#69 = CARTESIAN_POINT ( 'NONE',  ( 0.06243750000000006239, 0.0000000000000000000, 0.5000000000000000000 ) ) ;
#70 = EDGE_CURVE ( 'NONE', #238, #126, #55, .T. ) ;
#71 = DIRECTION ( 'NONE',  ( -1.224646799147353207E-16, -0.0000000000000000000, -1.000000000000000000 ) ) ;
#72 = AXIS2_PLACEMENT_3D ( 'NONE', #140, #208, #158 ) ;
#73 = AXIS2_PLACEMENT_3D ( 'NONE', #17, #89, #291 ) ;
#74 = VERTEX_POINT ( 'NONE', #43 ) ;
#75 = ORIENTED_EDGE ( 'NONE', *, *, #35, .F. ) ;
#76 = ORIENTED_EDGE ( 'NONE', *, *, #152, .T. ) ;
#77 = VECTOR ( 'NONE', #215, 39.37007874015748143 ) ;
#78 = ORIENTED_EDGE ( 'NONE', *, *, #242, .F. ) ;
#79 = ORIENTED_EDGE ( 'NONE', *, *, #152, .F. ) ;
#80 = ADVANCED_FACE ( 'NONE', ( #88 ), #266, .F. ) ;
#81 = FACE_OUTER_BOUND ( 'NONE', #258, .T. ) ;
#82 = VERTEX_POINT ( 'NONE', #205 ) ;
#83 = EDGE_LOOP ( 'NONE', ( #196, #192, #255, #75 ) ) ;
#84 =( LENGTH_UNIT ( ) NAMED_UNIT ( * ) SI_UNIT ( $, .METRE. ) );
#85 = CARTESIAN_POINT ( 'NONE',  ( -0.1099999999999996397, 0.0000000000000000000, 2.000000000000000000 ) ) ;
#86 = PRODUCT_CONTEXT ( 'NONE', #245, 'mechanical' ) ;
#87 = CARTESIAN_POINT ( 'NONE',  ( 0.1099999999999996397, 1.347111479062084158E-17, 2.000000000000000000 ) ) ;
#88 = FACE_OUTER_BOUND ( 'NONE', #216, .T. ) ;
#89 = DIRECTION ( 'NONE',  ( -1.224646799147353207E-16, -0.0000000000000000000, -1.000000000000000000 ) ) ;
#90 = DIRECTION ( 'NONE',  ( -1.224646799147353207E-16, -0.0000000000000000000, -1.000000000000000000 ) ) ;
#91 = LINE ( 'NONE', #296, #127 ) ;
#92 = DIRECTION ( 'NONE',  ( 1.000000000000000000, 0.0000000000000000000, 0.0000000000000000000 ) ) ;
#93 = PRODUCT ( 'Micro_SFA-125-44', 'Micro_SFA-125-44', '', ( #86 ) ) ;
#94 = AXIS2_PLACEMENT_3D ( 'NONE', #253, #71, #122 ) ;
#95 = DIRECTION ( 'NONE',  ( 0.0000000000000000000, 0.0000000000000000000, -1.000000000000000000 ) ) ;
#96 = EDGE_CURVE ( 'NONE', #197, #32, #19, .T. ) ;
#97 = DIRECTION ( 'NONE',  ( -1.000000000000000000, 0.0000000000000000000, 0.0000000000000000000 ) ) ;
#98 = EDGE_LOOP ( 'NONE', ( #236, #4, #219, #129 ) ) ;
#99 = PRESENTATION_LAYER_ASSIGNMENT (  '', '', ( #270 ) ) ;
#100 = EDGE_LOOP ( 'NONE', ( #76, #179, #78, #220 ) ) ;
#101 = LENGTH_MEASURE_WITH_UNIT ( LENGTH_MEASURE( 0.02539999999999999897 ), #267 );
#102 = DIRECTION ( 'NONE',  ( -1.000000000000000000, 0.0000000000000000000, 0.0000000000000000000 ) ) ;
#103 = AXIS2_PLACEMENT_3D ( 'NONE', #290, #110, #287 ) ;
#104 = DIRECTION ( 'NONE',  ( 1.000000000000000000, 0.0000000000000000000, 0.0000000000000000000 ) ) ;
#105 = ORIENTED_EDGE ( 'NONE', *, *, #50, .F. ) ;
#106 = LENGTH_MEASURE_WITH_UNIT ( LENGTH_MEASURE( 0.02539999999999999897 ), #84 );
#107 = DIRECTION ( 'NONE',  ( 1.224646799147353207E-16, 0.0000000000000000000, 1.000000000000000000 ) ) ;
#108 =( NAMED_UNIT ( * ) SI_UNIT ( $, .STERADIAN. ) SOLID_ANGLE_UNIT ( ) );
#109 = VECTOR ( 'NONE', #248, 39.37007874015748143 ) ;
#110 = DIRECTION ( 'NONE',  ( -1.224646799147353207E-16, -0.0000000000000000000, -1.000000000000000000 ) ) ;
#111 =( CONVERSION_BASED_UNIT ( 'INCH', #106 ) LENGTH_UNIT ( ) NAMED_UNIT ( #293 ) );
#112 = CARTESIAN_POINT ( 'NONE',  ( 0.0000000000000000000, 0.0000000000000000000, 0.0000000000000000000 ) ) ;
#113 = EDGE_CURVE ( 'NONE', #252, #241, #166, .T. ) ;
#114 = DIRECTION ( 'NONE',  ( -1.000000000000000000, 0.0000000000000000000, 1.224646799147353207E-16 ) ) ;
#115 = FILL_AREA_STYLE ('',( #63 ) ) ;
#116 = CARTESIAN_POINT ( 'NONE',  ( 0.1250000000000000000, 1.530808498934191509E-17, 2.000000000000000000 ) ) ;
#117 = CONICAL_SURFACE ( 'NONE', #251, 0.1099999999999996397, 0.7853981633974426169 ) ;
#118 = LINE ( 'NONE', #116, #109 ) ;
#119 = CARTESIAN_POINT ( 'NONE',  ( 0.0000000000000000000, 0.0000000000000000000, 2.000000000000000000 ) ) ;
#120 = CIRCLE ( 'NONE', #66, 0.1250000000000000000 ) ;
#121 = AXIS2_PLACEMENT_3D ( 'NONE', #155, #143, #189 ) ;
#122 = DIRECTION ( 'NONE',  ( -1.000000000000000000, 0.0000000000000000000, 0.0000000000000000000 ) ) ;
#123 = FACE_OUTER_BOUND ( 'NONE', #154, .T. ) ;
#124 = DIRECTION ( 'NONE',  ( -1.000000000000000000, 0.0000000000000000000, 1.224646799147353207E-16 ) ) ;
#125 = CARTESIAN_POINT ( 'NONE',  ( -0.06243750000000001382, 0.0000000000000000000, 7.646388452176288915E-18 ) ) ;
#126 = VERTEX_POINT ( 'NONE', #69 ) ;
#127 = VECTOR ( 'NONE', #273, 39.37007874015748143 ) ;
#128 = VERTEX_POINT ( 'NONE', #16 ) ;
#129 = ORIENTED_EDGE ( 'NONE', *, *, #113, .F. ) ;
#130 = ORIENTED_EDGE ( 'NONE', *, *, #165, .F. ) ;
#131 = AXIS2_PLACEMENT_3D ( 'NONE', #217, #107, #57 ) ;
#132 = COLOUR_RGB ( '',0.7921568627450980005, 0.8196078431372548767, 0.9333333333333333481 ) ;
#133 = EDGE_LOOP ( 'NONE', ( #156, #61, #173, #234 ) ) ;
#134 = CLOSED_SHELL ( 'NONE', ( #292, #6, #211, #21, #259, #261, #27, #1, #147, #80 ) ) ;
#135 = APPLICATION_PROTOCOL_DEFINITION ( 'draft international standard', 'automotive_design', 1998, #245 ) ;
#136 = ORIENTED_EDGE ( 'NONE', *, *, #70, .T. ) ;
#137 =( NAMED_UNIT ( * ) PLANE_ANGLE_UNIT ( ) SI_UNIT ( $, .RADIAN. ) );
#138 = AXIS2_PLACEMENT_3D ( 'NONE', #119, #230, #178 ) ;
#139 = FACE_OUTER_BOUND ( 'NONE', #98, .T. ) ;
#140 = CARTESIAN_POINT ( 'NONE',  ( 6.123233995736766036E-17, 0.0000000000000000000, 0.5000000000000000000 ) ) ;
#141 = PRODUCT_DEFINITION_SHAPE ( 'NONE', 'NONE',  #265 ) ;
#142 = FILL_AREA_STYLE_COLOUR ( '', #132 ) ;
#143 = DIRECTION ( 'NONE',  ( 0.0000000000000000000, 0.0000000000000000000, 1.000000000000000000 ) ) ;
#144 = LENGTH_MEASURE_WITH_UNIT ( LENGTH_MEASURE( 0.02539999999999999897 ), #39 );
#145 = PRESENTATION_LAYER_ASSIGNMENT (  '', '', ( #264 ) ) ;
#146 = CARTESIAN_POINT ( 'NONE',  ( 0.0000000000000000000, 0.0000000000000000000, 2.000000000000000000 ) ) ;
#147 = ADVANCED_FACE ( 'NONE', ( #139 ), #186, .T. ) ;
#148 =( CONVERSION_BASED_UNIT ( 'INCH', #101 ) LENGTH_UNIT ( ) NAMED_UNIT ( #299 ) );
#149 = EDGE_CURVE ( 'NONE', #126, #252, #68, .T. ) ;
#150 = CIRCLE ( 'NONE', #94, 0.06243749999999999994 ) ;
#151 = CYLINDRICAL_SURFACE ( 'NONE', #246, 0.1250000000000000000 ) ;
#152 = EDGE_CURVE ( 'NONE', #32, #74, #199, .T. ) ;
#153 = DIRECTION ( 'NONE',  ( 1.224646799147353207E-16, 0.0000000000000000000, 1.000000000000000000 ) ) ;
#154 = EDGE_LOOP ( 'NONE', ( #136, #30, #105, #53 ) ) ;
#155 = CARTESIAN_POINT ( 'NONE',  ( 0.0000000000000000000, 0.0000000000000000000, 2.000000000000000000 ) ) ;
#156 = ORIENTED_EDGE ( 'NONE', *, *, #161, .F. ) ;
#157 = SURFACE_STYLE_FILL_AREA ( #115 ) ;
#158 = DIRECTION ( 'NONE',  ( -1.000000000000000000, 0.0000000000000000000, 0.0000000000000000000 ) ) ;
#159 = AXIS2_PLACEMENT_3D ( 'NONE', #227, #95, #92 ) ;
#160 = CARTESIAN_POINT ( 'NONE',  ( 0.1099999999999996397, 1.438959988998137757E-17, 2.000000000000000000 ) ) ;
#161 = EDGE_CURVE ( 'NONE', #33, #74, #288, .T. ) ;
#162 = DIRECTION ( 'NONE',  ( -0.1736481776669311639, 2.126576849575783008E-17, 0.9848077530122080203 ) ) ;
#163 = CARTESIAN_POINT ( 'NONE',  ( 0.0000000000000000000, 0.0000000000000000000, 0.0000000000000000000 ) ) ;
#164 = FILL_AREA_STYLE ('',( #142 ) ) ;
#165 = EDGE_CURVE ( 'NONE', #238, #82, #244, .T. ) ;
#166 = CIRCLE ( 'NONE', #73, 0.06243750000000001382 ) ;
#167 = DIRECTION ( 'NONE',  ( -1.224646799147353207E-16, -0.0000000000000000000, -1.000000000000000000 ) ) ;
#168 = LINE ( 'NONE', #125, #77 ) ;
#169 = FACE_OUTER_BOUND ( 'NONE', #83, .T. ) ;
#170 = EDGE_CURVE ( 'NONE', #33, #197, #289, .T. ) ;
#171 = VECTOR ( 'NONE', #51, 39.37007874015748143 ) ;
#172 = DIMENSIONAL_EXPONENTS ( 1.000000000000000000, 0.0000000000000000000, 0.0000000000000000000, 0.0000000000000000000, 0.0000000000000000000, 0.0000000000000000000, 0.0000000000000000000 ) ;
#173 = ORIENTED_EDGE ( 'NONE', *, *, #96, .T. ) ;
#174 = ADVANCED_BREP_SHAPE_REPRESENTATION ( 'Micro_SFA-125-44', ( #210, #49 ), #181 ) ;
#175 = ORIENTED_EDGE ( 'NONE', *, *, #170, .F. ) ;
#176 = COLOUR_RGB ( '',0.7921568627450980005, 0.8196078431372548767, 0.9333333333333333481 ) ;
#177 = ORIENTED_EDGE ( 'NONE', *, *, #280, .F. ) ;
#178 = DIRECTION ( 'NONE',  ( -1.000000000000000000, 0.0000000000000000000, 0.0000000000000000000 ) ) ;
#179 = ORIENTED_EDGE ( 'NONE', *, *, #58, .T. ) ;
#180 = ORIENTED_EDGE ( 'NONE', *, *, #96, .F. ) ;
#181 =( GEOMETRIC_REPRESENTATION_CONTEXT ( 3 ) GLOBAL_UNCERTAINTY_ASSIGNED_CONTEXT ( ( #221 ) ) GLOBAL_UNIT_ASSIGNED_CONTEXT ( ( #148, #7, #237 ) ) REPRESENTATION_CONTEXT ( 'NONE', 'WORKASPACE' ) );
#182 = FACE_OUTER_BOUND ( 'NONE', #133, .T. ) ;
#183 = DIRECTION ( 'NONE',  ( 1.000000000000000000, 0.0000000000000000000, 0.0000000000000000000 ) ) ;
#184 = DIRECTION ( 'NONE',  ( 0.7071067811865434649, 8.659560562354883554E-17, -0.7071067811865515695 ) ) ;
#185 =( GEOMETRIC_REPRESENTATION_CONTEXT ( 3 ) GLOBAL_UNCERTAINTY_ASSIGNED_CONTEXT ( ( #48 ) ) GLOBAL_UNIT_ASSIGNED_CONTEXT ( ( #111, #137, #108 ) ) REPRESENTATION_CONTEXT ( 'NONE', 'WORKASPACE' ) );
#186 = CYLINDRICAL_SURFACE ( 'NONE', #247, 0.06243750000000001382 ) ;
#187 = CARTESIAN_POINT ( 'NONE',  ( 0.06243750000000001382, 7.646388452176288915E-18, -7.646388452176288915E-18 ) ) ;
#188 = DIRECTION ( 'NONE',  ( 0.0000000000000000000, 0.0000000000000000000, -1.000000000000000000 ) ) ;
#189 = DIRECTION ( 'NONE',  ( 1.000000000000000000, 0.0000000000000000000, -0.0000000000000000000 ) ) ;
#190 = CIRCLE ( 'NONE', #195, 0.1099999999999996397 ) ;
#191 = CARTESIAN_POINT ( 'NONE',  ( 1.046839802360228124E-16, 0.0000000000000000000, 0.8548095688398309466 ) ) ;
#192 = ORIENTED_EDGE ( 'NONE', *, *, #239, .T. ) ;
#193 = CARTESIAN_POINT ( 'NONE',  ( -0.1250000000000000000, 0.0000000000000000000, 1.984999999999999432 ) ) ;
#194 = AXIS2_PLACEMENT_3D ( 'NONE', #260, #5, #102 ) ;
#195 = AXIS2_PLACEMENT_3D ( 'NONE', #146, #233, #212 ) ;
#196 = ORIENTED_EDGE ( 'NONE', *, *, #58, .F. ) ;
#197 = VERTEX_POINT ( 'NONE', #65 ) ;
#198 = ORIENTED_EDGE ( 'NONE', *, *, #280, .T. ) ;
#199 = CIRCLE ( 'NONE', #209, 0.1250000000000000000 ) ;
#200 = DIRECTION ( 'NONE',  ( 0.0000000000000000000, 0.0000000000000000000, 1.000000000000000000 ) ) ;
#201 = DIRECTION ( 'NONE',  ( -1.224646799147353207E-16, -0.0000000000000000000, -1.000000000000000000 ) ) ;
#202 = UNCERTAINTY_MEASURE_WITH_UNIT (LENGTH_MEASURE( 1.000000000000000082E-05 ), #297, 'distance_accuracy_value', 'NONE');
#203 = DIRECTION ( 'NONE',  ( 1.000000000000000000, 0.0000000000000000000, -0.0000000000000000000 ) ) ;
#204 = APPLICATION_PROTOCOL_DEFINITION ( 'draft international standard', 'automotive_design', 1998, #10 ) ;
#205 = CARTESIAN_POINT ( 'NONE',  ( -0.1249999999999999029, 0.0000000000000000000, 0.8548095688398309466 ) ) ;
#206 = PRESENTATION_STYLE_ASSIGNMENT (( #18 ) ) ;
#207 = CARTESIAN_POINT ( 'NONE',  ( -0.06243749999999994443, 7.646388452176287375E-18, 0.5000000000000000000 ) ) ;
#208 = DIRECTION ( 'NONE',  ( -1.224646799147353207E-16, -0.0000000000000000000, -1.000000000000000000 ) ) ;
#209 = AXIS2_PLACEMENT_3D ( 'NONE', #223, #188, #183 ) ;
#210 = MANIFOLD_SOLID_BREP ( 'Cut-Revolve1', #134 ) ;
#211 = ADVANCED_FACE ( 'NONE', ( #213 ), #117, .T. ) ;
#212 = DIRECTION ( 'NONE',  ( 1.000000000000000000, 0.0000000000000000000, 0.0000000000000000000 ) ) ;
#213 = FACE_OUTER_BOUND ( 'NONE', #282, .T. ) ;
#214 = EDGE_LOOP ( 'NONE', ( #9, #278, #285, #177 ) ) ;
#215 = DIRECTION ( 'NONE',  ( -1.224646799147353207E-16, -0.0000000000000000000, -1.000000000000000000 ) ) ;
#216 = EDGE_LOOP ( 'NONE', ( #218, #37 ) ) ;
#217 = CARTESIAN_POINT ( 'NONE',  ( 6.123233995736766036E-17, 0.0000000000000000000, 0.5000000000000000000 ) ) ;
#218 = ORIENTED_EDGE ( 'NONE', *, *, #50, .T. ) ;
#219 = ORIENTED_EDGE ( 'NONE', *, *, #232, .T. ) ;
#220 = ORIENTED_EDGE ( 'NONE', *, *, #231, .F. ) ;
#221 = UNCERTAINTY_MEASURE_WITH_UNIT (LENGTH_MEASURE( 1.000000000000000082E-05 ), #148, 'distance_accuracy_value', 'NONE');
#222 = EDGE_CURVE ( 'NONE', #126, #238, #150, .T. ) ;
#223 = CARTESIAN_POINT ( 'NONE',  ( 0.0000000000000000000, 0.0000000000000000000, 1.984999999999999432 ) ) ;
#224 = CARTESIAN_POINT ( 'NONE',  ( 1.046839802360228124E-16, 0.0000000000000000000, 0.8548095688398309466 ) ) ;
#225 = MECHANICAL_DESIGN_GEOMETRIC_PRESENTATION_REPRESENTATION (  '', ( #264 ), #185 ) ;
#226 = SURFACE_SIDE_STYLE ('',( #13 ) ) ;
#227 = CARTESIAN_POINT ( 'NONE',  ( 0.0000000000000000000, 0.0000000000000000000, 1.984999999999999432 ) ) ;
#228 = CARTESIAN_POINT ( 'NONE',  ( 0.06243750000000001382, 7.646388452176288915E-18, 0.0000000000000000000 ) ) ;
#229 = CIRCLE ( 'NONE', #103, 0.06243750000000001382 ) ;
#230 = DIRECTION ( 'NONE',  ( -0.0000000000000000000, -0.0000000000000000000, -1.000000000000000000 ) ) ;
#231 = EDGE_CURVE ( 'NONE', #32, #82, #29, .T. ) ;
#232 = EDGE_CURVE ( 'NONE', #238, #241, #168, .T. ) ;
#233 = DIRECTION ( 'NONE',  ( 0.0000000000000000000, 0.0000000000000000000, 1.000000000000000000 ) ) ;
#234 = ORIENTED_EDGE ( 'NONE', *, *, #239, .F. ) ;
#235 = DIRECTION ( 'NONE',  ( -0.0000000000000000000, -0.0000000000000000000, -1.000000000000000000 ) ) ;
#236 = ORIENTED_EDGE ( 'NONE', *, *, #149, .F. ) ;
#237 =( NAMED_UNIT ( * ) SI_UNIT ( $, .STERADIAN. ) SOLID_ANGLE_UNIT ( ) );
#238 = VERTEX_POINT ( 'NONE', #47 ) ;
#239 = EDGE_CURVE ( 'NONE', #74, #32, #24, .T. ) ;
#240 = VECTOR ( 'NONE', #162, 39.37007874015747433 ) ;
#241 = VERTEX_POINT ( 'NONE', #2 ) ;
#242 = EDGE_CURVE ( 'NONE', #82, #128, #14, .T. ) ;
#243 = DIRECTION ( 'NONE',  ( -1.224646799147353207E-16, -0.0000000000000000000, -1.000000000000000000 ) ) ;
#244 = LINE ( 'NONE', #207, #240 ) ;
#245 = APPLICATION_CONTEXT ( 'automotive_design' ) ;
#246 = AXIS2_PLACEMENT_3D ( 'NONE', #34, #235, #11 ) ;
#247 = AXIS2_PLACEMENT_3D ( 'NONE', #64, #201, #114 ) ;
#248 = DIRECTION ( 'NONE',  ( -0.0000000000000000000, -0.0000000000000000000, -1.000000000000000000 ) ) ;
#249 = CARTESIAN_POINT ( 'NONE',  ( 0.0000000000000000000, 0.0000000000000000000, 2.000000000000000000 ) ) ;
#250 = SURFACE_STYLE_USAGE ( .BOTH. , #226 ) ;
#251 = AXIS2_PLACEMENT_3D ( 'NONE', #249, #26, #97 ) ;
#252 = VERTEX_POINT ( 'NONE', #228 ) ;
#253 = CARTESIAN_POINT ( 'NONE',  ( 6.123233995736766036E-17, 0.0000000000000000000, 0.5000000000000000000 ) ) ;
#254 = AXIS2_PLACEMENT_3D ( 'NONE', #283, #153, #104 ) ;
#255 = ORIENTED_EDGE ( 'NONE', *, *, #231, .T. ) ;
#256 = AXIS2_PLACEMENT_3D ( 'NONE', #112, #286, #203 ) ;
#257 = ORIENTED_EDGE ( 'NONE', *, *, #161, .T. ) ;
#258 = EDGE_LOOP ( 'NONE', ( #62, #52 ) ) ;
#259 = ADVANCED_FACE ( 'NONE', ( #169 ), #22, .T. ) ;
#260 = CARTESIAN_POINT ( 'NONE',  ( 0.0000000000000000000, 0.0000000000000000000, 2.000000000000000000 ) ) ;
#261 = ADVANCED_FACE ( 'NONE', ( #81 ), #59, .T. ) ;
#262 = DIRECTION ( 'NONE',  ( 1.000000000000000000, 0.0000000000000000000, 0.0000000000000000000 ) ) ;
#263 = DIRECTION ( 'NONE',  ( 0.0000000000000000000, 0.0000000000000000000, 1.000000000000000000 ) ) ;
#264 = STYLED_ITEM ( 'NONE', ( #206 ), #174 ) ;
#265 = PRODUCT_DEFINITION ( 'UNKNOWN', '', #46, #298 ) ;
#266 = PLANE ( 'NONE',  #256 ) ;
#267 =( LENGTH_UNIT ( ) NAMED_UNIT ( * ) SI_UNIT ( $, .METRE. ) );
#268 = DIRECTION ( 'NONE',  ( 1.000000000000000000, 0.0000000000000000000, 0.0000000000000000000 ) ) ;
#269 = CONICAL_SURFACE ( 'NONE', #254, 0.06243749999999999994, 0.1745329251994338637 ) ;
#270 = STYLED_ITEM ( 'NONE', ( #45 ), #210 ) ;
#271 = DIRECTION ( 'NONE',  ( -1.224646799147353207E-16, -0.0000000000000000000, -1.000000000000000000 ) ) ;
#272 = EDGE_CURVE ( 'NONE', #197, #33, #190, .T. ) ;
#273 = DIRECTION ( 'NONE',  ( 0.1736481776669313581, 0.0000000000000000000, 0.9848077530122077983 ) ) ;
#274 = DIRECTION ( 'NONE',  ( 1.000000000000000000, 0.0000000000000000000, 0.0000000000000000000 ) ) ;
#275 = CARTESIAN_POINT ( 'NONE',  ( -0.1250000000000000000, 0.0000000000000000000, 2.000000000000000000 ) ) ;
#276 =( NAMED_UNIT ( * ) SI_UNIT ( $, .STERADIAN. ) SOLID_ANGLE_UNIT ( ) );
#277 = AXIS2_PLACEMENT_3D ( 'NONE', #191, #271, #274 ) ;
#278 = ORIENTED_EDGE ( 'NONE', *, *, #165, .T. ) ;
#279 = VECTOR ( 'NONE', #184, 39.37007874015748143 ) ;
#280 = EDGE_CURVE ( 'NONE', #126, #128, #91, .T. ) ;
#281 = ORIENTED_EDGE ( 'NONE', *, *, #222, .F. ) ;
#282 = EDGE_LOOP ( 'NONE', ( #175, #257, #79, #180 ) ) ;
#283 = CARTESIAN_POINT ( 'NONE',  ( 6.123233995736766036E-17, 0.0000000000000000000, 0.5000000000000000000 ) ) ;
#284 = SHAPE_DEFINITION_REPRESENTATION ( #141, #174 ) ;
#285 = ORIENTED_EDGE ( 'NONE', *, *, #242, .T. ) ;
#286 = DIRECTION ( 'NONE',  ( 0.0000000000000000000, 0.0000000000000000000, 1.000000000000000000 ) ) ;
#287 = DIRECTION ( 'NONE',  ( -1.000000000000000000, 0.0000000000000000000, 1.224646799147353207E-16 ) ) ;
#288 = LINE ( 'NONE', #87, #279 ) ;
#289 = CIRCLE ( 'NONE', #31, 0.1099999999999996397 ) ;
#290 = CARTESIAN_POINT ( 'NONE',  ( 9.364125142994975765E-34, 0.0000000000000000000, 7.646388452176288915E-18 ) ) ;
#291 = DIRECTION ( 'NONE',  ( -1.000000000000000000, 0.0000000000000000000, 1.224646799147353207E-16 ) ) ;
#292 = ADVANCED_FACE ( 'NONE', ( #123 ), #295, .T. ) ;
#293 = DIMENSIONAL_EXPONENTS ( 1.000000000000000000, 0.0000000000000000000, 0.0000000000000000000, 0.0000000000000000000, 0.0000000000000000000, 0.0000000000000000000, 0.0000000000000000000 ) ;
#294 =( NAMED_UNIT ( * ) PLANE_ANGLE_UNIT ( ) SI_UNIT ( $, .RADIAN. ) );
#295 = CYLINDRICAL_SURFACE ( 'NONE', #67, 0.06243750000000001382 ) ;
#296 = CARTESIAN_POINT ( 'NONE',  ( 0.06243750000000006239, 0.0000000000000000000, 0.5000000000000000000 ) ) ;
#297 =( CONVERSION_BASED_UNIT ( 'INCH', #144 ) LENGTH_UNIT ( ) NAMED_UNIT ( #172 ) );
#298 = PRODUCT_DEFINITION_CONTEXT ( 'detailed design', #10, 'design' ) ;
#299 = DIMENSIONAL_EXPONENTS ( 1.000000000000000000, 0.0000000000000000000, 0.0000000000000000000, 0.0000000000000000000, 0.0000000000000000000, 0.0000000000000000000, 0.0000000000000000000 ) ;
ENDSEC;
END-ISO-10303-21;
