ISO-10303-21;
HEADER;
FILE_DESCRIPTION (( 'STEP AP214' ),
    '1' );
FILE_NAME ('44062.STEP',
    '2023-06-22T19:16:29',
    ( '' ),
    ( '' ),
    'SwSTEP 2.0',
    'SolidWorks 2023',
    '' );
FILE_SCHEMA (( 'AUTOMOTIVE_DESIGN' ));
ENDSEC;

DATA;
#1 = ORIENTED_EDGE ( 'NONE', *, *, #57, .F. ) ;
#2 = LENGTH_MEASURE_WITH_UNIT ( LENGTH_MEASURE( 0.02539999999999999897 ), #111 );
#3 =( GEOMETRIC_REPRESENTATION_CONTEXT ( 3 ) GLOBAL_UNCERTAINTY_ASSIGNED_CONTEXT ( ( #269 ) ) GLOBAL_UNIT_ASSIGNED_CONTEXT ( ( #19, #113, #205 ) ) REPRESENTATION_CONTEXT ( 'NONE', 'WORKASPACE' ) );
#4 = COLOUR_RGB ( '',1.000000000000000000, 0.000000000000000000, 0.000000000000000000 ) ;
#5 =( LENGTH_UNIT ( ) NAMED_UNIT ( * ) SI_UNIT ( $, .METRE. ) );
#6 = ORIENTED_EDGE ( 'NONE', *, *, #241, .F. ) ;
#7 = ORIENTED_EDGE ( 'NONE', *, *, #12, .F. ) ;
#8 = UNCERTAINTY_MEASURE_WITH_UNIT (LENGTH_MEASURE( 1.000000000000000082E-05 ), #297, 'distance_accuracy_value', 'NONE');
#9 = SURFACE_STYLE_FILL_AREA ( #131 ) ;
#10 =( GEOMETRIC_REPRESENTATION_CONTEXT ( 3 ) GLOBAL_UNCERTAINTY_ASSIGNED_CONTEXT ( ( #293 ) ) GLOBAL_UNIT_ASSIGNED_CONTEXT ( ( #114, #278, #104 ) ) REPRESENTATION_CONTEXT ( 'NONE', 'WORKASPACE' ) );
#11 = FACE_OUTER_BOUND ( 'NONE', #98, .T. ) ;
#12 = EDGE_CURVE ( 'NONE', #151, #265, #100, .T. ) ;
#13 = CARTESIAN_POINT ( 'NONE',  ( -0.09374999999999998612, 0.3125000000000000000, 0.000000000000000000 ) ) ;
#14 = DIRECTION ( 'NONE',  ( 3.628583108584750472E-17, 1.000000000000000000, -0.000000000000000000 ) ) ;
#15 = CARTESIAN_POINT ( 'NONE',  ( 0.000000000000000000, 0.000000000000000000, 0.000000000000000000 ) ) ;
#16 = DIMENSIONAL_EXPONENTS ( 1.000000000000000000, 0.000000000000000000, 0.000000000000000000, 0.000000000000000000, 0.000000000000000000, 0.000000000000000000, 0.000000000000000000 ) ;
#17 = SHAPE_DEFINITION_REPRESENTATION ( #139, #174 ) ;
#18 = LINE ( 'NONE', #81, #105 ) ;
#19 =( CONVERSION_BASED_UNIT ( 'INCH', #23 ) LENGTH_UNIT ( ) NAMED_UNIT ( #16 ) );
#20 = DIMENSIONAL_EXPONENTS ( 1.000000000000000000, 0.000000000000000000, 0.000000000000000000, 0.000000000000000000, 0.000000000000000000, 0.000000000000000000, 0.000000000000000000 ) ;
#21 = MECHANICAL_DESIGN_GEOMETRIC_PRESENTATION_REPRESENTATION (  '', ( #289 ), #237 ) ;
#22 = COLOUR_RGB ( '',0.7921568627450980005, 0.8196078431372548767, 0.9333333333333333481 ) ;
#23 = LENGTH_MEASURE_WITH_UNIT ( LENGTH_MEASURE( 0.02539999999999999897 ), #161 );
#24 = DIMENSIONAL_EXPONENTS ( 1.000000000000000000, 0.000000000000000000, 0.000000000000000000, 0.000000000000000000, 0.000000000000000000, 0.000000000000000000, 0.000000000000000000 ) ;
#25 = EDGE_CURVE ( 'NONE', #151, #120, #75, .T. ) ;
#26 = ADVANCED_FACE ( 'NONE', ( #33 ), #60, .T. ) ;
#27 = ORIENTED_EDGE ( 'NONE', *, *, #160, .F. ) ;
#28 =( GEOMETRIC_REPRESENTATION_CONTEXT ( 3 ) GLOBAL_UNCERTAINTY_ASSIGNED_CONTEXT ( ( #102 ) ) GLOBAL_UNIT_ASSIGNED_CONTEXT ( ( #90, #107, #163 ) ) REPRESENTATION_CONTEXT ( 'NONE', 'WORKASPACE' ) );
#29 = CARTESIAN_POINT ( 'NONE',  ( 0.000000000000000000, 0.000000000000000000, 0.000000000000000000 ) ) ;
#30 =( LENGTH_UNIT ( ) NAMED_UNIT ( * ) SI_UNIT ( $, .METRE. ) );
#31 = DIRECTION ( 'NONE',  ( -0.000000000000000000, -1.000000000000000000, -0.000000000000000000 ) ) ;
#32 = AXIS2_PLACEMENT_3D ( 'NONE', #231, #224, #40 ) ;
#33 = FACE_OUTER_BOUND ( 'NONE', #282, .T. ) ;
#34 = DIRECTION ( 'NONE',  ( -0.000000000000000000, -1.000000000000000000, -0.000000000000000000 ) ) ;
#35 = AXIS2_PLACEMENT_3D ( 'NONE', #227, #14, #201 ) ;
#36 = DIRECTION ( 'NONE',  ( -0.000000000000000000, -1.000000000000000000, -0.000000000000000000 ) ) ;
#37 = PRESENTATION_STYLE_ASSIGNMENT (( #166 ) ) ;
#38 = DIRECTION ( 'NONE',  ( 3.628583108584750472E-17, 1.000000000000000000, -0.000000000000000000 ) ) ;
#39 = DIRECTION ( 'NONE',  ( -1.000000000000000000, 0.000000000000000000, 0.000000000000000000 ) ) ;
#40 = DIRECTION ( 'NONE',  ( 0.000000000000000000, 0.000000000000000000, -1.000000000000000000 ) ) ;
#41 = MECHANICAL_DESIGN_GEOMETRIC_PRESENTATION_REPRESENTATION (  '', ( #210 ), #295 ) ;
#42 = MECHANICAL_DESIGN_GEOMETRIC_PRESENTATION_REPRESENTATION (  '', ( #76 ), #243 ) ;
#43 = DIRECTION ( 'NONE',  ( 1.000000000000000000, 0.000000000000000000, 0.000000000000000000 ) ) ;
#44 = PLANE ( 'NONE',  #32 ) ;
#45 = ADVANCED_FACE ( 'NONE', ( #204 ), #142, .T. ) ;
#46 = DIMENSIONAL_EXPONENTS ( 1.000000000000000000, 0.000000000000000000, 0.000000000000000000, 0.000000000000000000, 0.000000000000000000, 0.000000000000000000, 0.000000000000000000 ) ;
#47 = PRESENTATION_LAYER_ASSIGNMENT (  '', '', ( #76 ) ) ;
#48 = PRESENTATION_LAYER_ASSIGNMENT (  '', '', ( #262 ) ) ;
#49 = FILL_AREA_STYLE_COLOUR ( '', #22 ) ;
#50 = PRODUCT ( '44062', '44062', '', ( #140 ) ) ;
#51 = CYLINDRICAL_SURFACE ( 'NONE', #222, 0.09374999999999998612 ) ;
#52 = AXIS2_PLACEMENT_3D ( 'NONE', #29, #191, #121 ) ;
#53 =( NAMED_UNIT ( * ) SI_UNIT ( $, .STERADIAN. ) SOLID_ANGLE_UNIT ( ) );
#54 = FILL_AREA_STYLE_COLOUR ( '', #144 ) ;
#55 = CARTESIAN_POINT ( 'NONE',  ( 0.000000000000000000, 0.3125000000000000000, 0.000000000000000000 ) ) ;
#56 = ORIENTED_EDGE ( 'NONE', *, *, #136, .F. ) ;
#57 = EDGE_CURVE ( 'NONE', #284, #73, #192, .T. ) ;
#58 = SURFACE_STYLE_USAGE ( .BOTH. , #106 ) ;
#59 = AXIS2_PLACEMENT_3D ( 'NONE', #157, #38, #134 ) ;
#60 = PLANE ( 'NONE',  #309 ) ;
#61 = ADVANCED_FACE ( 'NONE', ( #63 ), #252, .T. ) ;
#62 = CIRCLE ( 'NONE', #259, 0.09374999999999998612 ) ;
#63 = FACE_OUTER_BOUND ( 'NONE', #108, .T. ) ;
#64 = FACE_OUTER_BOUND ( 'NONE', #296, .T. ) ;
#65 = CARTESIAN_POINT ( 'NONE',  ( 0.000000000000000000, 0.000000000000000000, 0.000000000000000000 ) ) ;
#66 =( NAMED_UNIT ( * ) SI_UNIT ( $, .STERADIAN. ) SOLID_ANGLE_UNIT ( ) );
#67 = PRODUCT_RELATED_PRODUCT_CATEGORY ( 'part', '', ( #50 ) ) ;
#68 = DIRECTION ( 'NONE',  ( -1.000000000000000000, 0.000000000000000000, 0.000000000000000000 ) ) ;
#69 = DIRECTION ( 'NONE',  ( 3.628583108584750472E-17, 1.000000000000000000, -0.000000000000000000 ) ) ;
#70 = LINE ( 'NONE', #94, #172 ) ;
#71 = CARTESIAN_POINT ( 'NONE',  ( 0.000000000000000000, 0.000000000000000000, 0.000000000000000000 ) ) ;
#72 = AXIS2_PLACEMENT_3D ( 'NONE', #236, #69, #177 ) ;
#73 = VERTEX_POINT ( 'NONE', #150 ) ;
#74 = DIRECTION ( 'NONE',  ( -0.000000000000000000, -1.000000000000000000, -0.000000000000000000 ) ) ;
#75 = CIRCLE ( 'NONE', #274, 0.09374999999999998612 ) ;
#76 = STYLED_ITEM ( 'NONE', ( #240 ), #97 ) ;
#77 = EDGE_LOOP ( 'NONE', ( #143, #27 ) ) ;
#78 = ORIENTED_EDGE ( 'NONE', *, *, #89, .F. ) ;
#79 = CARTESIAN_POINT ( 'NONE',  ( -0.09374999999999988898, 2.000000000000000000, 0.000000000000000000 ) ) ;
#80 = FILL_AREA_STYLE_COLOUR ( '', #211 ) ;
#81 = CARTESIAN_POINT ( 'NONE',  ( 1.148106374200643401E-17, 0.000000000000000000, 0.09374999999999998612 ) ) ;
#82 = UNCERTAINTY_MEASURE_WITH_UNIT (LENGTH_MEASURE( 1.000000000000000082E-05 ), #154, 'distance_accuracy_value', 'NONE');
#83 =( LENGTH_UNIT ( ) NAMED_UNIT ( * ) SI_UNIT ( $, .METRE. ) );
#84 = CLOSED_SHELL ( 'NONE', ( #61, #167, #45, #188 ) ) ;
#85 = DIRECTION ( 'NONE',  ( 0.000000000000000000, 0.000000000000000000, -1.000000000000000000 ) ) ;
#86 = STYLED_ITEM ( 'NONE', ( #272 ), #176 ) ;
#87 = CARTESIAN_POINT ( 'NONE',  ( 0.09374999999999998612, 0.3125000000000000000, 1.148106374200643247E-17 ) ) ;
#88 = DIRECTION ( 'NONE',  ( -0.000000000000000000, -1.000000000000000000, -0.000000000000000000 ) ) ;
#89 = EDGE_CURVE ( 'NONE', #146, #218, #62, .T. ) ;
#90 =( CONVERSION_BASED_UNIT ( 'INCH', #298 ) LENGTH_UNIT ( ) NAMED_UNIT ( #20 ) );
#91 = CARTESIAN_POINT ( 'NONE',  ( 0.09374999999999998612, 2.000000000000000000, 1.148106374200643247E-17 ) ) ;
#92 = DIRECTION ( 'NONE',  ( 0.000000000000000000, -0.000000000000000000, 1.000000000000000000 ) ) ;
#93 = CIRCLE ( 'NONE', #261, 0.09374999999999991673 ) ;
#94 = CARTESIAN_POINT ( 'NONE',  ( 0.09375000000000002776, 2.000000000000000000, 1.148106374200643092E-17 ) ) ;
#95 = PRESENTATION_LAYER_ASSIGNMENT (  '', '', ( #86 ) ) ;
#96 = EDGE_LOOP ( 'NONE', ( #234, #212, #286, #1 ) ) ;
#97 = MANIFOLD_SOLID_BREP ( 'Revolve - Tool Body (Straight Shanked)', #84 ) ;
#98 = EDGE_LOOP ( 'NONE', ( #193, #127, #56, #6 ) ) ;
#99 = ADVANCED_FACE ( 'NONE', ( #162 ), #44, .T. ) ;
#100 = LINE ( 'NONE', #79, #122 ) ;
#101 = DIRECTION ( 'NONE',  ( 3.628583108584750472E-17, 1.000000000000000000, -0.000000000000000000 ) ) ;
#102 = UNCERTAINTY_MEASURE_WITH_UNIT (LENGTH_MEASURE( 1.000000000000000082E-05 ), #90, 'distance_accuracy_value', 'NONE');
#103 = VERTEX_POINT ( 'NONE', #91 ) ;
#104 =( NAMED_UNIT ( * ) SI_UNIT ( $, .STERADIAN. ) SOLID_ANGLE_UNIT ( ) );
#105 = VECTOR ( 'NONE', #281, 39.37007874015748143 ) ;
#106 = SURFACE_SIDE_STYLE ('',( #9 ) ) ;
#107 =( NAMED_UNIT ( * ) PLANE_ANGLE_UNIT ( ) SI_UNIT ( $, .RADIAN. ) );
#108 = EDGE_LOOP ( 'NONE', ( #171, #242, #129, #7 ) ) ;
#109 = FILL_AREA_STYLE_COLOUR ( '', #229 ) ;
#110 = DIRECTION ( 'NONE',  ( 0.000000000000000000, 1.000000000000000000, 0.000000000000000000 ) ) ;
#111 =( LENGTH_UNIT ( ) NAMED_UNIT ( * ) SI_UNIT ( $, .METRE. ) );
#112 = EDGE_CURVE ( 'NONE', #218, #284, #18, .T. ) ;
#113 =( NAMED_UNIT ( * ) PLANE_ANGLE_UNIT ( ) SI_UNIT ( $, .RADIAN. ) );
#114 =( CONVERSION_BASED_UNIT ( 'INCH', #137 ) LENGTH_UNIT ( ) NAMED_UNIT ( #46 ) );
#115 = AXIS2_PLACEMENT_3D ( 'NONE', #206, #184, #43 ) ;
#116 = CYLINDRICAL_SURFACE ( 'NONE', #52, 0.09374999999999998612 ) ;
#117 = SURFACE_STYLE_USAGE ( .BOTH. , #203 ) ;
#118 = CLOSED_SHELL ( 'NONE', ( #176, #26, #216, #99 ) ) ;
#119 = PRESENTATION_LAYER_ASSIGNMENT (  '', '', ( #210 ) ) ;
#120 = VERTEX_POINT ( 'NONE', #87 ) ;
#121 = DIRECTION ( 'NONE',  ( 0.000000000000000000, 0.000000000000000000, -1.000000000000000000 ) ) ;
#122 = VECTOR ( 'NONE', #101, 39.37007874015748143 ) ;
#123 =( CONVERSION_BASED_UNIT ( 'INCH', #2 ) LENGTH_UNIT ( ) NAMED_UNIT ( #256 ) );
#124 =( LENGTH_UNIT ( ) NAMED_UNIT ( * ) SI_UNIT ( $, .METRE. ) );
#125 = ORIENTED_EDGE ( 'NONE', *, *, #209, .F. ) ;
#126 = LENGTH_MEASURE_WITH_UNIT ( LENGTH_MEASURE( 0.02539999999999999897 ), #30 );
#127 = ORIENTED_EDGE ( 'NONE', *, *, #112, .T. ) ;
#128 = CIRCLE ( 'NONE', #164, 0.09374999999999998612 ) ;
#129 = ORIENTED_EDGE ( 'NONE', *, *, #276, .F. ) ;
#130 = UNCERTAINTY_MEASURE_WITH_UNIT (LENGTH_MEASURE( 1.000000000000000082E-05 ), #123, 'distance_accuracy_value', 'NONE');
#131 = FILL_AREA_STYLE ('',( #54 ) ) ;
#132 = EDGE_LOOP ( 'NONE', ( #260, #266 ) ) ;
#133 = CIRCLE ( 'NONE', #35, 0.09374999999999991673 ) ;
#134 = DIRECTION ( 'NONE',  ( -1.000000000000000000, 3.628583108584750472E-17, 0.000000000000000000 ) ) ;
#135 = DIRECTION ( 'NONE',  ( 3.628583108584750472E-17, 1.000000000000000000, -0.000000000000000000 ) ) ;
#136 = EDGE_CURVE ( 'NONE', #73, #284, #190, .T. ) ;
#137 = LENGTH_MEASURE_WITH_UNIT ( LENGTH_MEASURE( 0.02539999999999999897 ), #83 );
#138 = CARTESIAN_POINT ( 'NONE',  ( 6.123233995736766036E-17, 2.000000000000000000, 0.000000000000000000 ) ) ;
#139 = PRODUCT_DEFINITION_SHAPE ( 'NONE', 'NONE',  #232 ) ;
#140 = PRODUCT_CONTEXT ( 'NONE', #180, 'mechanical' ) ;
#141 =( NAMED_UNIT ( * ) SI_UNIT ( $, .STERADIAN. ) SOLID_ANGLE_UNIT ( ) );
#142 = CYLINDRICAL_SURFACE ( 'NONE', #202, 0.09374999999999995837 ) ;
#143 = ORIENTED_EDGE ( 'NONE', *, *, #25, .F. ) ;
#144 = COLOUR_RGB ( '',0.7921568627450980005, 0.8196078431372548767, 0.9333333333333333481 ) ;
#145 = ORIENTED_EDGE ( 'NONE', *, *, #12, .T. ) ;
#146 = VERTEX_POINT ( 'NONE', #185 ) ;
#147 = ORIENTED_EDGE ( 'NONE', *, *, #254, .T. ) ;
#148 = ORIENTED_EDGE ( 'NONE', *, *, #254, .F. ) ;
#149 = APPLICATION_CONTEXT ( 'automotive_design' ) ;
#150 = CARTESIAN_POINT ( 'NONE',  ( 0.000000000000000000, 0.000000000000000000, -0.09375000000000001388 ) ) ;
#151 = VERTEX_POINT ( 'NONE', #13 ) ;
#152 = FILL_AREA_STYLE ('',( #80 ) ) ;
#153 = PRODUCT_DEFINITION_CONTEXT ( 'detailed design', #149, 'design' ) ;
#154 =( CONVERSION_BASED_UNIT ( 'INCH', #264 ) LENGTH_UNIT ( ) NAMED_UNIT ( #302 ) );
#155 = PRESENTATION_LAYER_ASSIGNMENT (  '', '', ( #289 ) ) ;
#156 = CIRCLE ( 'NONE', #175, 0.09374999999999998612 ) ;
#157 = CARTESIAN_POINT ( 'NONE',  ( 6.171850957456204517E-35, 0.3125000000000000000, 0.000000000000000000 ) ) ;
#158 = DIRECTION ( 'NONE',  ( 3.628583108584750472E-17, 1.000000000000000000, -0.000000000000000000 ) ) ;
#159 = CARTESIAN_POINT ( 'NONE',  ( -0.09374999999999984734, 2.000000000000000000, 0.000000000000000000 ) ) ;
#160 = EDGE_CURVE ( 'NONE', #120, #151, #128, .T. ) ;
#161 =( LENGTH_UNIT ( ) NAMED_UNIT ( * ) SI_UNIT ( $, .METRE. ) );
#162 = FACE_OUTER_BOUND ( 'NONE', #132, .T. ) ;
#163 =( NAMED_UNIT ( * ) SI_UNIT ( $, .STERADIAN. ) SOLID_ANGLE_UNIT ( ) );
#164 = AXIS2_PLACEMENT_3D ( 'NONE', #182, #308, #68 ) ;
#165 = FACE_OUTER_BOUND ( 'NONE', #77, .T. ) ;
#166 = SURFACE_STYLE_USAGE ( .BOTH. , #251 ) ;
#167 = ADVANCED_FACE ( 'NONE', ( #165 ), #228, .F. ) ;
#168 = FACE_OUTER_BOUND ( 'NONE', #96, .T. ) ;
#169 = DIRECTION ( 'NONE',  ( 0.000000000000000000, 0.000000000000000000, -1.000000000000000000 ) ) ;
#170 = PLANE ( 'NONE',  #290 ) ;
#171 = ORIENTED_EDGE ( 'NONE', *, *, #25, .T. ) ;
#172 = VECTOR ( 'NONE', #189, 39.37007874015748143 ) ;
#173 = ORIENTED_EDGE ( 'NONE', *, *, #160, .T. ) ;
#174 = ADVANCED_BREP_SHAPE_REPRESENTATION ( '44062', ( #307, #97, #115 ), #3 ) ;
#175 = AXIS2_PLACEMENT_3D ( 'NONE', #55, #31, #288 ) ;
#176 = ADVANCED_FACE ( 'NONE', ( #11 ), #116, .T. ) ;
#177 = DIRECTION ( 'NONE',  ( -1.000000000000000000, 0.000000000000000000, 0.000000000000000000 ) ) ;
#178 = SURFACE_SIDE_STYLE ('',( #198 ) ) ;
#179 = SURFACE_SIDE_STYLE ('',( #247 ) ) ;
#180 = APPLICATION_CONTEXT ( 'automotive_design' ) ;
#181 = SURFACE_STYLE_USAGE ( .BOTH. , #255 ) ;
#182 = CARTESIAN_POINT ( 'NONE',  ( 0.000000000000000000, 0.3125000000000000000, 0.000000000000000000 ) ) ;
#183 = SURFACE_STYLE_FILL_AREA ( #305 ) ;
#184 = DIRECTION ( 'NONE',  ( 0.000000000000000000, 0.000000000000000000, 1.000000000000000000 ) ) ;
#185 = CARTESIAN_POINT ( 'NONE',  ( 0.000000000000000000, 0.3125000000000000000, -0.09374999999999998612 ) ) ;
#186 = AXIS2_PLACEMENT_3D ( 'NONE', #15, #88, #85 ) ;
#187 = LINE ( 'NONE', #233, #280 ) ;
#188 = ADVANCED_FACE ( 'NONE', ( #64 ), #170, .F. ) ;
#189 = DIRECTION ( 'NONE',  ( 3.628583108584750472E-17, 1.000000000000000000, -0.000000000000000000 ) ) ;
#190 = CIRCLE ( 'NONE', #197, 0.09375000000000001388 ) ;
#191 = DIRECTION ( 'NONE',  ( -0.000000000000000000, -1.000000000000000000, -0.000000000000000000 ) ) ;
#192 = CIRCLE ( 'NONE', #186, 0.09375000000000001388 ) ;
#193 = ORIENTED_EDGE ( 'NONE', *, *, #89, .T. ) ;
#194 = FILL_AREA_STYLE_COLOUR ( '', #4 ) ;
#195 = FILL_AREA_STYLE ('',( #246 ) ) ;
#196 = CARTESIAN_POINT ( 'NONE',  ( 0.000000000000000000, 0.3125000000000000000, 0.000000000000000000 ) ) ;
#197 = AXIS2_PLACEMENT_3D ( 'NONE', #65, #226, #279 ) ;
#198 = SURFACE_STYLE_FILL_AREA ( #195 ) ;
#199 = SURFACE_STYLE_FILL_AREA ( #299 ) ;
#200 = PRESENTATION_STYLE_ASSIGNMENT (( #215 ) ) ;
#201 = DIRECTION ( 'NONE',  ( -1.000000000000000000, 0.000000000000000000, 0.000000000000000000 ) ) ;
#202 = AXIS2_PLACEMENT_3D ( 'NONE', #273, #158, #39 ) ;
#203 = SURFACE_SIDE_STYLE ('',( #183 ) ) ;
#204 = FACE_OUTER_BOUND ( 'NONE', #238, .T. ) ;
#205 =( NAMED_UNIT ( * ) SI_UNIT ( $, .STERADIAN. ) SOLID_ANGLE_UNIT ( ) );
#206 = CARTESIAN_POINT ( 'NONE',  ( 0.000000000000000000, 0.000000000000000000, 0.000000000000000000 ) ) ;
#207 = STYLED_ITEM ( 'NONE', ( #250 ), #99 ) ;
#208 = SURFACE_STYLE_FILL_AREA ( #221 ) ;
#209 = EDGE_CURVE ( 'NONE', #218, #146, #156, .T. ) ;
#210 = STYLED_ITEM ( 'NONE', ( #249 ), #216 ) ;
#211 = COLOUR_RGB ( '',1.000000000000000000, 0.000000000000000000, 0.000000000000000000 ) ;
#212 = ORIENTED_EDGE ( 'NONE', *, *, #209, .T. ) ;
#213 = CARTESIAN_POINT ( 'NONE',  ( 0.000000000000000000, 0.3125000000000000000, 0.000000000000000000 ) ) ;
#214 =( CONVERSION_BASED_UNIT ( 'INCH', #126 ) LENGTH_UNIT ( ) NAMED_UNIT ( #24 ) );
#215 = SURFACE_STYLE_USAGE ( .BOTH. , #178 ) ;
#216 = ADVANCED_FACE ( 'NONE', ( #168 ), #51, .T. ) ;
#217 =( NAMED_UNIT ( * ) PLANE_ANGLE_UNIT ( ) SI_UNIT ( $, .RADIAN. ) );
#218 = VERTEX_POINT ( 'NONE', #287 ) ;
#219 = DIRECTION ( 'NONE',  ( 1.000000000000000000, -3.628583108584750472E-17, 0.000000000000000000 ) ) ;
#220 = ORIENTED_EDGE ( 'NONE', *, *, #285, .F. ) ;
#221 = FILL_AREA_STYLE ('',( #49 ) ) ;
#222 = AXIS2_PLACEMENT_3D ( 'NONE', #71, #74, #169 ) ;
#223 = LENGTH_MEASURE_WITH_UNIT ( LENGTH_MEASURE( 0.02539999999999999897 ), #124 );
#224 = DIRECTION ( 'NONE',  ( 0.000000000000000000, -1.000000000000000000, -0.000000000000000000 ) ) ;
#225 = DIRECTION ( 'NONE',  ( -1.000000000000000000, 0.000000000000000000, 0.000000000000000000 ) ) ;
#226 = DIRECTION ( 'NONE',  ( -0.000000000000000000, -1.000000000000000000, -0.000000000000000000 ) ) ;
#227 = CARTESIAN_POINT ( 'NONE',  ( 6.123233995736766036E-17, 2.000000000000000000, 0.000000000000000000 ) ) ;
#228 = PLANE ( 'NONE',  #59 ) ;
#229 = COLOUR_RGB ( '',1.000000000000000000, 0.000000000000000000, 0.000000000000000000 ) ;
#230 = APPLICATION_PROTOCOL_DEFINITION ( 'draft international standard', 'automotive_design', 1998, #149 ) ;
#231 = CARTESIAN_POINT ( 'NONE',  ( 0.000000000000000000, 0.000000000000000000, 0.000000000000000000 ) ) ;
#232 = PRODUCT_DEFINITION ( 'UNKNOWN', '', #257, #153 ) ;
#233 = CARTESIAN_POINT ( 'NONE',  ( 0.000000000000000000, 0.000000000000000000, -0.09374999999999998612 ) ) ;
#234 = ORIENTED_EDGE ( 'NONE', *, *, #112, .F. ) ;
#235 = PRESENTATION_LAYER_ASSIGNMENT (  '', '', ( #207 ) ) ;
#236 = CARTESIAN_POINT ( 'NONE',  ( 6.123233995736766036E-17, 2.000000000000000000, 0.000000000000000000 ) ) ;
#237 =( GEOMETRIC_REPRESENTATION_CONTEXT ( 3 ) GLOBAL_UNCERTAINTY_ASSIGNED_CONTEXT ( ( #82 ) ) GLOBAL_UNIT_ASSIGNED_CONTEXT ( ( #154, #217, #291 ) ) REPRESENTATION_CONTEXT ( 'NONE', 'WORKASPACE' ) );
#238 = EDGE_LOOP ( 'NONE', ( #220, #173, #145, #148 ) ) ;
#239 =( GEOMETRIC_REPRESENTATION_CONTEXT ( 3 ) GLOBAL_UNCERTAINTY_ASSIGNED_CONTEXT ( ( #8 ) ) GLOBAL_UNIT_ASSIGNED_CONTEXT ( ( #297, #271, #141 ) ) REPRESENTATION_CONTEXT ( 'NONE', 'WORKASPACE' ) );
#240 = PRESENTATION_STYLE_ASSIGNMENT (( #58 ) ) ;
#241 = EDGE_CURVE ( 'NONE', #146, #73, #187, .T. ) ;
#242 = ORIENTED_EDGE ( 'NONE', *, *, #285, .T. ) ;
#243 =( GEOMETRIC_REPRESENTATION_CONTEXT ( 3 ) GLOBAL_UNCERTAINTY_ASSIGNED_CONTEXT ( ( #275 ) ) GLOBAL_UNIT_ASSIGNED_CONTEXT ( ( #214, #245, #66 ) ) REPRESENTATION_CONTEXT ( 'NONE', 'WORKASPACE' ) );
#244 = MECHANICAL_DESIGN_GEOMETRIC_PRESENTATION_REPRESENTATION (  '', ( #262 ), #239 ) ;
#245 =( NAMED_UNIT ( * ) PLANE_ANGLE_UNIT ( ) SI_UNIT ( $, .RADIAN. ) );
#246 = FILL_AREA_STYLE_COLOUR ( '', #248 ) ;
#247 = SURFACE_STYLE_FILL_AREA ( #152 ) ;
#248 = COLOUR_RGB ( '',1.000000000000000000, 0.000000000000000000, 0.000000000000000000 ) ;
#249 = PRESENTATION_STYLE_ASSIGNMENT (( #270 ) ) ;
#250 = PRESENTATION_STYLE_ASSIGNMENT (( #117 ) ) ;
#251 = SURFACE_SIDE_STYLE ('',( #208 ) ) ;
#252 = CYLINDRICAL_SURFACE ( 'NONE', #72, 0.09374999999999995837 ) ;
#253 = DIMENSIONAL_EXPONENTS ( 1.000000000000000000, 0.000000000000000000, 0.000000000000000000, 0.000000000000000000, 0.000000000000000000, 0.000000000000000000, 0.000000000000000000 ) ;
#254 = EDGE_CURVE ( 'NONE', #103, #265, #93, .T. ) ;
#255 = SURFACE_SIDE_STYLE ('',( #199 ) ) ;
#256 = DIMENSIONAL_EXPONENTS ( 1.000000000000000000, 0.000000000000000000, 0.000000000000000000, 0.000000000000000000, 0.000000000000000000, 0.000000000000000000, 0.000000000000000000 ) ;
#257 = PRODUCT_DEFINITION_FORMATION_WITH_SPECIFIED_SOURCE ( 'ANY', '', #50, .NOT_KNOWN. ) ;
#258 =( NAMED_UNIT ( * ) PLANE_ANGLE_UNIT ( ) SI_UNIT ( $, .RADIAN. ) );
#259 = AXIS2_PLACEMENT_3D ( 'NONE', #213, #34, #263 ) ;
#260 = ORIENTED_EDGE ( 'NONE', *, *, #136, .T. ) ;
#261 = AXIS2_PLACEMENT_3D ( 'NONE', #138, #135, #225 ) ;
#262 = STYLED_ITEM ( 'NONE', ( #37 ), #307 ) ;
#263 = DIRECTION ( 'NONE',  ( 0.000000000000000000, 0.000000000000000000, -1.000000000000000000 ) ) ;
#264 = LENGTH_MEASURE_WITH_UNIT ( LENGTH_MEASURE( 0.02539999999999999897 ), #5 );
#265 = VERTEX_POINT ( 'NONE', #159 ) ;
#266 = ORIENTED_EDGE ( 'NONE', *, *, #57, .T. ) ;
#267 = MECHANICAL_DESIGN_GEOMETRIC_PRESENTATION_REPRESENTATION (  '', ( #86 ), #10 ) ;
#268 = DIRECTION ( 'NONE',  ( 3.628583108584750472E-17, 1.000000000000000000, -0.000000000000000000 ) ) ;
#269 = UNCERTAINTY_MEASURE_WITH_UNIT (LENGTH_MEASURE( 1.000000000000000082E-05 ), #19, 'distance_accuracy_value', 'NONE');
#270 = SURFACE_STYLE_USAGE ( .BOTH. , #179 ) ;
#271 =( NAMED_UNIT ( * ) PLANE_ANGLE_UNIT ( ) SI_UNIT ( $, .RADIAN. ) );
#272 = PRESENTATION_STYLE_ASSIGNMENT (( #181 ) ) ;
#273 = CARTESIAN_POINT ( 'NONE',  ( 6.123233995736766036E-17, 2.000000000000000000, 0.000000000000000000 ) ) ;
#274 = AXIS2_PLACEMENT_3D ( 'NONE', #196, #268, #294 ) ;
#275 = UNCERTAINTY_MEASURE_WITH_UNIT (LENGTH_MEASURE( 1.000000000000000082E-05 ), #214, 'distance_accuracy_value', 'NONE');
#276 = EDGE_CURVE ( 'NONE', #265, #103, #133, .T. ) ;
#277 =( LENGTH_UNIT ( ) NAMED_UNIT ( * ) SI_UNIT ( $, .METRE. ) );
#278 =( NAMED_UNIT ( * ) PLANE_ANGLE_UNIT ( ) SI_UNIT ( $, .RADIAN. ) );
#279 = DIRECTION ( 'NONE',  ( 0.000000000000000000, 0.000000000000000000, -1.000000000000000000 ) ) ;
#280 = VECTOR ( 'NONE', #36, 39.37007874015748143 ) ;
#281 = DIRECTION ( 'NONE',  ( -0.000000000000000000, -1.000000000000000000, -0.000000000000000000 ) ) ;
#282 = EDGE_LOOP ( 'NONE', ( #78, #125 ) ) ;
#283 = MECHANICAL_DESIGN_GEOMETRIC_PRESENTATION_REPRESENTATION (  '', ( #207 ), #28 ) ;
#284 = VERTEX_POINT ( 'NONE', #301 ) ;
#285 = EDGE_CURVE ( 'NONE', #120, #103, #70, .T. ) ;
#286 = ORIENTED_EDGE ( 'NONE', *, *, #241, .T. ) ;
#287 = CARTESIAN_POINT ( 'NONE',  ( 1.148106374200643401E-17, 0.3125000000000000000, 0.09374999999999998612 ) ) ;
#288 = DIRECTION ( 'NONE',  ( 0.000000000000000000, 0.000000000000000000, -1.000000000000000000 ) ) ;
#289 = STYLED_ITEM ( 'NONE', ( #200 ), #26 ) ;
#290 = AXIS2_PLACEMENT_3D ( 'NONE', #306, #303, #219 ) ;
#291 =( NAMED_UNIT ( * ) SI_UNIT ( $, .STERADIAN. ) SOLID_ANGLE_UNIT ( ) );
#292 = ORIENTED_EDGE ( 'NONE', *, *, #276, .T. ) ;
#293 = UNCERTAINTY_MEASURE_WITH_UNIT (LENGTH_MEASURE( 1.000000000000000082E-05 ), #114, 'distance_accuracy_value', 'NONE');
#294 = DIRECTION ( 'NONE',  ( -1.000000000000000000, 0.000000000000000000, 0.000000000000000000 ) ) ;
#295 =( GEOMETRIC_REPRESENTATION_CONTEXT ( 3 ) GLOBAL_UNCERTAINTY_ASSIGNED_CONTEXT ( ( #130 ) ) GLOBAL_UNIT_ASSIGNED_CONTEXT ( ( #123, #258, #53 ) ) REPRESENTATION_CONTEXT ( 'NONE', 'WORKASPACE' ) );
#296 = EDGE_LOOP ( 'NONE', ( #292, #147 ) ) ;
#297 =( CONVERSION_BASED_UNIT ( 'INCH', #223 ) LENGTH_UNIT ( ) NAMED_UNIT ( #253 ) );
#298 = LENGTH_MEASURE_WITH_UNIT ( LENGTH_MEASURE( 0.02539999999999999897 ), #277 );
#299 = FILL_AREA_STYLE ('',( #109 ) ) ;
#300 = CARTESIAN_POINT ( 'NONE',  ( 0.000000000000000000, 0.3125000000000000000, 0.000000000000000000 ) ) ;
#301 = CARTESIAN_POINT ( 'NONE',  ( 1.148106374200643555E-17, 0.000000000000000000, 0.09375000000000001388 ) ) ;
#302 = DIMENSIONAL_EXPONENTS ( 1.000000000000000000, 0.000000000000000000, 0.000000000000000000, 0.000000000000000000, 0.000000000000000000, 0.000000000000000000, 0.000000000000000000 ) ;
#303 = DIRECTION ( 'NONE',  ( -3.628583108584750472E-17, -1.000000000000000000, 0.000000000000000000 ) ) ;
#304 = APPLICATION_PROTOCOL_DEFINITION ( 'draft international standard', 'automotive_design', 1998, #180 ) ;
#305 = FILL_AREA_STYLE ('',( #194 ) ) ;
#306 = CARTESIAN_POINT ( 'NONE',  ( 0.09374999999999998612, 2.000000000000000000, 0.000000000000000000 ) ) ;
#307 = MANIFOLD_SOLID_BREP ( 'Revolve - Cutting Edge', #118 ) ;
#308 = DIRECTION ( 'NONE',  ( 3.628583108584750472E-17, 1.000000000000000000, -0.000000000000000000 ) ) ;
#309 = AXIS2_PLACEMENT_3D ( 'NONE', #300, #110, #92 ) ;
ENDSEC;
END-ISO-10303-21;
