ISO-10303-21;
HEADER;
FILE_DESCRIPTION (( 'STEP AP214' ),
    '1' );
FILE_NAME ('83417.STEP',
    '2023-06-30T23:14:01',
    ( '' ),
    ( '' ),
    'SwSTEP 2.0',
    'SolidWorks 2023',
    '' );
FILE_SCHEMA (( 'AUTOMOTIVE_DESIGN' ));
ENDSEC;

DATA;
#1 = SURFACE_STYLE_USAGE ( .BOTH. , #151 ) ;
#2 = APPLICATION_CONTEXT ( 'automotive_design' ) ;
#3 = DIRECTION ( 'NONE',  ( 0.000000000000000000, 0.000000000000000000, -1.000000000000000000 ) ) ;
#4 = AXIS2_PLACEMENT_3D ( 'NONE', #322, #240, #9 ) ;
#5 = PRODUCT_DEFINITION_FORMATION_WITH_SPECIFIED_SOURCE ( 'ANY', '', #178, .NOT_KNOWN. ) ;
#6 = DIRECTION ( 'NONE',  ( -0.000000000000000000, -1.000000000000000000, -0.000000000000000000 ) ) ;
#7 = PRODUCT_CONTEXT ( 'NONE', #269, 'mechanical' ) ;
#8 = DIMENSIONAL_EXPONENTS ( 1.000000000000000000, 0.000000000000000000, 0.000000000000000000, 0.000000000000000000, 0.000000000000000000, 0.000000000000000000, 0.000000000000000000 ) ;
#9 = DIRECTION ( 'NONE',  ( -1.000000000000000000, 0.000000000000000000, 0.000000000000000000 ) ) ;
#10 = CARTESIAN_POINT ( 'NONE',  ( -7.654042494670957545E-18, 0.000000000000000000, 0.000000000000000000 ) ) ;
#11 = DIMENSIONAL_EXPONENTS ( 1.000000000000000000, 0.000000000000000000, 0.000000000000000000, 0.000000000000000000, 0.000000000000000000, 0.000000000000000000, 0.000000000000000000 ) ;
#12 = EDGE_LOOP ( 'NONE', ( #301, #244, #367, #76 ) ) ;
#13 = COLOUR_RGB ( '',0.7921568627450980005, 0.8196078431372548767, 0.9333333333333333481 ) ;
#14 = AXIS2_PLACEMENT_3D ( 'NONE', #72, #108, #134 ) ;
#15 = ADVANCED_FACE ( 'NONE', ( #118 ), #227, .T. ) ;
#16 = CARTESIAN_POINT ( 'NONE',  ( -0.1249999999999995420, 1.250000000000000000, 0.000000000000000000 ) ) ;
#17 = ORIENTED_EDGE ( 'NONE', *, *, #164, .T. ) ;
#18 = CARTESIAN_POINT ( 'NONE',  ( 0.1249999999999998473, 3.000000000000000444, 1.530808498934189660E-17 ) ) ;
#19 = ORIENTED_EDGE ( 'NONE', *, *, #231, .T. ) ;
#20 =( NAMED_UNIT ( * ) SI_UNIT ( $, .STERADIAN. ) SOLID_ANGLE_UNIT ( ) );
#21 = SURFACE_SIDE_STYLE ('',( #289 ) ) ;
#22 =( NAMED_UNIT ( * ) PLANE_ANGLE_UNIT ( ) SI_UNIT ( $, .RADIAN. ) );
#23 = CIRCLE ( 'NONE', #171, 0.1249999999999998473 ) ;
#24 = EDGE_CURVE ( 'NONE', #101, #310, #261, .T. ) ;
#25 = ORIENTED_EDGE ( 'NONE', *, *, #177, .T. ) ;
#26 = FILL_AREA_STYLE ('',( #339 ) ) ;
#27 =( LENGTH_UNIT ( ) NAMED_UNIT ( * ) SI_UNIT ( $, .METRE. ) );
#28 =( LENGTH_UNIT ( ) NAMED_UNIT ( * ) SI_UNIT ( $, .METRE. ) );
#29 =( NAMED_UNIT ( * ) PLANE_ANGLE_UNIT ( ) SI_UNIT ( $, .RADIAN. ) );
#30 = AXIS2_PLACEMENT_3D ( 'NONE', #239, #6, #303 ) ;
#31 =( NAMED_UNIT ( * ) SI_UNIT ( $, .STERADIAN. ) SOLID_ANGLE_UNIT ( ) );
#32 = SURFACE_STYLE_FILL_AREA ( #192 ) ;
#33 = CARTESIAN_POINT ( 'NONE',  ( -1.530808498934191509E-17, 0.1250000000000000000, 0.000000000000000000 ) ) ;
#34 = DIRECTION ( 'NONE',  ( 1.000000000000000000, 0.000000000000000000, -1.224646799147353207E-16 ) ) ;
#35 = MANIFOLD_SOLID_BREP ( 'Revolve - Tool Body (Straight Shanked)', #148 ) ;
#36 = MECHANICAL_DESIGN_GEOMETRIC_PRESENTATION_REPRESENTATION (  '', ( #110 ), #139 ) ;
#37 = DIRECTION ( 'NONE',  ( 0.000000000000000000, 0.000000000000000000, 1.000000000000000000 ) ) ;
#38 = ORIENTED_EDGE ( 'NONE', *, *, #306, .F. ) ;
#39 = CARTESIAN_POINT ( 'NONE',  ( -1.530808498934191509E-17, 0.1250000000000000000, 0.000000000000000000 ) ) ;
#40 = ORIENTED_EDGE ( 'NONE', *, *, #231, .F. ) ;
#41 =( NAMED_UNIT ( * ) PLANE_ANGLE_UNIT ( ) SI_UNIT ( $, .RADIAN. ) );
#42 = AXIS2_PLACEMENT_3D ( 'NONE', #313, #50, #190 ) ;
#43 = CIRCLE ( 'NONE', #97, 0.1249999999999999167 ) ;
#44 = FILL_AREA_STYLE ('',( #168 ) ) ;
#45 = ORIENTED_EDGE ( 'NONE', *, *, #363, .F. ) ;
#46 = LENGTH_MEASURE_WITH_UNIT ( LENGTH_MEASURE( 0.02539999999999999897 ), #77 );
#47 = ADVANCED_BREP_SHAPE_REPRESENTATION ( '83417', ( #170, #35, #207 ), #309 ) ;
#48 = VECTOR ( 'NONE', #70, 39.37007874015748143 ) ;
#49 = FACE_OUTER_BOUND ( 'NONE', #12, .T. ) ;
#50 = DIRECTION ( 'NONE',  ( -1.220437756016033644E-16, 1.000000000000000000, 0.000000000000000000 ) ) ;
#51 = UNCERTAINTY_MEASURE_WITH_UNIT (LENGTH_MEASURE( 1.000000000000000082E-05 ), #314, 'distance_accuracy_value', 'NONE');
#52 =( NAMED_UNIT ( * ) PLANE_ANGLE_UNIT ( ) SI_UNIT ( $, .RADIAN. ) );
#53 = CIRCLE ( 'NONE', #30, 0.1250000000000000000 ) ;
#54 = FILL_AREA_STYLE_COLOUR ( '', #13 ) ;
#55 = CARTESIAN_POINT ( 'NONE',  ( 0.000000000000000000, 1.250000000000000000, -0.1249999999999998473 ) ) ;
#56 = LENGTH_MEASURE_WITH_UNIT ( LENGTH_MEASURE( 0.02539999999999999897 ), #27 );
#57 = AXIS2_PLACEMENT_3D ( 'NONE', #296, #58, #146 ) ;
#58 = DIRECTION ( 'NONE',  ( -0.000000000000000000, -1.000000000000000000, -0.000000000000000000 ) ) ;
#59 = CIRCLE ( 'NONE', #264, 0.1250000000000000000 ) ;
#60 =( NAMED_UNIT ( * ) PLANE_ANGLE_UNIT ( ) SI_UNIT ( $, .RADIAN. ) );
#61 = LINE ( 'NONE', #359, #115 ) ;
#62 = CARTESIAN_POINT ( 'NONE',  ( -1.530808498934191509E-17, 0.1250000000000000000, 0.000000000000000000 ) ) ;
#63 = PRODUCT_RELATED_PRODUCT_CATEGORY ( 'part', '', ( #178 ) ) ;
#64 = CARTESIAN_POINT ( 'NONE',  ( -6.123233995736772199E-17, 3.000000000000000444, 0.000000000000000000 ) ) ;
#65 = CARTESIAN_POINT ( 'NONE',  ( 0.1250000000000000000, 0.1250000000000000278, 0.000000000000000000 ) ) ;
#66 = MECHANICAL_DESIGN_GEOMETRIC_PRESENTATION_REPRESENTATION (  '', ( #206 ), #243 ) ;
#67 = DIRECTION ( 'NONE',  ( 1.000000000000000000, 0.000000000000000000, 0.000000000000000000 ) ) ;
#68 = VERTEX_POINT ( 'NONE', #361 ) ;
#69 =( LENGTH_UNIT ( ) NAMED_UNIT ( * ) SI_UNIT ( $, .METRE. ) );
#70 = DIRECTION ( 'NONE',  ( -1.220437756016033644E-16, 1.000000000000000000, -0.000000000000000000 ) ) ;
#71 = ORIENTED_EDGE ( 'NONE', *, *, #132, .F. ) ;
#72 = CARTESIAN_POINT ( 'NONE',  ( 0.1249999999999998473, 3.000000000000000444, 0.000000000000000000 ) ) ;
#73 = ORIENTED_EDGE ( 'NONE', *, *, #294, .T. ) ;
#74 = STYLED_ITEM ( 'NONE', ( #99 ), #274 ) ;
#75 = DIRECTION ( 'NONE',  ( -0.000000000000000000, -1.000000000000000000, -0.000000000000000000 ) ) ;
#76 = ORIENTED_EDGE ( 'NONE', *, *, #357, .F. ) ;
#77 =( LENGTH_UNIT ( ) NAMED_UNIT ( * ) SI_UNIT ( $, .METRE. ) );
#78 = DIRECTION ( 'NONE',  ( 0.000000000000000000, 0.000000000000000000, -1.000000000000000000 ) ) ;
#79 =( GEOMETRIC_REPRESENTATION_CONTEXT ( 3 ) GLOBAL_UNCERTAINTY_ASSIGNED_CONTEXT ( ( #368 ) ) GLOBAL_UNIT_ASSIGNED_CONTEXT ( ( #150, #29, #344 ) ) REPRESENTATION_CONTEXT ( 'NONE', 'WORKASPACE' ) );
#80 = SURFACE_STYLE_USAGE ( .BOTH. , #362 ) ;
#81 = DIRECTION ( 'NONE',  ( -1.220437756016033644E-16, 1.000000000000000000, -0.000000000000000000 ) ) ;
#82 = DIRECTION ( 'NONE',  ( 0.000000000000000000, -0.000000000000000000, 1.000000000000000000 ) ) ;
#83 = CARTESIAN_POINT ( 'NONE',  ( 1.530808498934190893E-17, 0.000000000000000000, 0.1249999999999999306 ) ) ;
#84 = ADVANCED_FACE ( 'NONE', ( #157 ), #125, .T. ) ;
#85 = CARTESIAN_POINT ( 'NONE',  ( 0.000000000000000000, 0.1250000000000000278, 0.000000000000000000 ) ) ;
#86 = SURFACE_STYLE_FILL_AREA ( #268 ) ;
#87 = UNCERTAINTY_MEASURE_WITH_UNIT (LENGTH_MEASURE( 1.000000000000000082E-05 ), #173, 'distance_accuracy_value', 'NONE');
#88 =( NAMED_UNIT ( * ) SI_UNIT ( $, .STERADIAN. ) SOLID_ANGLE_UNIT ( ) );
#89 = VERTEX_POINT ( 'NONE', #10 ) ;
#90 = DIRECTION ( 'NONE',  ( -1.220437756016033644E-16, 1.000000000000000000, -0.000000000000000000 ) ) ;
#91 =( NAMED_UNIT ( * ) SI_UNIT ( $, .STERADIAN. ) SOLID_ANGLE_UNIT ( ) );
#92 = STYLED_ITEM ( 'NONE', ( #191 ), #170 ) ;
#93 = FILL_AREA_STYLE_COLOUR ( '', #307 ) ;
#94 = EDGE_CURVE ( 'NONE', #68, #229, #122, .T. ) ;
#95 = EDGE_CURVE ( 'NONE', #310, #242, #53, .T. ) ;
#96 = PRESENTATION_LAYER_ASSIGNMENT (  '', '', ( #206 ) ) ;
#97 = AXIS2_PLACEMENT_3D ( 'NONE', #64, #323, #212 ) ;
#98 = ORIENTED_EDGE ( 'NONE', *, *, #187, .F. ) ;
#99 = PRESENTATION_STYLE_ASSIGNMENT (( #245 ) ) ;
#100 = LENGTH_MEASURE_WITH_UNIT ( LENGTH_MEASURE( 0.02539999999999999897 ), #335 );
#101 = VERTEX_POINT ( 'NONE', #181 ) ;
#102 = MECHANICAL_DESIGN_GEOMETRIC_PRESENTATION_REPRESENTATION (  '', ( #92 ), #331 ) ;
#103 =( CONVERSION_BASED_UNIT ( 'INCH', #247 ) LENGTH_UNIT ( ) NAMED_UNIT ( #263 ) );
#104 = EDGE_CURVE ( 'NONE', #242, #89, #213, .T. ) ;
#105 = DIRECTION ( 'NONE',  ( 0.000000000000000000, 0.000000000000000000, -1.000000000000000000 ) ) ;
#106 = ORIENTED_EDGE ( 'NONE', *, *, #24, .T. ) ;
#107 = ADVANCED_FACE ( 'NONE', ( #210 ), #352, .T. ) ;
#108 = DIRECTION ( 'NONE',  ( 1.220437756016033644E-16, -1.000000000000000000, 0.000000000000000000 ) ) ;
#109 = CIRCLE ( 'NONE', #149, 0.1249999999999998473 ) ;
#110 = STYLED_ITEM ( 'NONE', ( #291 ), #298 ) ;
#111 = PRODUCT_DEFINITION ( 'UNKNOWN', '', #5, #312 ) ;
#112 = FILL_AREA_STYLE ('',( #113 ) ) ;
#113 = FILL_AREA_STYLE_COLOUR ( '', #166 ) ;
#114 = PRESENTATION_STYLE_ASSIGNMENT (( #340 ) ) ;
#115 = VECTOR ( 'NONE', #75, 39.37007874015748143 ) ;
#116 = VERTEX_POINT ( 'NONE', #65 ) ;
#117 = SURFACE_STYLE_USAGE ( .BOTH. , #366 ) ;
#118 = FACE_OUTER_BOUND ( 'NONE', #162, .T. ) ;
#119 = PRODUCT_DEFINITION_SHAPE ( 'NONE', 'NONE',  #111 ) ;
#120 = PRESENTATION_STYLE_ASSIGNMENT (( #1 ) ) ;
#121 = MECHANICAL_DESIGN_GEOMETRIC_PRESENTATION_REPRESENTATION (  '', ( #223 ), #130 ) ;
#122 = LINE ( 'NONE', #280, #347 ) ;
#123 = CIRCLE ( 'NONE', #358, 0.1250000000000000000 ) ;
#124 = DIMENSIONAL_EXPONENTS ( 1.000000000000000000, 0.000000000000000000, 0.000000000000000000, 0.000000000000000000, 0.000000000000000000, 0.000000000000000000, 0.000000000000000000 ) ;
#125 = CYLINDRICAL_SURFACE ( 'NONE', #4, 0.1249999999999997918 ) ;
#126 = APPLICATION_PROTOCOL_DEFINITION ( 'draft international standard', 'automotive_design', 1998, #2 ) ;
#127 = SURFACE_STYLE_FILL_AREA ( #278 ) ;
#128 = ORIENTED_EDGE ( 'NONE', *, *, #104, .T. ) ;
#129 = VECTOR ( 'NONE', #369, 39.37007874015748143 ) ;
#130 =( GEOMETRIC_REPRESENTATION_CONTEXT ( 3 ) GLOBAL_UNCERTAINTY_ASSIGNED_CONTEXT ( ( #87 ) ) GLOBAL_UNIT_ASSIGNED_CONTEXT ( ( #173, #141, #259 ) ) REPRESENTATION_CONTEXT ( 'NONE', 'WORKASPACE' ) );
#131 = ORIENTED_EDGE ( 'NONE', *, *, #164, .F. ) ;
#132 = EDGE_CURVE ( 'NONE', #116, #89, #249, .T. ) ;
#133 = CARTESIAN_POINT ( 'NONE',  ( 0.000000000000000000, 0.1250000000000000278, 0.000000000000000000 ) ) ;
#134 = DIRECTION ( 'NONE',  ( 1.000000000000000000, 1.220437756016033644E-16, 0.000000000000000000 ) ) ;
#135 = ORIENTED_EDGE ( 'NONE', *, *, #95, .T. ) ;
#136 = PLANE ( 'NONE',  #272 ) ;
#137 = EDGE_CURVE ( 'NONE', #101, #355, #109, .T. ) ;
#138 = VERTEX_POINT ( 'NONE', #154 ) ;
#139 =( GEOMETRIC_REPRESENTATION_CONTEXT ( 3 ) GLOBAL_UNCERTAINTY_ASSIGNED_CONTEXT ( ( #51 ) ) GLOBAL_UNIT_ASSIGNED_CONTEXT ( ( #314, #52, #88 ) ) REPRESENTATION_CONTEXT ( 'NONE', 'WORKASPACE' ) );
#140 = DIRECTION ( 'NONE',  ( -0.000000000000000000, -1.000000000000000000, -0.000000000000000000 ) ) ;
#141 =( NAMED_UNIT ( * ) PLANE_ANGLE_UNIT ( ) SI_UNIT ( $, .RADIAN. ) );
#142 = FACE_OUTER_BOUND ( 'NONE', #251, .T. ) ;
#143 = CYLINDRICAL_SURFACE ( 'NONE', #279, 0.1249999999999999306 ) ;
#144 = DIRECTION ( 'NONE',  ( 0.000000000000000000, 0.000000000000000000, -1.000000000000000000 ) ) ;
#145 = DIRECTION ( 'NONE',  ( 0.000000000000000000, 0.000000000000000000, -1.000000000000000000 ) ) ;
#146 = DIRECTION ( 'NONE',  ( 0.000000000000000000, 0.000000000000000000, -1.000000000000000000 ) ) ;
#147 = SURFACE_STYLE_FILL_AREA ( #26 ) ;
#148 = CLOSED_SHELL ( 'NONE', ( #84, #253, #200, #235 ) ) ;
#149 = AXIS2_PLACEMENT_3D ( 'NONE', #182, #276, #3 ) ;
#150 =( CONVERSION_BASED_UNIT ( 'INCH', #56 ) LENGTH_UNIT ( ) NAMED_UNIT ( #158 ) );
#151 = SURFACE_SIDE_STYLE ('',( #32 ) ) ;
#152 = CARTESIAN_POINT ( 'NONE',  ( 0.000000000000000000, 0.000000000000000000, 0.000000000000000000 ) ) ;
#153 = DIRECTION ( 'NONE',  ( 1.000000000000000000, 0.000000000000000000, 0.000000000000000000 ) ) ;
#154 = CARTESIAN_POINT ( 'NONE',  ( -0.1249999999999999861, 3.000000000000000444, 0.000000000000000000 ) ) ;
#155 = EDGE_LOOP ( 'NONE', ( #40, #353 ) ) ;
#156 = DIRECTION ( 'NONE',  ( 0.000000000000000000, 0.000000000000000000, 1.000000000000000000 ) ) ;
#157 = FACE_OUTER_BOUND ( 'NONE', #219, .T. ) ;
#158 = DIMENSIONAL_EXPONENTS ( 1.000000000000000000, 0.000000000000000000, 0.000000000000000000, 0.000000000000000000, 0.000000000000000000, 0.000000000000000000, 0.000000000000000000 ) ;
#159 = LENGTH_MEASURE_WITH_UNIT ( LENGTH_MEASURE( 0.02539999999999999897 ), #297 );
#160 = ORIENTED_EDGE ( 'NONE', *, *, #137, .T. ) ;
#161 = EDGE_CURVE ( 'NONE', #175, #138, #208, .T. ) ;
#162 = EDGE_LOOP ( 'NONE', ( #19, #106, #98, #131, #283 ) ) ;
#163 = CARTESIAN_POINT ( 'NONE',  ( -0.1250000000000000000, 0.1250000000000000278, 1.530808498934191201E-17 ) ) ;
#164 = EDGE_CURVE ( 'NONE', #184, #116, #59, .T. ) ;
#165 = AXIS2_PLACEMENT_3D ( 'NONE', #33, #37, #67 ) ;
#166 = COLOUR_RGB ( '',1.000000000000000000, 0.000000000000000000, 0.000000000000000000 ) ;
#167 = DIRECTION ( 'NONE',  ( -1.000000000000000000, 0.000000000000000000, 0.000000000000000000 ) ) ;
#168 = FILL_AREA_STYLE_COLOUR ( '', #224 ) ;
#169 = FACE_OUTER_BOUND ( 'NONE', #205, .T. ) ;
#170 = MANIFOLD_SOLID_BREP ( 'Revolve - Cutting Edge', #370 ) ;
#171 = AXIS2_PLACEMENT_3D ( 'NONE', #288, #140, #105 ) ;
#172 = FACE_OUTER_BOUND ( 'NONE', #327, .T. ) ;
#173 =( CONVERSION_BASED_UNIT ( 'INCH', #46 ) LENGTH_UNIT ( ) NAMED_UNIT ( #217 ) );
#174 = LENGTH_MEASURE_WITH_UNIT ( LENGTH_MEASURE( 0.02539999999999999897 ), #365 );
#175 = VERTEX_POINT ( 'NONE', #16 ) ;
#176 = SURFACE_STYLE_FILL_AREA ( #112 ) ;
#177 = EDGE_CURVE ( 'NONE', #355, #184, #61, .T. ) ;
#178 = PRODUCT ( '83417', '83417', '', ( #7 ) ) ;
#179 =( GEOMETRIC_REPRESENTATION_CONTEXT ( 3 ) GLOBAL_UNCERTAINTY_ASSIGNED_CONTEXT ( ( #265 ) ) GLOBAL_UNIT_ASSIGNED_CONTEXT ( ( #234, #60, #238 ) ) REPRESENTATION_CONTEXT ( 'NONE', 'WORKASPACE' ) );
#180 = FILL_AREA_STYLE_COLOUR ( '', #290 ) ;
#181 = CARTESIAN_POINT ( 'NONE',  ( 1.530808498934189968E-17, 1.250000000000000000, 0.1249999999999998473 ) ) ;
#182 = CARTESIAN_POINT ( 'NONE',  ( 0.000000000000000000, 1.250000000000000000, 0.000000000000000000 ) ) ;
#183 = CIRCLE ( 'NONE', #230, 0.1249999999999996947 ) ;
#184 = VERTEX_POINT ( 'NONE', #194 ) ;
#185 = SPHERICAL_SURFACE ( 'NONE', #282, 0.1250000000000000000 ) ;
#186 = DIRECTION ( 'NONE',  ( -1.220437756016033644E-16, 1.000000000000000000, -0.000000000000000000 ) ) ;
#187 = EDGE_CURVE ( 'NONE', #116, #310, #237, .T. ) ;
#188 = ORIENTED_EDGE ( 'NONE', *, *, #306, .T. ) ;
#189 = CARTESIAN_POINT ( 'NONE',  ( -0.1249999999999998612, 3.000000000000000444, 0.000000000000000000 ) ) ;
#190 = DIRECTION ( 'NONE',  ( -1.000000000000000000, -1.220437756016033644E-16, 0.000000000000000000 ) ) ;
#191 = PRESENTATION_STYLE_ASSIGNMENT (( #80 ) ) ;
#192 = FILL_AREA_STYLE ('',( #54 ) ) ;
#193 = UNCERTAINTY_MEASURE_WITH_UNIT (LENGTH_MEASURE( 1.000000000000000082E-05 ), #103, 'distance_accuracy_value', 'NONE');
#194 = CARTESIAN_POINT ( 'NONE',  ( 0.000000000000000000, 0.1250000000000000278, -0.1250000000000000000 ) ) ;
#195 = PRESENTATION_LAYER_ASSIGNMENT (  '', '', ( #262 ) ) ;
#196 = PLANE ( 'NONE',  #14 ) ;
#197 = UNCERTAINTY_MEASURE_WITH_UNIT (LENGTH_MEASURE( 1.000000000000000082E-05 ), #320, 'distance_accuracy_value', 'NONE');
#198 = SURFACE_SIDE_STYLE ('',( #176 ) ) ;
#199 = ORIENTED_EDGE ( 'NONE', *, *, #161, .F. ) ;
#200 = ADVANCED_FACE ( 'NONE', ( #49 ), #333, .T. ) ;
#201 = PRESENTATION_LAYER_ASSIGNMENT (  '', '', ( #110 ) ) ;
#202 = SURFACE_STYLE_USAGE ( .BOTH. , #198 ) ;
#203 = CARTESIAN_POINT ( 'NONE',  ( 1.530808498934191509E-17, 0.1250000000000000278, 0.1249999999999999861 ) ) ;
#204 = SURFACE_SIDE_STYLE ('',( #86 ) ) ;
#205 = EDGE_LOOP ( 'NONE', ( #135, #128, #71, #284 ) ) ;
#206 = STYLED_ITEM ( 'NONE', ( #326 ), #107 ) ;
#207 = AXIS2_PLACEMENT_3D ( 'NONE', #152, #270, #153 ) ;
#208 = LINE ( 'NONE', #189, #48 ) ;
#209 =( NAMED_UNIT ( * ) PLANE_ANGLE_UNIT ( ) SI_UNIT ( $, .RADIAN. ) );
#210 = FACE_OUTER_BOUND ( 'NONE', #373, .T. ) ;
#211 =( CONVERSION_BASED_UNIT ( 'INCH', #159 ) LENGTH_UNIT ( ) NAMED_UNIT ( #11 ) );
#212 = DIRECTION ( 'NONE',  ( -1.000000000000000000, 0.000000000000000000, 0.000000000000000000 ) ) ;
#213 = CIRCLE ( 'NONE', #364, 0.1250000000000000000 ) ;
#214 = DIMENSIONAL_EXPONENTS ( 1.000000000000000000, 0.000000000000000000, 0.000000000000000000, 0.000000000000000000, 0.000000000000000000, 0.000000000000000000, 0.000000000000000000 ) ;
#215 = DIRECTION ( 'NONE',  ( -1.000000000000000000, 0.000000000000000000, 0.000000000000000000 ) ) ;
#216 = ORIENTED_EDGE ( 'NONE', *, *, #357, .T. ) ;
#217 = DIMENSIONAL_EXPONENTS ( 1.000000000000000000, 0.000000000000000000, 0.000000000000000000, 0.000000000000000000, 0.000000000000000000, 0.000000000000000000, 0.000000000000000000 ) ;
#218 = SURFACE_STYLE_FILL_AREA ( #271 ) ;
#219 = EDGE_LOOP ( 'NONE', ( #188, #233, #45, #199 ) ) ;
#220 = CARTESIAN_POINT ( 'NONE',  ( 0.000000000000000000, 0.1250000000000000278, 0.000000000000000000 ) ) ;
#221 = ORIENTED_EDGE ( 'NONE', *, *, #132, .T. ) ;
#222 = DIRECTION ( 'NONE',  ( -1.220437756016033644E-16, 1.000000000000000000, -0.000000000000000000 ) ) ;
#223 = STYLED_ITEM ( 'NONE', ( #120 ), #35 ) ;
#224 = COLOUR_RGB ( '',1.000000000000000000, 0.000000000000000000, 0.000000000000000000 ) ;
#225 = DIRECTION ( 'NONE',  ( -1.000000000000000000, 0.000000000000000000, 0.000000000000000000 ) ) ;
#226 = DIRECTION ( 'NONE',  ( -1.220437756016033644E-16, 1.000000000000000000, -0.000000000000000000 ) ) ;
#227 = CYLINDRICAL_SURFACE ( 'NONE', #57, 0.1249999999999999306 ) ;
#228 = DIRECTION ( 'NONE',  ( 0.000000000000000000, 1.000000000000000000, 0.000000000000000000 ) ) ;
#229 = VERTEX_POINT ( 'NONE', #18 ) ;
#230 = AXIS2_PLACEMENT_3D ( 'NONE', #232, #226, #225 ) ;
#231 = EDGE_CURVE ( 'NONE', #355, #101, #23, .T. ) ;
#232 = CARTESIAN_POINT ( 'NONE',  ( 1.523442673454382089E-16, 1.250000000000000000, 0.000000000000000000 ) ) ;
#233 = ORIENTED_EDGE ( 'NONE', *, *, #94, .T. ) ;
#234 =( CONVERSION_BASED_UNIT ( 'INCH', #174 ) LENGTH_UNIT ( ) NAMED_UNIT ( #124 ) );
#235 = ADVANCED_FACE ( 'NONE', ( #142 ), #196, .F. ) ;
#236 = ORIENTED_EDGE ( 'NONE', *, *, #24, .F. ) ;
#237 = CIRCLE ( 'NONE', #315, 0.1250000000000000000 ) ;
#238 =( NAMED_UNIT ( * ) SI_UNIT ( $, .STERADIAN. ) SOLID_ANGLE_UNIT ( ) );
#239 = CARTESIAN_POINT ( 'NONE',  ( 0.000000000000000000, 0.1250000000000000278, 0.000000000000000000 ) ) ;
#240 = DIRECTION ( 'NONE',  ( -1.220437756016033644E-16, 1.000000000000000000, -0.000000000000000000 ) ) ;
#241 = SURFACE_STYLE_USAGE ( .BOTH. , #349 ) ;
#242 = VERTEX_POINT ( 'NONE', #163 ) ;
#243 =( GEOMETRIC_REPRESENTATION_CONTEXT ( 3 ) GLOBAL_UNCERTAINTY_ASSIGNED_CONTEXT ( ( #255 ) ) GLOBAL_UNIT_ASSIGNED_CONTEXT ( ( #211, #41, #91 ) ) REPRESENTATION_CONTEXT ( 'NONE', 'WORKASPACE' ) );
#244 = ORIENTED_EDGE ( 'NONE', *, *, #343, .T. ) ;
#245 = SURFACE_STYLE_USAGE ( .BOTH. , #21 ) ;
#246 = PLANE ( 'NONE',  #42 ) ;
#247 = LENGTH_MEASURE_WITH_UNIT ( LENGTH_MEASURE( 0.02539999999999999897 ), #308 );
#248 = MECHANICAL_DESIGN_GEOMETRIC_PRESENTATION_REPRESENTATION (  '', ( #262 ), #79 ) ;
#249 = CIRCLE ( 'NONE', #287, 0.1250000000000000000 ) ;
#250 = CIRCLE ( 'NONE', #337, 0.1249999999999996947 ) ;
#251 = EDGE_LOOP ( 'NONE', ( #342, #216 ) ) ;
#252 = CARTESIAN_POINT ( 'NONE',  ( -6.123233995736772199E-17, 3.000000000000000444, 0.000000000000000000 ) ) ;
#253 = ADVANCED_FACE ( 'NONE', ( #254 ), #246, .F. ) ;
#254 = FACE_OUTER_BOUND ( 'NONE', #360, .T. ) ;
#255 = UNCERTAINTY_MEASURE_WITH_UNIT (LENGTH_MEASURE( 1.000000000000000082E-05 ), #211, 'distance_accuracy_value', 'NONE');
#256 = PRESENTATION_LAYER_ASSIGNMENT (  '', '', ( #74 ) ) ;
#257 = DIRECTION ( 'NONE',  ( -0.000000000000000000, -1.000000000000000000, -0.000000000000000000 ) ) ;
#258 = CARTESIAN_POINT ( 'NONE',  ( 1.523442673454382089E-16, 1.250000000000000000, 0.000000000000000000 ) ) ;
#259 =( NAMED_UNIT ( * ) SI_UNIT ( $, .STERADIAN. ) SOLID_ANGLE_UNIT ( ) );
#260 = DIRECTION ( 'NONE',  ( -0.000000000000000000, -1.000000000000000000, -0.000000000000000000 ) ) ;
#261 = LINE ( 'NONE', #83, #129 ) ;
#262 = STYLED_ITEM ( 'NONE', ( #114 ), #15 ) ;
#263 = DIMENSIONAL_EXPONENTS ( 1.000000000000000000, 0.000000000000000000, 0.000000000000000000, 0.000000000000000000, 0.000000000000000000, 0.000000000000000000, 0.000000000000000000 ) ;
#264 = AXIS2_PLACEMENT_3D ( 'NONE', #133, #345, #321 ) ;
#265 = UNCERTAINTY_MEASURE_WITH_UNIT (LENGTH_MEASURE( 1.000000000000000082E-05 ), #234, 'distance_accuracy_value', 'NONE');
#266 = STYLED_ITEM ( 'NONE', ( #372 ), #346 ) ;
#267 = LENGTH_MEASURE_WITH_UNIT ( LENGTH_MEASURE( 0.02539999999999999897 ), #28 );
#268 = FILL_AREA_STYLE ('',( #293 ) ) ;
#269 = APPLICATION_CONTEXT ( 'automotive_design' ) ;
#270 = DIRECTION ( 'NONE',  ( 0.000000000000000000, 0.000000000000000000, 1.000000000000000000 ) ) ;
#271 = FILL_AREA_STYLE ('',( #180 ) ) ;
#272 = AXIS2_PLACEMENT_3D ( 'NONE', #317, #228, #82 ) ;
#273 = MECHANICAL_DESIGN_GEOMETRIC_PRESENTATION_REPRESENTATION (  '', ( #266 ), #179 ) ;
#274 = ADVANCED_FACE ( 'NONE', ( #356 ), #136, .T. ) ;
#275 = APPLICATION_PROTOCOL_DEFINITION ( 'draft international standard', 'automotive_design', 1998, #269 ) ;
#276 = DIRECTION ( 'NONE',  ( -0.000000000000000000, -1.000000000000000000, -0.000000000000000000 ) ) ;
#277 = ORIENTED_EDGE ( 'NONE', *, *, #104, .F. ) ;
#278 = FILL_AREA_STYLE ('',( #93 ) ) ;
#279 = AXIS2_PLACEMENT_3D ( 'NONE', #341, #257, #145 ) ;
#280 = CARTESIAN_POINT ( 'NONE',  ( 0.1249999999999997224, 3.000000000000000444, 1.530808498934189044E-17 ) ) ;
#281 = COLOUR_RGB ( '',1.000000000000000000, 0.000000000000000000, 0.000000000000000000 ) ;
#282 = AXIS2_PLACEMENT_3D ( 'NONE', #62, #156, #325 ) ;
#283 = ORIENTED_EDGE ( 'NONE', *, *, #177, .F. ) ;
#284 = ORIENTED_EDGE ( 'NONE', *, *, #187, .T. ) ;
#285 = ORIENTED_EDGE ( 'NONE', *, *, #95, .F. ) ;
#286 =( CONVERSION_BASED_UNIT ( 'INCH', #100 ) LENGTH_UNIT ( ) NAMED_UNIT ( #214 ) );
#287 = AXIS2_PLACEMENT_3D ( 'NONE', #350, #329, #215 ) ;
#288 = CARTESIAN_POINT ( 'NONE',  ( 0.000000000000000000, 1.250000000000000000, 0.000000000000000000 ) ) ;
#289 = SURFACE_STYLE_FILL_AREA ( #44 ) ;
#290 = COLOUR_RGB ( '',0.7921568627450980005, 0.8196078431372548767, 0.9333333333333333481 ) ;
#291 = PRESENTATION_STYLE_ASSIGNMENT (( #117 ) ) ;
#292 = DIMENSIONAL_EXPONENTS ( 1.000000000000000000, 0.000000000000000000, 0.000000000000000000, 0.000000000000000000, 0.000000000000000000, 0.000000000000000000, 0.000000000000000000 ) ;
#293 = FILL_AREA_STYLE_COLOUR ( '', #351 ) ;
#294 = EDGE_CURVE ( 'NONE', #242, #184, #123, .T. ) ;
#295 =( GEOMETRIC_REPRESENTATION_CONTEXT ( 3 ) GLOBAL_UNCERTAINTY_ASSIGNED_CONTEXT ( ( #193 ) ) GLOBAL_UNIT_ASSIGNED_CONTEXT ( ( #103, #22, #318 ) ) REPRESENTATION_CONTEXT ( 'NONE', 'WORKASPACE' ) );
#296 = CARTESIAN_POINT ( 'NONE',  ( 0.000000000000000000, 0.000000000000000000, 0.000000000000000000 ) ) ;
#297 =( LENGTH_UNIT ( ) NAMED_UNIT ( * ) SI_UNIT ( $, .METRE. ) );
#298 = ADVANCED_FACE ( 'NONE', ( #172 ), #143, .T. ) ;
#299 = LENGTH_MEASURE_WITH_UNIT ( LENGTH_MEASURE( 0.02539999999999999897 ), #69 );
#300 = CIRCLE ( 'NONE', #332, 0.1249999999999999167 ) ;
#301 = ORIENTED_EDGE ( 'NONE', *, *, #94, .F. ) ;
#302 = SHAPE_DEFINITION_REPRESENTATION ( #119, #47 ) ;
#303 = DIRECTION ( 'NONE',  ( 0.000000000000000000, 0.000000000000000000, -1.000000000000000000 ) ) ;
#304 = ORIENTED_EDGE ( 'NONE', *, *, #343, .F. ) ;
#305 = DIRECTION ( 'NONE',  ( 1.224646799147353207E-16, -0.000000000000000000, 1.000000000000000000 ) ) ;
#306 = EDGE_CURVE ( 'NONE', #175, #68, #183, .T. ) ;
#307 = COLOUR_RGB ( '',1.000000000000000000, 0.000000000000000000, 0.000000000000000000 ) ;
#308 =( LENGTH_UNIT ( ) NAMED_UNIT ( * ) SI_UNIT ( $, .METRE. ) );
#309 =( GEOMETRIC_REPRESENTATION_CONTEXT ( 3 ) GLOBAL_UNCERTAINTY_ASSIGNED_CONTEXT ( ( #197 ) ) GLOBAL_UNIT_ASSIGNED_CONTEXT ( ( #320, #209, #31 ) ) REPRESENTATION_CONTEXT ( 'NONE', 'WORKASPACE' ) );
#310 = VERTEX_POINT ( 'NONE', #203 ) ;
#311 = PRESENTATION_LAYER_ASSIGNMENT (  '', '', ( #266 ) ) ;
#312 = PRODUCT_DEFINITION_CONTEXT ( 'detailed design', #2, 'design' ) ;
#313 = CARTESIAN_POINT ( 'NONE',  ( 1.523442673454382089E-16, 1.250000000000000000, 0.000000000000000000 ) ) ;
#314 =( CONVERSION_BASED_UNIT ( 'INCH', #267 ) LENGTH_UNIT ( ) NAMED_UNIT ( #292 ) );
#315 = AXIS2_PLACEMENT_3D ( 'NONE', #220, #354, #78 ) ;
#316 = UNCERTAINTY_MEASURE_WITH_UNIT (LENGTH_MEASURE( 1.000000000000000082E-05 ), #286, 'distance_accuracy_value', 'NONE');
#317 = CARTESIAN_POINT ( 'NONE',  ( 0.000000000000000000, 1.250000000000000000, 0.000000000000000000 ) ) ;
#318 =( NAMED_UNIT ( * ) SI_UNIT ( $, .STERADIAN. ) SOLID_ANGLE_UNIT ( ) );
#319 = PRESENTATION_LAYER_ASSIGNMENT (  '', '', ( #223 ) ) ;
#320 =( CONVERSION_BASED_UNIT ( 'INCH', #299 ) LENGTH_UNIT ( ) NAMED_UNIT ( #8 ) );
#321 = DIRECTION ( 'NONE',  ( 0.000000000000000000, 0.000000000000000000, -1.000000000000000000 ) ) ;
#322 = CARTESIAN_POINT ( 'NONE',  ( -6.123233995736772199E-17, 3.000000000000000444, 0.000000000000000000 ) ) ;
#323 = DIRECTION ( 'NONE',  ( -1.220437756016033644E-16, 1.000000000000000000, -0.000000000000000000 ) ) ;
#324 = AXIS2_PLACEMENT_3D ( 'NONE', #252, #222, #167 ) ;
#325 = DIRECTION ( 'NONE',  ( 1.000000000000000000, 0.000000000000000000, 0.000000000000000000 ) ) ;
#326 = PRESENTATION_STYLE_ASSIGNMENT (( #241 ) ) ;
#327 = EDGE_LOOP ( 'NONE', ( #236, #160, #25, #330, #285 ) ) ;
#328 = DIRECTION ( 'NONE',  ( -1.000000000000000000, 0.000000000000000000, 0.000000000000000000 ) ) ;
#329 = DIRECTION ( 'NONE',  ( 0.000000000000000000, 0.000000000000000000, -1.000000000000000000 ) ) ;
#330 = ORIENTED_EDGE ( 'NONE', *, *, #294, .F. ) ;
#331 =( GEOMETRIC_REPRESENTATION_CONTEXT ( 3 ) GLOBAL_UNCERTAINTY_ASSIGNED_CONTEXT ( ( #316 ) ) GLOBAL_UNIT_ASSIGNED_CONTEXT ( ( #286, #334, #20 ) ) REPRESENTATION_CONTEXT ( 'NONE', 'WORKASPACE' ) );
#332 = AXIS2_PLACEMENT_3D ( 'NONE', #348, #90, #328 ) ;
#333 = CYLINDRICAL_SURFACE ( 'NONE', #324, 0.1249999999999997918 ) ;
#334 =( NAMED_UNIT ( * ) PLANE_ANGLE_UNIT ( ) SI_UNIT ( $, .RADIAN. ) );
#335 =( LENGTH_UNIT ( ) NAMED_UNIT ( * ) SI_UNIT ( $, .METRE. ) );
#336 = PRESENTATION_LAYER_ASSIGNMENT (  '', '', ( #92 ) ) ;
#337 = AXIS2_PLACEMENT_3D ( 'NONE', #258, #81, #338 ) ;
#338 = DIRECTION ( 'NONE',  ( -1.000000000000000000, 0.000000000000000000, 0.000000000000000000 ) ) ;
#339 = FILL_AREA_STYLE_COLOUR ( '', #281 ) ;
#340 = SURFACE_STYLE_USAGE ( .BOTH. , #204 ) ;
#341 = CARTESIAN_POINT ( 'NONE',  ( 0.000000000000000000, 0.000000000000000000, 0.000000000000000000 ) ) ;
#342 = ORIENTED_EDGE ( 'NONE', *, *, #363, .T. ) ;
#343 = EDGE_CURVE ( 'NONE', #68, #175, #250, .T. ) ;
#344 =( NAMED_UNIT ( * ) SI_UNIT ( $, .STERADIAN. ) SOLID_ANGLE_UNIT ( ) );
#345 = DIRECTION ( 'NONE',  ( -0.000000000000000000, -1.000000000000000000, -0.000000000000000000 ) ) ;
#346 = ADVANCED_FACE ( 'NONE', ( #169 ), #185, .T. ) ;
#347 = VECTOR ( 'NONE', #186, 39.37007874015748143 ) ;
#348 = CARTESIAN_POINT ( 'NONE',  ( -6.123233995736772199E-17, 3.000000000000000444, 0.000000000000000000 ) ) ;
#349 = SURFACE_SIDE_STYLE ('',( #127 ) ) ;
#350 = CARTESIAN_POINT ( 'NONE',  ( -1.530808498934191509E-17, 0.1250000000000000000, 0.000000000000000000 ) ) ;
#351 = COLOUR_RGB ( '',1.000000000000000000, 0.000000000000000000, 0.000000000000000000 ) ;
#352 = SPHERICAL_SURFACE ( 'NONE', #165, 0.1250000000000000000 ) ;
#353 = ORIENTED_EDGE ( 'NONE', *, *, #137, .F. ) ;
#354 = DIRECTION ( 'NONE',  ( -0.000000000000000000, -1.000000000000000000, -0.000000000000000000 ) ) ;
#355 = VERTEX_POINT ( 'NONE', #55 ) ;
#356 = FACE_OUTER_BOUND ( 'NONE', #155, .T. ) ;
#357 = EDGE_CURVE ( 'NONE', #229, #138, #300, .T. ) ;
#358 = AXIS2_PLACEMENT_3D ( 'NONE', #85, #260, #144 ) ;
#359 = CARTESIAN_POINT ( 'NONE',  ( 0.000000000000000000, 0.000000000000000000, -0.1249999999999999306 ) ) ;
#360 = EDGE_LOOP ( 'NONE', ( #38, #304 ) ) ;
#361 = CARTESIAN_POINT ( 'NONE',  ( 0.1249999999999998473, 1.250000000000000000, 1.530808498934189660E-17 ) ) ;
#362 = SURFACE_SIDE_STYLE ('',( #218 ) ) ;
#363 = EDGE_CURVE ( 'NONE', #138, #229, #43, .T. ) ;
#364 = AXIS2_PLACEMENT_3D ( 'NONE', #39, #305, #34 ) ;
#365 =( LENGTH_UNIT ( ) NAMED_UNIT ( * ) SI_UNIT ( $, .METRE. ) );
#366 = SURFACE_SIDE_STYLE ('',( #147 ) ) ;
#367 = ORIENTED_EDGE ( 'NONE', *, *, #161, .T. ) ;
#368 = UNCERTAINTY_MEASURE_WITH_UNIT (LENGTH_MEASURE( 1.000000000000000082E-05 ), #150, 'distance_accuracy_value', 'NONE');
#369 = DIRECTION ( 'NONE',  ( -0.000000000000000000, -1.000000000000000000, -0.000000000000000000 ) ) ;
#370 = CLOSED_SHELL ( 'NONE', ( #346, #15, #274, #298, #107 ) ) ;
#371 = MECHANICAL_DESIGN_GEOMETRIC_PRESENTATION_REPRESENTATION (  '', ( #74 ), #295 ) ;
#372 = PRESENTATION_STYLE_ASSIGNMENT (( #202 ) ) ;
#373 = EDGE_LOOP ( 'NONE', ( #277, #73, #17, #221 ) ) ;
ENDSEC;
END-ISO-10303-21;
