ISO-10303-21;
HEADER;
FILE_DESCRIPTION (( 'STEP AP214' ),
    '1' );
FILE_NAME ('00105.STEP',
    '2023-06-22T14:02:54',
    ( '' ),
    ( '' ),
    'SwSTEP 2.0',
    'SolidWorks 2023',
    '' );
FILE_SCHEMA (( 'AUTOMOTIVE_DESIGN' ));
ENDSEC;

DATA;
#1 = ORIENTED_EDGE ( 'NONE', *, *, #110, .T. ) ;
#2 = COLOUR_RGB ( '',0.7921568627450980005, 0.8196078431372548767, 0.9333333333333333481 ) ;
#3 = EDGE_CURVE ( 'NONE', #255, #191, #176, .T. ) ;
#4 = AXIS2_PLACEMENT_3D ( 'NONE', #267, #59, #220 ) ;
#5 =( NAMED_UNIT ( * ) PLANE_ANGLE_UNIT ( ) SI_UNIT ( $, .RADIAN. ) );
#6 =( GEOMETRIC_REPRESENTATION_CONTEXT ( 3 ) GLOBAL_UNCERTAINTY_ASSIGNED_CONTEXT ( ( #291 ) ) GLOBAL_UNIT_ASSIGNED_CONTEXT ( ( #135, #193, #277 ) ) REPRESENTATION_CONTEXT ( 'NONE', 'WORKASPACE' ) );
#7 = SURFACE_STYLE_USAGE ( .BOTH. , #79 ) ;
#8 = VECTOR ( 'NONE', #23, 39.37007874015748143 ) ;
#9 = PRESENTATION_STYLE_ASSIGNMENT (( #7 ) ) ;
#10 = FACE_OUTER_BOUND ( 'NONE', #105, .T. ) ;
#11 = ADVANCED_FACE ( 'NONE', ( #203 ), #199, .T. ) ;
#12 = DIRECTION ( 'NONE',  ( -3.160378836509298460E-17, 1.000000000000000000, -0.000000000000000000 ) ) ;
#13 = AXIS2_PLACEMENT_3D ( 'NONE', #224, #209, #166 ) ;
#14 = ORIENTED_EDGE ( 'NONE', *, *, #222, .F. ) ;
#15 = APPLICATION_PROTOCOL_DEFINITION ( 'draft international standard', 'automotive_design', 1998, #129 ) ;
#16 = CIRCLE ( 'NONE', #101, 0.09375000000000001388 ) ;
#17 =( CONVERSION_BASED_UNIT ( 'INCH', #302 ) LENGTH_UNIT ( ) NAMED_UNIT ( #158 ) );
#18 = DIRECTION ( 'NONE',  ( -0.000000000000000000, -1.000000000000000000, -0.000000000000000000 ) ) ;
#19 = CARTESIAN_POINT ( 'NONE',  ( 1.148106374200643863E-17, 0.5625000000000000000, 0.09375000000000001388 ) ) ;
#20 = ORIENTED_EDGE ( 'NONE', *, *, #289, .T. ) ;
#21 = DIRECTION ( 'NONE',  ( -1.000000000000000000, 0.000000000000000000, 0.000000000000000000 ) ) ;
#22 = PRODUCT_RELATED_PRODUCT_CATEGORY ( 'part', '', ( #238 ) ) ;
#23 = DIRECTION ( 'NONE',  ( -0.000000000000000000, -1.000000000000000000, -0.000000000000000000 ) ) ;
#24 = AXIS2_PLACEMENT_3D ( 'NONE', #39, #132, #181 ) ;
#25 = PRESENTATION_STYLE_ASSIGNMENT (( #68 ) ) ;
#26 = ORIENTED_EDGE ( 'NONE', *, *, #3, .F. ) ;
#27 = MANIFOLD_SOLID_BREP ( 'Revolve - Tool Body (Straight Shanked)', #244 ) ;
#28 = LINE ( 'NONE', #137, #40 ) ;
#29 = ADVANCED_FACE ( 'NONE', ( #211 ), #305, .F. ) ;
#30 = STYLED_ITEM ( 'NONE', ( #25 ), #27 ) ;
#31 = VECTOR ( 'NONE', #12, 39.37007874015748143 ) ;
#32 = COLOUR_RGB ( '',1.000000000000000000, 0.000000000000000000, 0.000000000000000000 ) ;
#33 = UNCERTAINTY_MEASURE_WITH_UNIT (LENGTH_MEASURE( 1.000000000000000082E-05 ), #300, 'distance_accuracy_value', 'NONE');
#34 = PRESENTATION_LAYER_ASSIGNMENT (  '', '', ( #173 ) ) ;
#35 = ORIENTED_EDGE ( 'NONE', *, *, #289, .F. ) ;
#36 = AXIS2_PLACEMENT_3D ( 'NONE', #81, #186, #271 ) ;
#37 = AXIS2_PLACEMENT_3D ( 'NONE', #138, #90, #162 ) ;
#38 =( GEOMETRIC_REPRESENTATION_CONTEXT ( 3 ) GLOBAL_UNCERTAINTY_ASSIGNED_CONTEXT ( ( #33 ) ) GLOBAL_UNIT_ASSIGNED_CONTEXT ( ( #300, #5, #125 ) ) REPRESENTATION_CONTEXT ( 'NONE', 'WORKASPACE' ) );
#39 = CARTESIAN_POINT ( 'NONE',  ( 0.000000000000000000, 0.000000000000000000, 0.000000000000000000 ) ) ;
#40 = VECTOR ( 'NONE', #163, 39.37007874015748143 ) ;
#41 = DIMENSIONAL_EXPONENTS ( 1.000000000000000000, 0.000000000000000000, 0.000000000000000000, 0.000000000000000000, 0.000000000000000000, 0.000000000000000000, 0.000000000000000000 ) ;
#42 = FILL_AREA_STYLE ('',( #64 ) ) ;
#43 =( CONVERSION_BASED_UNIT ( 'INCH', #65 ) LENGTH_UNIT ( ) NAMED_UNIT ( #273 ) );
#44 = UNCERTAINTY_MEASURE_WITH_UNIT (LENGTH_MEASURE( 1.000000000000000082E-05 ), #308, 'distance_accuracy_value', 'NONE');
#45 = AXIS2_PLACEMENT_3D ( 'NONE', #103, #198, #97 ) ;
#46 = VERTEX_POINT ( 'NONE', #301 ) ;
#47 = SURFACE_STYLE_FILL_AREA ( #115 ) ;
#48 = DIRECTION ( 'NONE',  ( 0.000000000000000000, 0.000000000000000000, -1.000000000000000000 ) ) ;
#49 = EDGE_LOOP ( 'NONE', ( #259, #288 ) ) ;
#50 = FILL_AREA_STYLE ('',( #143 ) ) ;
#51 = EDGE_LOOP ( 'NONE', ( #35, #285 ) ) ;
#52 = DIRECTION ( 'NONE',  ( -3.160378836509298460E-17, 1.000000000000000000, 0.000000000000000000 ) ) ;
#53 =( LENGTH_UNIT ( ) NAMED_UNIT ( * ) SI_UNIT ( $, .METRE. ) );
#54 = CARTESIAN_POINT ( 'NONE',  ( 1.148106374200643863E-17, 0.000000000000000000, 0.09375000000000001388 ) ) ;
#55 = EDGE_LOOP ( 'NONE', ( #20, #196, #72, #26 ) ) ;
#56 = CIRCLE ( 'NONE', #4, 0.09375000000000001388 ) ;
#57 = ADVANCED_FACE ( 'NONE', ( #256 ), #84, .T. ) ;
#58 = EDGE_CURVE ( 'NONE', #46, #117, #123, .T. ) ;
#59 = DIRECTION ( 'NONE',  ( -0.000000000000000000, -1.000000000000000000, -0.000000000000000000 ) ) ;
#60 =( LENGTH_UNIT ( ) NAMED_UNIT ( * ) SI_UNIT ( $, .METRE. ) );
#61 = DIRECTION ( 'NONE',  ( 0.000000000000000000, 0.000000000000000000, -1.000000000000000000 ) ) ;
#62 = DIRECTION ( 'NONE',  ( -0.000000000000000000, -1.000000000000000000, -0.000000000000000000 ) ) ;
#63 = VERTEX_POINT ( 'NONE', #306 ) ;
#64 = FILL_AREA_STYLE_COLOUR ( '', #147 ) ;
#65 = LENGTH_MEASURE_WITH_UNIT ( LENGTH_MEASURE( 0.02539999999999999897 ), #53 );
#66 = EDGE_CURVE ( 'NONE', #141, #46, #188, .T. ) ;
#67 = FILL_AREA_STYLE_COLOUR ( '', #154 ) ;
#68 = SURFACE_STYLE_USAGE ( .BOTH. , #87 ) ;
#69 = CARTESIAN_POINT ( 'NONE',  ( 0.09375000000000001388, 2.500000000000000000, 0.000000000000000000 ) ) ;
#70 = CARTESIAN_POINT ( 'NONE',  ( 0.000000000000000000, 0.000000000000000000, 0.000000000000000000 ) ) ;
#71 = PLANE ( 'NONE',  #37 ) ;
#72 = ORIENTED_EDGE ( 'NONE', *, *, #152, .F. ) ;
#73 = STYLED_ITEM ( 'NONE', ( #270 ), #11 ) ;
#74 = ADVANCED_FACE ( 'NONE', ( #159 ), #71, .T. ) ;
#75 = SURFACE_STYLE_FILL_AREA ( #50 ) ;
#76 = PRESENTATION_LAYER_ASSIGNMENT (  '', '', ( #85 ) ) ;
#77 = PRESENTATION_LAYER_ASSIGNMENT (  '', '', ( #30 ) ) ;
#78 = CYLINDRICAL_SURFACE ( 'NONE', #145, 0.09375000000000004163 ) ;
#79 = SURFACE_SIDE_STYLE ('',( #153 ) ) ;
#80 = CARTESIAN_POINT ( 'NONE',  ( 0.000000000000000000, 0.5625000000000000000, 0.000000000000000000 ) ) ;
#81 = CARTESIAN_POINT ( 'NONE',  ( 0.000000000000000000, 0.000000000000000000, 0.000000000000000000 ) ) ;
#82 = CIRCLE ( 'NONE', #36, 0.09375000000000001388 ) ;
#83 = DIRECTION ( 'NONE',  ( 0.000000000000000000, 0.000000000000000000, -1.000000000000000000 ) ) ;
#84 = CYLINDRICAL_SURFACE ( 'NONE', #286, 0.09375000000000004163 ) ;
#85 = STYLED_ITEM ( 'NONE', ( #258 ), #126 ) ;
#86 = CARTESIAN_POINT ( 'NONE',  ( 0.09375000000000001388, 0.5625000000000001110, 1.148106374200644325E-17 ) ) ;
#87 = SURFACE_SIDE_STYLE ('',( #210 ) ) ;
#88 = VERTEX_POINT ( 'NONE', #252 ) ;
#89 = MECHANICAL_DESIGN_GEOMETRIC_PRESENTATION_REPRESENTATION (  '', ( #30 ), #150 ) ;
#90 = DIRECTION ( 'NONE',  ( 0.000000000000000000, 1.000000000000000000, 0.000000000000000000 ) ) ;
#91 = SURFACE_SIDE_STYLE ('',( #113 ) ) ;
#92 = EDGE_LOOP ( 'NONE', ( #309, #167, #1, #250 ) ) ;
#93 = PRESENTATION_STYLE_ASSIGNMENT (( #231 ) ) ;
#94 = CARTESIAN_POINT ( 'NONE',  ( 0.000000000000000000, 0.000000000000000000, 0.000000000000000000 ) ) ;
#95 = ORIENTED_EDGE ( 'NONE', *, *, #236, .F. ) ;
#96 =( NAMED_UNIT ( * ) SI_UNIT ( $, .STERADIAN. ) SOLID_ANGLE_UNIT ( ) );
#97 = DIRECTION ( 'NONE',  ( 0.000000000000000000, 0.000000000000000000, -1.000000000000000000 ) ) ;
#98 =( NAMED_UNIT ( * ) PLANE_ANGLE_UNIT ( ) SI_UNIT ( $, .RADIAN. ) );
#99 = UNCERTAINTY_MEASURE_WITH_UNIT (LENGTH_MEASURE( 1.000000000000000082E-05 ), #43, 'distance_accuracy_value', 'NONE');
#100 = ADVANCED_FACE ( 'NONE', ( #229 ), #280, .T. ) ;
#101 = AXIS2_PLACEMENT_3D ( 'NONE', #200, #179, #183 ) ;
#102 = EDGE_CURVE ( 'NONE', #114, #63, #206, .T. ) ;
#103 = CARTESIAN_POINT ( 'NONE',  ( 0.000000000000000000, 0.000000000000000000, 0.000000000000000000 ) ) ;
#104 = SURFACE_STYLE_USAGE ( .BOTH. , #130 ) ;
#105 = EDGE_LOOP ( 'NONE', ( #239, #164, #276, #307 ) ) ;
#106 = DIMENSIONAL_EXPONENTS ( 1.000000000000000000, 0.000000000000000000, 0.000000000000000000, 0.000000000000000000, 0.000000000000000000, 0.000000000000000000, 0.000000000000000000 ) ;
#107 =( NAMED_UNIT ( * ) SI_UNIT ( $, .STERADIAN. ) SOLID_ANGLE_UNIT ( ) );
#108 = ORIENTED_EDGE ( 'NONE', *, *, #152, .T. ) ;
#109 = CARTESIAN_POINT ( 'NONE',  ( 4.681872370432437776E-35, 0.5625000000000000000, 0.000000000000000000 ) ) ;
#110 = EDGE_CURVE ( 'NONE', #88, #117, #28, .T. ) ;
#111 = DIRECTION ( 'NONE',  ( 3.160378836509298460E-17, -1.000000000000000000, 0.000000000000000000 ) ) ;
#112 = PRESENTATION_STYLE_ASSIGNMENT (( #119 ) ) ;
#113 = SURFACE_STYLE_FILL_AREA ( #227 ) ;
#114 = VERTEX_POINT ( 'NONE', #19 ) ;
#115 = FILL_AREA_STYLE ('',( #67 ) ) ;
#116 = FILL_AREA_STYLE_COLOUR ( '', #296 ) ;
#117 = VERTEX_POINT ( 'NONE', #170 ) ;
#118 = CIRCLE ( 'NONE', #294, 0.09375000000000001388 ) ;
#119 = SURFACE_STYLE_USAGE ( .BOTH. , #140 ) ;
#120 =( CONVERSION_BASED_UNIT ( 'INCH', #233 ) LENGTH_UNIT ( ) NAMED_UNIT ( #243 ) );
#121 = EDGE_LOOP ( 'NONE', ( #175, #234, #284, #171 ) ) ;
#122 = DIMENSIONAL_EXPONENTS ( 1.000000000000000000, 0.000000000000000000, 0.000000000000000000, 0.000000000000000000, 0.000000000000000000, 0.000000000000000000, 0.000000000000000000 ) ;
#123 = CIRCLE ( 'NONE', #13, 0.09375000000000006939 ) ;
#124 = EDGE_CURVE ( 'NONE', #117, #46, #217, .T. ) ;
#125 =( NAMED_UNIT ( * ) SI_UNIT ( $, .STERADIAN. ) SOLID_ANGLE_UNIT ( ) );
#126 = MANIFOLD_SOLID_BREP ( 'Revolve - Cutting Edge', #216 ) ;
#127 =( LENGTH_UNIT ( ) NAMED_UNIT ( * ) SI_UNIT ( $, .METRE. ) );
#128 = CARTESIAN_POINT ( 'NONE',  ( 0.000000000000000000, 0.5625000000000001110, 0.000000000000000000 ) ) ;
#129 = APPLICATION_CONTEXT ( 'automotive_design' ) ;
#130 = SURFACE_SIDE_STYLE ('',( #292 ) ) ;
#131 = LENGTH_MEASURE_WITH_UNIT ( LENGTH_MEASURE( 0.02539999999999999897 ), #127 );
#132 = DIRECTION ( 'NONE',  ( -0.000000000000000000, -1.000000000000000000, -0.000000000000000000 ) ) ;
#133 = FILL_AREA_STYLE ('',( #274 ) ) ;
#134 = AXIS2_PLACEMENT_3D ( 'NONE', #109, #52, #169 ) ;
#135 =( CONVERSION_BASED_UNIT ( 'INCH', #248 ) LENGTH_UNIT ( ) NAMED_UNIT ( #122 ) );
#136 =( LENGTH_UNIT ( ) NAMED_UNIT ( * ) SI_UNIT ( $, .METRE. ) );
#137 = CARTESIAN_POINT ( 'NONE',  ( -0.09375000000000011102, 2.500000000000000000, 0.000000000000000000 ) ) ;
#138 = CARTESIAN_POINT ( 'NONE',  ( 0.000000000000000000, 0.5625000000000000000, 0.000000000000000000 ) ) ;
#139 =( NAMED_UNIT ( * ) PLANE_ANGLE_UNIT ( ) SI_UNIT ( $, .RADIAN. ) );
#140 = SURFACE_SIDE_STYLE ('',( #47 ) ) ;
#141 = VERTEX_POINT ( 'NONE', #86 ) ;
#142 = DIRECTION ( 'NONE',  ( 1.000000000000000000, 0.000000000000000000, 0.000000000000000000 ) ) ;
#143 = FILL_AREA_STYLE_COLOUR ( '', #32 ) ;
#144 = DIRECTION ( 'NONE',  ( -3.160378836509298460E-17, 1.000000000000000000, -0.000000000000000000 ) ) ;
#145 = AXIS2_PLACEMENT_3D ( 'NONE', #264, #151, #269 ) ;
#146 = UNCERTAINTY_MEASURE_WITH_UNIT (LENGTH_MEASURE( 1.000000000000000082E-05 ), #293, 'distance_accuracy_value', 'NONE');
#147 = COLOUR_RGB ( '',1.000000000000000000, 0.000000000000000000, 0.000000000000000000 ) ;
#148 = APPLICATION_CONTEXT ( 'automotive_design' ) ;
#149 = ADVANCED_FACE ( 'NONE', ( #189 ), #275, .F. ) ;
#150 =( GEOMETRIC_REPRESENTATION_CONTEXT ( 3 ) GLOBAL_UNCERTAINTY_ASSIGNED_CONTEXT ( ( #266 ) ) GLOBAL_UNIT_ASSIGNED_CONTEXT ( ( #17, #139, #107 ) ) REPRESENTATION_CONTEXT ( 'NONE', 'WORKASPACE' ) );
#151 = DIRECTION ( 'NONE',  ( -3.160378836509298460E-17, 1.000000000000000000, -0.000000000000000000 ) ) ;
#152 = EDGE_CURVE ( 'NONE', #191, #63, #295, .T. ) ;
#153 = SURFACE_STYLE_FILL_AREA ( #42 ) ;
#154 = COLOUR_RGB ( '',1.000000000000000000, 0.000000000000000000, 0.000000000000000000 ) ;
#155 = CYLINDRICAL_SURFACE ( 'NONE', #24, 0.09375000000000001388 ) ;
#156 = DIRECTION ( 'NONE',  ( -3.160378836509298460E-17, 1.000000000000000000, -0.000000000000000000 ) ) ;
#157 = DIRECTION ( 'NONE',  ( -3.160378836509298460E-17, 1.000000000000000000, -0.000000000000000000 ) ) ;
#158 = DIMENSIONAL_EXPONENTS ( 1.000000000000000000, 0.000000000000000000, 0.000000000000000000, 0.000000000000000000, 0.000000000000000000, 0.000000000000000000, 0.000000000000000000 ) ;
#159 = FACE_OUTER_BOUND ( 'NONE', #51, .T. ) ;
#160 =( GEOMETRIC_REPRESENTATION_CONTEXT ( 3 ) GLOBAL_UNCERTAINTY_ASSIGNED_CONTEXT ( ( #146 ) ) GLOBAL_UNIT_ASSIGNED_CONTEXT ( ( #293, #265, #182 ) ) REPRESENTATION_CONTEXT ( 'NONE', 'WORKASPACE' ) );
#161 = DIRECTION ( 'NONE',  ( 1.000000000000000000, 3.160378836509298460E-17, 0.000000000000000000 ) ) ;
#162 = DIRECTION ( 'NONE',  ( 0.000000000000000000, -0.000000000000000000, 1.000000000000000000 ) ) ;
#163 = DIRECTION ( 'NONE',  ( -3.160378836509298460E-17, 1.000000000000000000, -0.000000000000000000 ) ) ;
#164 = ORIENTED_EDGE ( 'NONE', *, *, #66, .T. ) ;
#165 = MECHANICAL_DESIGN_GEOMETRIC_PRESENTATION_REPRESENTATION (  '', ( #212 ), #38 ) ;
#166 = DIRECTION ( 'NONE',  ( -1.000000000000000000, 0.000000000000000000, 0.000000000000000000 ) ) ;
#167 = ORIENTED_EDGE ( 'NONE', *, *, #222, .T. ) ;
#168 = DIRECTION ( 'NONE',  ( -0.000000000000000000, -1.000000000000000000, -0.000000000000000000 ) ) ;
#169 = DIRECTION ( 'NONE',  ( -1.000000000000000000, -3.160378836509298460E-17, 0.000000000000000000 ) ) ;
#170 = CARTESIAN_POINT ( 'NONE',  ( -0.09375000000000013878, 2.500000000000000000, 0.000000000000000000 ) ) ;
#171 = ORIENTED_EDGE ( 'NONE', *, *, #218, .F. ) ;
#172 = PRODUCT_CONTEXT ( 'NONE', #129, 'mechanical' ) ;
#173 = STYLED_ITEM ( 'NONE', ( #112 ), #74 ) ;
#174 =( NAMED_UNIT ( * ) SI_UNIT ( $, .STERADIAN. ) SOLID_ANGLE_UNIT ( ) );
#175 = ORIENTED_EDGE ( 'NONE', *, *, #102, .F. ) ;
#176 = LINE ( 'NONE', #261, #202 ) ;
#177 = CIRCLE ( 'NONE', #226, 0.09375000000000001388 ) ;
#178 = AXIS2_PLACEMENT_3D ( 'NONE', #279, #144, #283 ) ;
#179 = DIRECTION ( 'NONE',  ( -3.160378836509298460E-17, 1.000000000000000000, -0.000000000000000000 ) ) ;
#180 = LENGTH_MEASURE_WITH_UNIT ( LENGTH_MEASURE( 0.02539999999999999897 ), #60 );
#181 = DIRECTION ( 'NONE',  ( 0.000000000000000000, 0.000000000000000000, -1.000000000000000000 ) ) ;
#182 =( NAMED_UNIT ( * ) SI_UNIT ( $, .STERADIAN. ) SOLID_ANGLE_UNIT ( ) );
#183 = DIRECTION ( 'NONE',  ( -1.000000000000000000, 0.000000000000000000, 0.000000000000000000 ) ) ;
#184 = FILL_AREA_STYLE_COLOUR ( '', #201 ) ;
#185 = FACE_OUTER_BOUND ( 'NONE', #121, .T. ) ;
#186 = DIRECTION ( 'NONE',  ( -0.000000000000000000, -1.000000000000000000, -0.000000000000000000 ) ) ;
#187 = PRESENTATION_LAYER_ASSIGNMENT (  '', '', ( #232 ) ) ;
#188 = LINE ( 'NONE', #195, #31 ) ;
#189 = FACE_OUTER_BOUND ( 'NONE', #49, .T. ) ;
#190 =( NAMED_UNIT ( * ) PLANE_ANGLE_UNIT ( ) SI_UNIT ( $, .RADIAN. ) );
#191 = VERTEX_POINT ( 'NONE', #299 ) ;
#192 = CARTESIAN_POINT ( 'NONE',  ( 0.000000000000000000, 0.000000000000000000, 0.000000000000000000 ) ) ;
#193 =( NAMED_UNIT ( * ) PLANE_ANGLE_UNIT ( ) SI_UNIT ( $, .RADIAN. ) );
#194 = PRODUCT_DEFINITION ( 'UNKNOWN', '', #237, #240 ) ;
#195 = CARTESIAN_POINT ( 'NONE',  ( 0.09374999999999997224, 2.500000000000000000, 1.148106374200644171E-17 ) ) ;
#196 = ORIENTED_EDGE ( 'NONE', *, *, #102, .T. ) ;
#197 =( NAMED_UNIT ( * ) PLANE_ANGLE_UNIT ( ) SI_UNIT ( $, .RADIAN. ) );
#198 = DIRECTION ( 'NONE',  ( -0.000000000000000000, -1.000000000000000000, -0.000000000000000000 ) ) ;
#199 = CYLINDRICAL_SURFACE ( 'NONE', #45, 0.09375000000000001388 ) ;
#200 = CARTESIAN_POINT ( 'NONE',  ( 0.000000000000000000, 0.5625000000000001110, 0.000000000000000000 ) ) ;
#201 = COLOUR_RGB ( '',1.000000000000000000, 0.000000000000000000, 0.000000000000000000 ) ;
#202 = VECTOR ( 'NONE', #62, 39.37007874015748143 ) ;
#203 = FACE_OUTER_BOUND ( 'NONE', #55, .T. ) ;
#204 =( LENGTH_UNIT ( ) NAMED_UNIT ( * ) SI_UNIT ( $, .METRE. ) );
#205 = MECHANICAL_DESIGN_GEOMETRIC_PRESENTATION_REPRESENTATION (  '', ( #173 ), #241 ) ;
#206 = LINE ( 'NONE', #54, #8 ) ;
#207 = EDGE_LOOP ( 'NONE', ( #108, #214 ) ) ;
#208 = SHAPE_DEFINITION_REPRESENTATION ( #287, #290 ) ;
#209 = DIRECTION ( 'NONE',  ( -3.160378836509298460E-17, 1.000000000000000000, -0.000000000000000000 ) ) ;
#210 = SURFACE_STYLE_FILL_AREA ( #133 ) ;
#211 = FACE_OUTER_BOUND ( 'NONE', #260, .T. ) ;
#212 = STYLED_ITEM ( 'NONE', ( #9 ), #215 ) ;
#213 =( LENGTH_UNIT ( ) NAMED_UNIT ( * ) SI_UNIT ( $, .METRE. ) );
#214 = ORIENTED_EDGE ( 'NONE', *, *, #218, .T. ) ;
#215 = ADVANCED_FACE ( 'NONE', ( #185 ), #155, .T. ) ;
#216 = CLOSED_SHELL ( 'NONE', ( #11, #74, #215, #100 ) ) ;
#217 = CIRCLE ( 'NONE', #178, 0.09375000000000006939 ) ;
#218 = EDGE_CURVE ( 'NONE', #63, #191, #82, .T. ) ;
#219 = CARTESIAN_POINT ( 'NONE',  ( 0.000000000000000000, 0.5625000000000000000, -0.09375000000000001388 ) ) ;
#220 = DIRECTION ( 'NONE',  ( 0.000000000000000000, 0.000000000000000000, -1.000000000000000000 ) ) ;
#221 = MECHANICAL_DESIGN_GEOMETRIC_PRESENTATION_REPRESENTATION (  '', ( #232 ), #268 ) ;
#222 = EDGE_CURVE ( 'NONE', #141, #88, #16, .T. ) ;
#223 = DIRECTION ( 'NONE',  ( -1.000000000000000000, 0.000000000000000000, 0.000000000000000000 ) ) ;
#224 = CARTESIAN_POINT ( 'NONE',  ( -6.123233995736766036E-17, 2.500000000000000000, 0.000000000000000000 ) ) ;
#225 = UNCERTAINTY_MEASURE_WITH_UNIT (LENGTH_MEASURE( 1.000000000000000082E-05 ), #120, 'distance_accuracy_value', 'NONE');
#226 = AXIS2_PLACEMENT_3D ( 'NONE', #128, #156, #223 ) ;
#227 = FILL_AREA_STYLE ('',( #116 ) ) ;
#228 = MECHANICAL_DESIGN_GEOMETRIC_PRESENTATION_REPRESENTATION (  '', ( #73 ), #160 ) ;
#229 = FACE_OUTER_BOUND ( 'NONE', #207, .T. ) ;
#230 = DIMENSIONAL_EXPONENTS ( 1.000000000000000000, 0.000000000000000000, 0.000000000000000000, 0.000000000000000000, 0.000000000000000000, 0.000000000000000000, 0.000000000000000000 ) ;
#231 = SURFACE_STYLE_USAGE ( .BOTH. , #247 ) ;
#232 = STYLED_ITEM ( 'NONE', ( #93 ), #100 ) ;
#233 = LENGTH_MEASURE_WITH_UNIT ( LENGTH_MEASURE( 0.02539999999999999897 ), #213 );
#234 = ORIENTED_EDGE ( 'NONE', *, *, #297, .T. ) ;
#235 = APPLICATION_PROTOCOL_DEFINITION ( 'draft international standard', 'automotive_design', 1998, #148 ) ;
#236 = EDGE_CURVE ( 'NONE', #88, #141, #177, .T. ) ;
#237 = PRODUCT_DEFINITION_FORMATION_WITH_SPECIFIED_SOURCE ( 'ANY', '', #238, .NOT_KNOWN. ) ;
#238 = PRODUCT ( '00105', '00105', '', ( #172 ) ) ;
#239 = ORIENTED_EDGE ( 'NONE', *, *, #236, .T. ) ;
#240 = PRODUCT_DEFINITION_CONTEXT ( 'detailed design', #148, 'design' ) ;
#241 =( GEOMETRIC_REPRESENTATION_CONTEXT ( 3 ) GLOBAL_UNCERTAINTY_ASSIGNED_CONTEXT ( ( #44 ) ) GLOBAL_UNIT_ASSIGNED_CONTEXT ( ( #308, #190, #278 ) ) REPRESENTATION_CONTEXT ( 'NONE', 'WORKASPACE' ) );
#242 = PRESENTATION_LAYER_ASSIGNMENT (  '', '', ( #212 ) ) ;
#243 = DIMENSIONAL_EXPONENTS ( 1.000000000000000000, 0.000000000000000000, 0.000000000000000000, 0.000000000000000000, 0.000000000000000000, 0.000000000000000000, 0.000000000000000000 ) ;
#244 = CLOSED_SHELL ( 'NONE', ( #263, #29, #57, #149 ) ) ;
#245 = FILL_AREA_STYLE ('',( #184 ) ) ;
#246 = PRESENTATION_LAYER_ASSIGNMENT (  '', '', ( #73 ) ) ;
#247 = SURFACE_SIDE_STYLE ('',( #75 ) ) ;
#248 = LENGTH_MEASURE_WITH_UNIT ( LENGTH_MEASURE( 0.02539999999999999897 ), #204 );
#249 = LENGTH_MEASURE_WITH_UNIT ( LENGTH_MEASURE( 0.02539999999999999897 ), #257 );
#250 = ORIENTED_EDGE ( 'NONE', *, *, #58, .F. ) ;
#251 = DIRECTION ( 'NONE',  ( 0.000000000000000000, 0.000000000000000000, 1.000000000000000000 ) ) ;
#252 = CARTESIAN_POINT ( 'NONE',  ( -0.09375000000000001388, 0.5625000000000001110, 0.000000000000000000 ) ) ;
#253 = AXIS2_PLACEMENT_3D ( 'NONE', #69, #111, #161 ) ;
#254 = DIRECTION ( 'NONE',  ( 0.000000000000000000, -1.000000000000000000, -0.000000000000000000 ) ) ;
#255 = VERTEX_POINT ( 'NONE', #219 ) ;
#256 = FACE_OUTER_BOUND ( 'NONE', #92, .T. ) ;
#257 =( LENGTH_UNIT ( ) NAMED_UNIT ( * ) SI_UNIT ( $, .METRE. ) );
#258 = PRESENTATION_STYLE_ASSIGNMENT (( #282 ) ) ;
#259 = ORIENTED_EDGE ( 'NONE', *, *, #124, .T. ) ;
#260 = EDGE_LOOP ( 'NONE', ( #95, #14 ) ) ;
#261 = CARTESIAN_POINT ( 'NONE',  ( 0.000000000000000000, 0.000000000000000000, -0.09375000000000001388 ) ) ;
#262 =( GEOMETRIC_REPRESENTATION_CONTEXT ( 3 ) GLOBAL_UNCERTAINTY_ASSIGNED_CONTEXT ( ( #225 ) ) GLOBAL_UNIT_ASSIGNED_CONTEXT ( ( #120, #98, #174 ) ) REPRESENTATION_CONTEXT ( 'NONE', 'WORKASPACE' ) );
#263 = ADVANCED_FACE ( 'NONE', ( #10 ), #78, .T. ) ;
#264 = CARTESIAN_POINT ( 'NONE',  ( -6.123233995736766036E-17, 2.500000000000000000, 0.000000000000000000 ) ) ;
#265 =( NAMED_UNIT ( * ) PLANE_ANGLE_UNIT ( ) SI_UNIT ( $, .RADIAN. ) );
#266 = UNCERTAINTY_MEASURE_WITH_UNIT (LENGTH_MEASURE( 1.000000000000000082E-05 ), #17, 'distance_accuracy_value', 'NONE');
#267 = CARTESIAN_POINT ( 'NONE',  ( 0.000000000000000000, 0.5625000000000000000, 0.000000000000000000 ) ) ;
#268 =( GEOMETRIC_REPRESENTATION_CONTEXT ( 3 ) GLOBAL_UNCERTAINTY_ASSIGNED_CONTEXT ( ( #99 ) ) GLOBAL_UNIT_ASSIGNED_CONTEXT ( ( #43, #197, #96 ) ) REPRESENTATION_CONTEXT ( 'NONE', 'WORKASPACE' ) );
#269 = DIRECTION ( 'NONE',  ( -1.000000000000000000, 0.000000000000000000, 0.000000000000000000 ) ) ;
#270 = PRESENTATION_STYLE_ASSIGNMENT (( #104 ) ) ;
#271 = DIRECTION ( 'NONE',  ( 0.000000000000000000, 0.000000000000000000, -1.000000000000000000 ) ) ;
#272 = AXIS2_PLACEMENT_3D ( 'NONE', #192, #254, #48 ) ;
#273 = DIMENSIONAL_EXPONENTS ( 1.000000000000000000, 0.000000000000000000, 0.000000000000000000, 0.000000000000000000, 0.000000000000000000, 0.000000000000000000, 0.000000000000000000 ) ;
#274 = FILL_AREA_STYLE_COLOUR ( '', #2 ) ;
#275 = PLANE ( 'NONE',  #253 ) ;
#276 = ORIENTED_EDGE ( 'NONE', *, *, #124, .F. ) ;
#277 =( NAMED_UNIT ( * ) SI_UNIT ( $, .STERADIAN. ) SOLID_ANGLE_UNIT ( ) );
#278 =( NAMED_UNIT ( * ) SI_UNIT ( $, .STERADIAN. ) SOLID_ANGLE_UNIT ( ) );
#279 = CARTESIAN_POINT ( 'NONE',  ( -6.123233995736766036E-17, 2.500000000000000000, 0.000000000000000000 ) ) ;
#280 = PLANE ( 'NONE',  #272 ) ;
#281 = AXIS2_PLACEMENT_3D ( 'NONE', #94, #18, #61 ) ;
#282 = SURFACE_STYLE_USAGE ( .BOTH. , #91 ) ;
#283 = DIRECTION ( 'NONE',  ( -1.000000000000000000, 0.000000000000000000, 0.000000000000000000 ) ) ;
#284 = ORIENTED_EDGE ( 'NONE', *, *, #3, .T. ) ;
#285 = ORIENTED_EDGE ( 'NONE', *, *, #297, .F. ) ;
#286 = AXIS2_PLACEMENT_3D ( 'NONE', #304, #157, #21 ) ;
#287 = PRODUCT_DEFINITION_SHAPE ( 'NONE', 'NONE',  #194 ) ;
#288 = ORIENTED_EDGE ( 'NONE', *, *, #58, .T. ) ;
#289 = EDGE_CURVE ( 'NONE', #255, #114, #56, .T. ) ;
#290 = ADVANCED_BREP_SHAPE_REPRESENTATION ( '00105', ( #126, #27, #298 ), #6 ) ;
#291 = UNCERTAINTY_MEASURE_WITH_UNIT (LENGTH_MEASURE( 1.000000000000000082E-05 ), #135, 'distance_accuracy_value', 'NONE');
#292 = SURFACE_STYLE_FILL_AREA ( #245 ) ;
#293 =( CONVERSION_BASED_UNIT ( 'INCH', #180 ) LENGTH_UNIT ( ) NAMED_UNIT ( #41 ) );
#294 = AXIS2_PLACEMENT_3D ( 'NONE', #80, #168, #83 ) ;
#295 = CIRCLE ( 'NONE', #281, 0.09375000000000001388 ) ;
#296 = COLOUR_RGB ( '',0.7921568627450980005, 0.8196078431372548767, 0.9333333333333333481 ) ;
#297 = EDGE_CURVE ( 'NONE', #114, #255, #118, .T. ) ;
#298 = AXIS2_PLACEMENT_3D ( 'NONE', #70, #251, #142 ) ;
#299 = CARTESIAN_POINT ( 'NONE',  ( 0.000000000000000000, 0.000000000000000000, -0.09375000000000001388 ) ) ;
#300 =( CONVERSION_BASED_UNIT ( 'INCH', #131 ) LENGTH_UNIT ( ) NAMED_UNIT ( #106 ) );
#301 = CARTESIAN_POINT ( 'NONE',  ( 0.09375000000000001388, 2.500000000000000000, 1.148106374200644325E-17 ) ) ;
#302 = LENGTH_MEASURE_WITH_UNIT ( LENGTH_MEASURE( 0.02539999999999999897 ), #136 );
#303 = MECHANICAL_DESIGN_GEOMETRIC_PRESENTATION_REPRESENTATION (  '', ( #85 ), #262 ) ;
#304 = CARTESIAN_POINT ( 'NONE',  ( -6.123233995736766036E-17, 2.500000000000000000, 0.000000000000000000 ) ) ;
#305 = PLANE ( 'NONE',  #134 ) ;
#306 = CARTESIAN_POINT ( 'NONE',  ( 1.148106374200643863E-17, 0.000000000000000000, 0.09375000000000001388 ) ) ;
#307 = ORIENTED_EDGE ( 'NONE', *, *, #110, .F. ) ;
#308 =( CONVERSION_BASED_UNIT ( 'INCH', #249 ) LENGTH_UNIT ( ) NAMED_UNIT ( #230 ) );
#309 = ORIENTED_EDGE ( 'NONE', *, *, #66, .F. ) ;
ENDSEC;
END-ISO-10303-21;
