ISO-10303-21;
HEADER;
FILE_DESCRIPTION (( 'STEP AP214' ),
    '1' );
FILE_NAME ('Micro_SBM-187-4.STEP',
    '2021-09-02T17:01:12',
    ( '' ),
    ( '' ),
    'SwSTEP 2.0',
    'SolidWorks 2020',
    '' );
FILE_SCHEMA (( 'AUTOMOTIVE_DESIGN' ));
ENDSEC;

DATA;
#1 = VERTEX_POINT ( 'NONE', #122 ) ;
#2 = EDGE_CURVE ( 'NONE', #192, #243, #210, .T. ) ;
#3 = DIRECTION ( 'NONE',  ( -1.000000000000000000, 0.0000000000000000000, 0.0000000000000000000 ) ) ;
#4 = ADVANCED_FACE ( 'NONE', ( #37 ), #168, .T. ) ;
#5 = CYLINDRICAL_SURFACE ( 'NONE', #324, 0.07499999999999996947 ) ;
#6 = CARTESIAN_POINT ( 'NONE',  ( 0.0000000000000000000, 0.0000000000000000000, 1.412499999999996980 ) ) ;
#7 = CARTESIAN_POINT ( 'NONE',  ( 0.0000000000000000000, 0.0000000000000000000, 3.000000000000000444 ) ) ;
#8 = CARTESIAN_POINT ( 'NONE',  ( 0.0000000000000000000, 0.0000000000000000000, 0.0000000000000000000 ) ) ;
#9 = CARTESIAN_POINT ( 'NONE',  ( 0.0000000000000000000, 0.0000000000000000000, 0.09379999999999999449 ) ) ;
#10 = LINE ( 'NONE', #177, #31 ) ;
#11 = DIRECTION ( 'NONE',  ( -0.0000000000000000000, -0.0000000000000000000, -1.000000000000000000 ) ) ;
#12 = CARTESIAN_POINT ( 'NONE',  ( 0.0000000000000000000, 0.0000000000000000000, 1.199999999999999956 ) ) ;
#13 = CARTESIAN_POINT ( 'NONE',  ( 0.0000000000000000000, 0.0000000000000000000, 3.000000000000000444 ) ) ;
#14 = EDGE_CURVE ( 'NONE', #340, #214, #267, .T. ) ;
#15 = DIRECTION ( 'NONE',  ( 0.0000000000000000000, 0.0000000000000000000, -1.000000000000000000 ) ) ;
#16 = MECHANICAL_DESIGN_GEOMETRIC_PRESENTATION_REPRESENTATION (  '', ( #78 ), #27 ) ;
#17 = CARTESIAN_POINT ( 'NONE',  ( 0.0000000000000000000, 0.0000000000000000000, 0.09379999999999999449 ) ) ;
#18 = AXIS2_PLACEMENT_3D ( 'NONE', #255, #3, #326 ) ;
#19 = EDGE_LOOP ( 'NONE', ( #22, #161, #80, #264 ) ) ;
#20 = EDGE_LOOP ( 'NONE', ( #298, #185, #104, #321 ) ) ;
#21 = AXIS2_PLACEMENT_3D ( 'NONE', #206, #47, #315 ) ;
#22 = ORIENTED_EDGE ( 'NONE', *, *, #294, .T. ) ;
#23 =( GEOMETRIC_REPRESENTATION_CONTEXT ( 3 ) GLOBAL_UNCERTAINTY_ASSIGNED_CONTEXT ( ( #228 ) ) GLOBAL_UNIT_ASSIGNED_CONTEXT ( ( #212, #98, #101 ) ) REPRESENTATION_CONTEXT ( 'NONE', 'WORKASPACE' ) );
#24 = CLOSED_SHELL ( 'NONE', ( #28, #248, #76, #336, #66, #4, #338, #278, #157, #108, #226 ) ) ;
#25 = ORIENTED_EDGE ( 'NONE', *, *, #162, .T. ) ;
#26 = EDGE_LOOP ( 'NONE', ( #265, #137, #25, #188 ) ) ;
#27 =( GEOMETRIC_REPRESENTATION_CONTEXT ( 3 ) GLOBAL_UNCERTAINTY_ASSIGNED_CONTEXT ( ( #65 ) ) GLOBAL_UNIT_ASSIGNED_CONTEXT ( ( #276, #198, #142 ) ) REPRESENTATION_CONTEXT ( 'NONE', 'WORKASPACE' ) );
#28 = ADVANCED_FACE ( 'NONE', ( #197 ), #5, .T. ) ;
#29 = DIRECTION ( 'NONE',  ( 1.000000000000000000, 0.0000000000000000000, 0.0000000000000000000 ) ) ;
#30 = FILL_AREA_STYLE ('',( #145 ) ) ;
#31 = VECTOR ( 'NONE', #312, 39.37007874015748143 ) ;
#32 = SPHERICAL_SURFACE ( 'NONE', #43, 0.09379999999999999449 ) ;
#33 =( CONVERSION_BASED_UNIT ( 'INCH', #172 ) LENGTH_UNIT ( ) NAMED_UNIT ( #96 ) );
#34 = DIRECTION ( 'NONE',  ( -0.0000000000000000000, -0.0000000000000000000, -1.000000000000000000 ) ) ;
#35 = UNCERTAINTY_MEASURE_WITH_UNIT (LENGTH_MEASURE( 1.000000000000000082E-05 ), #33, 'distance_accuracy_value', 'NONE');
#36 =( NAMED_UNIT ( * ) SI_UNIT ( $, .STERADIAN. ) SOLID_ANGLE_UNIT ( ) );
#37 = FACE_OUTER_BOUND ( 'NONE', #323, .T. ) ;
#38 = AXIS2_PLACEMENT_3D ( 'NONE', #6, #113, #225 ) ;
#39 = DIRECTION ( 'NONE',  ( 0.0000000000000000000, 0.0000000000000000000, 1.000000000000000000 ) ) ;
#40 = VECTOR ( 'NONE', #286, 39.37007874015748143 ) ;
#41 = FILL_AREA_STYLE ('',( #124 ) ) ;
#42 = CARTESIAN_POINT ( 'NONE',  ( 0.0000000000000000000, 0.0000000000000000000, 0.0000000000000000000 ) ) ;
#43 = AXIS2_PLACEMENT_3D ( 'NONE', #224, #29, #67 ) ;
#44 = VECTOR ( 'NONE', #201, 39.37007874015747433 ) ;
#45 = SURFACE_STYLE_FILL_AREA ( #41 ) ;
#46 = AXIS2_PLACEMENT_3D ( 'NONE', #70, #149, #148 ) ;
#47 = DIRECTION ( 'NONE',  ( 0.0000000000000000000, 0.0000000000000000000, -1.000000000000000000 ) ) ;
#48 = PLANE ( 'NONE',  #292 ) ;
#49 = ORIENTED_EDGE ( 'NONE', *, *, #189, .F. ) ;
#50 = CONICAL_SURFACE ( 'NONE', #56, 0.1374999999999998446, 0.05875582271572274418 ) ;
#51 = VERTEX_POINT ( 'NONE', #144 ) ;
#52 = VERTEX_POINT ( 'NONE', #254 ) ;
#53 = AXIS2_PLACEMENT_3D ( 'NONE', #17, #261, #313 ) ;
#54 = EDGE_CURVE ( 'NONE', #52, #192, #164, .T. ) ;
#55 = ORIENTED_EDGE ( 'NONE', *, *, #54, .F. ) ;
#56 = AXIS2_PLACEMENT_3D ( 'NONE', #274, #95, #140 ) ;
#57 = ORIENTED_EDGE ( 'NONE', *, *, #305, .T. ) ;
#58 = DIRECTION ( 'NONE',  ( -0.0000000000000000000, -0.0000000000000000000, -1.000000000000000000 ) ) ;
#59 = CIRCLE ( 'NONE', #160, 0.07499999999999998335 ) ;
#60 = DIRECTION ( 'NONE',  ( -0.0000000000000000000, -0.0000000000000000000, -1.000000000000000000 ) ) ;
#61 = SURFACE_SIDE_STYLE ('',( #169 ) ) ;
#62 = VECTOR ( 'NONE', #258, 39.37007874015747433 ) ;
#63 = DIRECTION ( 'NONE',  ( -1.000000000000000000, 0.0000000000000000000, 0.0000000000000000000 ) ) ;
#64 = CARTESIAN_POINT ( 'NONE',  ( 0.0000000000000000000, 5.743593488001086766E-18, 0.0000000000000000000 ) ) ;
#65 = UNCERTAINTY_MEASURE_WITH_UNIT (LENGTH_MEASURE( 1.000000000000000082E-05 ), #276, 'distance_accuracy_value', 'NONE');
#66 = ADVANCED_FACE ( 'NONE', ( #303 ), #306, .T. ) ;
#67 = DIRECTION ( 'NONE',  ( 0.0000000000000000000, 1.000000000000000000, 0.0000000000000000000 ) ) ;
#68 = CIRCLE ( 'NONE', #151, 0.1100000000000004446 ) ;
#69 = SURFACE_SIDE_STYLE ('',( #45 ) ) ;
#70 = CARTESIAN_POINT ( 'NONE',  ( 0.0000000000000000000, 0.0000000000000000000, 0.3499999999999999778 ) ) ;
#71 = DIRECTION ( 'NONE',  ( 0.0000000000000000000, 0.0000000000000000000, -1.000000000000000000 ) ) ;
#72 = AXIS2_PLACEMENT_3D ( 'NONE', #178, #318, #239 ) ;
#73 = CARTESIAN_POINT ( 'NONE',  ( 0.0000000000000000000, 0.0000000000000000000, 3.000000000000000444 ) ) ;
#74 = CARTESIAN_POINT ( 'NONE',  ( -0.1250000000000000000, 0.0000000000000000000, 2.985000000000001208 ) ) ;
#75 = FACE_OUTER_BOUND ( 'NONE', #133, .T. ) ;
#76 = ADVANCED_FACE ( 'NONE', ( #250 ), #50, .T. ) ;
#77 = DIRECTION ( 'NONE',  ( -1.000000000000000000, 0.0000000000000000000, 0.0000000000000000000 ) ) ;
#78 = STYLED_ITEM ( 'NONE', ( #92 ), #141 ) ;
#79 = LINE ( 'NONE', #131, #40 ) ;
#80 = ORIENTED_EDGE ( 'NONE', *, *, #81, .T. ) ;
#81 = EDGE_CURVE ( 'NONE', #52, #106, #175, .T. ) ;
#82 = VERTEX_POINT ( 'NONE', #252 ) ;
#83 = PRODUCT_DEFINITION ( 'UNKNOWN', '', #123, #114 ) ;
#84 = ORIENTED_EDGE ( 'NONE', *, *, #305, .F. ) ;
#85 = VERTEX_POINT ( 'NONE', #199 ) ;
#86 = AXIS2_PLACEMENT_3D ( 'NONE', #328, #272, #63 ) ;
#87 = EDGE_CURVE ( 'NONE', #82, #51, #343, .T. ) ;
#88 = VERTEX_POINT ( 'NONE', #89 ) ;
#89 = CARTESIAN_POINT ( 'NONE',  ( 0.1250000000000000000, 1.530808498934191201E-17, 1.199999999999999956 ) ) ;
#90 = SHAPE_DEFINITION_REPRESENTATION ( #281, #141 ) ;
#91 = ORIENTED_EDGE ( 'NONE', *, *, #173, .T. ) ;
#92 = PRESENTATION_STYLE_ASSIGNMENT (( #115 ) ) ;
#93 = AXIS2_PLACEMENT_3D ( 'NONE', #280, #111, #331 ) ;
#94 = DIRECTION ( 'NONE',  ( -1.000000000000000000, 0.0000000000000000000, 0.0000000000000000000 ) ) ;
#95 = DIRECTION ( 'NONE',  ( 0.0000000000000000000, 0.0000000000000000000, 1.000000000000000000 ) ) ;
#96 = DIMENSIONAL_EXPONENTS ( 1.000000000000000000, 0.0000000000000000000, 0.0000000000000000000, 0.0000000000000000000, 0.0000000000000000000, 0.0000000000000000000, 0.0000000000000000000 ) ;
#97 = CARTESIAN_POINT ( 'NONE',  ( 0.0000000000000000000, 0.0000000000000000000, 0.3499999999999999778 ) ) ;
#98 =( NAMED_UNIT ( * ) PLANE_ANGLE_UNIT ( ) SI_UNIT ( $, .RADIAN. ) );
#99 = DIRECTION ( 'NONE',  ( 0.7071067811865566766, 8.659560562355046257E-17, -0.7071067811865382469 ) ) ;
#100 = FACE_OUTER_BOUND ( 'NONE', #19, .T. ) ;
#101 =( NAMED_UNIT ( * ) SI_UNIT ( $, .STERADIAN. ) SOLID_ANGLE_UNIT ( ) );
#102 = CIRCLE ( 'NONE', #18, 0.09379999999999999449 ) ;
#103 =( LENGTH_UNIT ( ) NAMED_UNIT ( * ) SI_UNIT ( $, .METRE. ) );
#104 = ORIENTED_EDGE ( 'NONE', *, *, #2, .T. ) ;
#105 = EDGE_LOOP ( 'NONE', ( #293, #159, #242, #174 ) ) ;
#106 = VERTEX_POINT ( 'NONE', #64 ) ;
#107 = ORIENTED_EDGE ( 'NONE', *, *, #121, .F. ) ;
#108 = ADVANCED_FACE ( 'NONE', ( #277 ), #32, .T. ) ;
#109 = ORIENTED_EDGE ( 'NONE', *, *, #14, .F. ) ;
#110 = DIRECTION ( 'NONE',  ( 1.000000000000000000, 0.0000000000000000000, 0.0000000000000000000 ) ) ;
#111 = DIRECTION ( 'NONE',  ( -0.0000000000000000000, -0.0000000000000000000, -1.000000000000000000 ) ) ;
#112 =( NAMED_UNIT ( * ) PLANE_ANGLE_UNIT ( ) SI_UNIT ( $, .RADIAN. ) );
#113 = DIRECTION ( 'NONE',  ( 0.0000000000000000000, 0.0000000000000000000, 1.000000000000000000 ) ) ;
#114 = PRODUCT_DEFINITION_CONTEXT ( 'detailed design', #233, 'design' ) ;
#115 = SURFACE_STYLE_USAGE ( .BOTH. , #61 ) ;
#116 = EDGE_CURVE ( 'NONE', #82, #192, #327, .T. ) ;
#117 = AXIS2_PLACEMENT_3D ( 'NONE', #12, #152, #126 ) ;
#118 = AXIS2_PLACEMENT_3D ( 'NONE', #193, #279, #110 ) ;
#119 = DIRECTION ( 'NONE',  ( -0.0000000000000000000, -0.0000000000000000000, -1.000000000000000000 ) ) ;
#120 = DIRECTION ( 'NONE',  ( 1.000000000000000000, 0.0000000000000000000, 0.0000000000000000000 ) ) ;
#121 = EDGE_CURVE ( 'NONE', #1, #85, #333, .T. ) ;
#122 = CARTESIAN_POINT ( 'NONE',  ( -0.1100000000000004446, 0.0000000000000000000, 3.000000000000000444 ) ) ;
#123 = PRODUCT_DEFINITION_FORMATION_WITH_SPECIFIED_SOURCE ( 'ANY', '', #249, .NOT_KNOWN. ) ;
#124 = FILL_AREA_STYLE_COLOUR ( '', #234 ) ;
#125 = CARTESIAN_POINT ( 'NONE',  ( 0.0000000000000000000, 0.0000000000000000000, 3.000000000000000444 ) ) ;
#126 = DIRECTION ( 'NONE',  ( 1.000000000000000000, 0.0000000000000000000, 0.0000000000000000000 ) ) ;
#127 = DIRECTION ( 'NONE',  ( 1.000000000000000000, 0.0000000000000000000, -0.0000000000000000000 ) ) ;
#128 = LENGTH_MEASURE_WITH_UNIT ( LENGTH_MEASURE( 0.02539999999999999897 ), #103 );
#129 = DIRECTION ( 'NONE',  ( -0.7071067811865566766, 0.0000000000000000000, -0.7071067811865382469 ) ) ;
#130 = AXIS2_PLACEMENT_3D ( 'NONE', #179, #260, #314 ) ;
#131 = CARTESIAN_POINT ( 'NONE',  ( 0.07499999999999996947, 9.184850993605145664E-18, 0.0000000000000000000 ) ) ;
#132 = EDGE_CURVE ( 'NONE', #243, #106, #102, .T. ) ;
#133 = EDGE_LOOP ( 'NONE', ( #268, #91 ) ) ;
#134 = ORIENTED_EDGE ( 'NONE', *, *, #116, .F. ) ;
#135 = ORIENTED_EDGE ( 'NONE', *, *, #209, .F. ) ;
#136 = ORIENTED_EDGE ( 'NONE', *, *, #166, .T. ) ;
#137 = ORIENTED_EDGE ( 'NONE', *, *, #209, .T. ) ;
#138 =( GEOMETRIC_REPRESENTATION_CONTEXT ( 3 ) GLOBAL_UNCERTAINTY_ASSIGNED_CONTEXT ( ( #35 ) ) GLOBAL_UNIT_ASSIGNED_CONTEXT ( ( #33, #112, #36 ) ) REPRESENTATION_CONTEXT ( 'NONE', 'WORKASPACE' ) );
#139 = EDGE_LOOP ( 'NONE', ( #163, #107, #221, #84 ) ) ;
#140 = DIRECTION ( 'NONE',  ( 1.000000000000000000, 0.0000000000000000000, 0.0000000000000000000 ) ) ;
#141 = ADVANCED_BREP_SHAPE_REPRESENTATION ( 'Micro_SBM-187-4', ( #211, #217 ), #138 ) ;
#142 =( NAMED_UNIT ( * ) SI_UNIT ( $, .STERADIAN. ) SOLID_ANGLE_UNIT ( ) );
#143 = ORIENTED_EDGE ( 'NONE', *, *, #166, .F. ) ;
#144 = CARTESIAN_POINT ( 'NONE',  ( 0.07499999999999995559, 0.0000000000000000000, 0.3499999999999999778 ) ) ;
#145 = FILL_AREA_STYLE_COLOUR ( '', #297 ) ;
#146 = CONICAL_SURFACE ( 'NONE', #38, 0.1374999999999998446, 0.05875582271572274418 ) ;
#147 = DIRECTION ( 'NONE',  ( 1.000000000000000000, 0.0000000000000000000, 0.0000000000000000000 ) ) ;
#148 = DIRECTION ( 'NONE',  ( -1.000000000000000000, 0.0000000000000000000, 0.0000000000000000000 ) ) ;
#149 = DIRECTION ( 'NONE',  ( -0.0000000000000000000, -0.0000000000000000000, -1.000000000000000000 ) ) ;
#150 = DIRECTION ( 'NONE',  ( -1.000000000000000000, 0.0000000000000000000, 0.0000000000000000000 ) ) ;
#151 = AXIS2_PLACEMENT_3D ( 'NONE', #73, #235, #285 ) ;
#152 = DIRECTION ( 'NONE',  ( 0.0000000000000000000, 0.0000000000000000000, 1.000000000000000000 ) ) ;
#153 = LINE ( 'NONE', #181, #238 ) ;
#154 = SPHERICAL_SURFACE ( 'NONE', #53, 0.09379999999999999449 ) ;
#155 = CIRCLE ( 'NONE', #21, 0.1250000000000000000 ) ;
#156 = CARTESIAN_POINT ( 'NONE',  ( 0.1250000000000000000, 1.530808498934191201E-17, 2.985000000000001208 ) ) ;
#157 = ADVANCED_FACE ( 'NONE', ( #253 ), #146, .T. ) ;
#158 = ORIENTED_EDGE ( 'NONE', *, *, #294, .F. ) ;
#159 = ORIENTED_EDGE ( 'NONE', *, *, #189, .T. ) ;
#160 = AXIS2_PLACEMENT_3D ( 'NONE', #207, #259, #337 ) ;
#161 = ORIENTED_EDGE ( 'NONE', *, *, #187, .T. ) ;
#162 = EDGE_CURVE ( 'NONE', #88, #247, #282, .T. ) ;
#163 = ORIENTED_EDGE ( 'NONE', *, *, #204, .F. ) ;
#164 = CIRCLE ( 'NONE', #86, 0.07499999999999998335 ) ;
#165 = ORIENTED_EDGE ( 'NONE', *, *, #219, .F. ) ;
#166 = EDGE_CURVE ( 'NONE', #51, #82, #220, .T. ) ;
#167 = DIRECTION ( 'NONE',  ( -1.000000000000000000, 0.0000000000000000000, 0.0000000000000000000 ) ) ;
#168 = CYLINDRICAL_SURFACE ( 'NONE', #191, 0.1250000000000000000 ) ;
#169 = SURFACE_STYLE_FILL_AREA ( #30 ) ;
#170 = EDGE_CURVE ( 'NONE', #51, #88, #335, .T. ) ;
#171 = DIRECTION ( 'NONE',  ( -1.000000000000000000, 0.0000000000000000000, 0.0000000000000000000 ) ) ;
#172 = LENGTH_MEASURE_WITH_UNIT ( LENGTH_MEASURE( 0.02539999999999999897 ), #288 );
#173 = EDGE_CURVE ( 'NONE', #85, #1, #68, .T. ) ;
#174 = ORIENTED_EDGE ( 'NONE', *, *, #170, .F. ) ;
#175 = CIRCLE ( 'NONE', #275, 0.09379999999999999449 ) ;
#176 = SURFACE_STYLE_USAGE ( .BOTH. , #69 ) ;
#177 = CARTESIAN_POINT ( 'NONE',  ( 0.1250000000000000000, 1.530808498934191201E-17, 3.000000000000000444 ) ) ;
#178 = CARTESIAN_POINT ( 'NONE',  ( 0.0000000000000000000, 0.0000000000000000000, 1.199999999999999956 ) ) ;
#179 = CARTESIAN_POINT ( 'NONE',  ( 0.0000000000000000000, 0.0000000000000000000, 0.1501332938855878263 ) ) ;
#180 = CARTESIAN_POINT ( 'NONE',  ( -0.1100000000000004446, 0.0000000000000000000, 3.000000000000000444 ) ) ;
#181 = CARTESIAN_POINT ( 'NONE',  ( -0.1250000000000000000, 0.0000000000000000000, 3.000000000000000444 ) ) ;
#182 = CYLINDRICAL_SURFACE ( 'NONE', #311, 0.07499999999999996947 ) ;
#183 = AXIS2_PLACEMENT_3D ( 'NONE', #222, #39, #147 ) ;
#184 = AXIS2_PLACEMENT_3D ( 'NONE', #7, #119, #171 ) ;
#185 = ORIENTED_EDGE ( 'NONE', *, *, #54, .T. ) ;
#186 = ORIENTED_EDGE ( 'NONE', *, *, #204, .T. ) ;
#187 = EDGE_CURVE ( 'NONE', #215, #52, #263, .T. ) ;
#188 = ORIENTED_EDGE ( 'NONE', *, *, #269, .F. ) ;
#189 = EDGE_CURVE ( 'NONE', #82, #247, #205, .T. ) ;
#190 = ORIENTED_EDGE ( 'NONE', *, *, #291, .T. ) ;
#191 = AXIS2_PLACEMENT_3D ( 'NONE', #300, #58, #195 ) ;
#192 = VERTEX_POINT ( 'NONE', #310 ) ;
#193 = CARTESIAN_POINT ( 'NONE',  ( 0.0000000000000000000, 0.0000000000000000000, 2.985000000000001208 ) ) ;
#194 = AXIS2_PLACEMENT_3D ( 'NONE', #317, #71, #77 ) ;
#195 = DIRECTION ( 'NONE',  ( -1.000000000000000000, 0.0000000000000000000, 0.0000000000000000000 ) ) ;
#196 = AXIS2_PLACEMENT_3D ( 'NONE', #97, #60, #94 ) ;
#197 = FACE_OUTER_BOUND ( 'NONE', #325, .T. ) ;
#198 =( NAMED_UNIT ( * ) PLANE_ANGLE_UNIT ( ) SI_UNIT ( $, .RADIAN. ) );
#199 = CARTESIAN_POINT ( 'NONE',  ( 0.1100000000000004446, 1.438959988998142687E-17, 3.000000000000000444 ) ) ;
#200 = DIMENSIONAL_EXPONENTS ( 1.000000000000000000, 0.0000000000000000000, 0.0000000000000000000, 0.0000000000000000000, 0.0000000000000000000, 0.0000000000000000000, 0.0000000000000000000 ) ;
#201 = DIRECTION ( 'NONE',  ( -0.05872202195147040865, 7.191373622232884802E-18, 0.9982743731749960103 ) ) ;
#202 = CARTESIAN_POINT ( 'NONE',  ( 0.1374999999999998446, 0.0000000000000000000, 1.412499999999996980 ) ) ;
#203 = DIRECTION ( 'NONE',  ( 0.0000000000000000000, 0.0000000000000000000, 1.000000000000000000 ) ) ;
#204 = EDGE_CURVE ( 'NONE', #85, #214, #231, .T. ) ;
#205 = LINE ( 'NONE', #256, #44 ) ;
#206 = CARTESIAN_POINT ( 'NONE',  ( 0.0000000000000000000, 0.0000000000000000000, 2.985000000000001208 ) ) ;
#207 = CARTESIAN_POINT ( 'NONE',  ( 0.0000000000000000000, 0.0000000000000000000, 0.1501332938855878263 ) ) ;
#208 = VECTOR ( 'NONE', #129, 39.37007874015748854 ) ;
#209 = EDGE_CURVE ( 'NONE', #214, #88, #10, .T. ) ;
#210 = CIRCLE ( 'NONE', #93, 0.07499999999999998335 ) ;
#211 = MANIFOLD_SOLID_BREP ( 'Cut-Revolve3', #24 ) ;
#212 =( CONVERSION_BASED_UNIT ( 'INCH', #128 ) LENGTH_UNIT ( ) NAMED_UNIT ( #200 ) );
#213 = AXIS2_PLACEMENT_3D ( 'NONE', #125, #15, #232 ) ;
#214 = VERTEX_POINT ( 'NONE', #156 ) ;
#215 = VERTEX_POINT ( 'NONE', #257 ) ;
#216 = ORIENTED_EDGE ( 'NONE', *, *, #2, .F. ) ;
#217 = AXIS2_PLACEMENT_3D ( 'NONE', #8, #301, #120 ) ;
#218 = EDGE_LOOP ( 'NONE', ( #49, #143, #270, #345 ) ) ;
#219 = EDGE_CURVE ( 'NONE', #1, #340, #287, .T. ) ;
#220 = CIRCLE ( 'NONE', #46, 0.07499999999999995559 ) ;
#221 = ORIENTED_EDGE ( 'NONE', *, *, #219, .T. ) ;
#222 = CARTESIAN_POINT ( 'NONE',  ( 0.0000000000000000000, 0.0000000000000000000, 3.000000000000000444 ) ) ;
#223 = CIRCLE ( 'NONE', #72, 0.1250000000000000000 ) ;
#224 = CARTESIAN_POINT ( 'NONE',  ( 0.0000000000000000000, 0.0000000000000000000, 0.09379999999999999449 ) ) ;
#225 = DIRECTION ( 'NONE',  ( 1.000000000000000000, 0.0000000000000000000, 0.0000000000000000000 ) ) ;
#226 = ADVANCED_FACE ( 'NONE', ( #262 ), #182, .T. ) ;
#227 = CARTESIAN_POINT ( 'NONE',  ( 0.0000000000000000000, 0.0000000000000000000, 0.0000000000000000000 ) ) ;
#228 = UNCERTAINTY_MEASURE_WITH_UNIT (LENGTH_MEASURE( 1.000000000000000082E-05 ), #212, 'distance_accuracy_value', 'NONE');
#229 = PRODUCT_CONTEXT ( 'NONE', #240, 'mechanical' ) ;
#230 = DIRECTION ( 'NONE',  ( -1.224646799147353207E-16, 1.000000000000000000, 0.0000000000000000000 ) ) ;
#231 = LINE ( 'NONE', #332, #342 ) ;
#232 = DIRECTION ( 'NONE',  ( -1.000000000000000000, 0.0000000000000000000, 0.0000000000000000000 ) ) ;
#233 = APPLICATION_CONTEXT ( 'automotive_design' ) ;
#234 = COLOUR_RGB ( '',0.7921568627450980005, 0.8196078431372548767, 0.9333333333333333481 ) ;
#235 = DIRECTION ( 'NONE',  ( 0.0000000000000000000, 0.0000000000000000000, 1.000000000000000000 ) ) ;
#236 = EDGE_CURVE ( 'NONE', #51, #215, #79, .T. ) ;
#237 = FACE_OUTER_BOUND ( 'NONE', #139, .T. ) ;
#238 = VECTOR ( 'NONE', #11, 39.37007874015748143 ) ;
#239 = DIRECTION ( 'NONE',  ( 1.000000000000000000, 0.0000000000000000000, 0.0000000000000000000 ) ) ;
#240 = APPLICATION_CONTEXT ( 'automotive_design' ) ;
#241 = CARTESIAN_POINT ( 'NONE',  ( 0.0000000000000000000, 0.07499999999999998335, 0.1501332938855878263 ) ) ;
#242 = ORIENTED_EDGE ( 'NONE', *, *, #162, .F. ) ;
#243 = VERTEX_POINT ( 'NONE', #241 ) ;
#244 = STYLED_ITEM ( 'NONE', ( #283 ), #211 ) ;
#245 = ORIENTED_EDGE ( 'NONE', *, *, #187, .F. ) ;
#246 = ORIENTED_EDGE ( 'NONE', *, *, #236, .F. ) ;
#247 = VERTEX_POINT ( 'NONE', #339 ) ;
#248 = ADVANCED_FACE ( 'NONE', ( #100 ), #154, .T. ) ;
#249 = PRODUCT ( 'Micro_SBM-187-4', 'Micro_SBM-187-4', '', ( #229 ) ) ;
#250 = FACE_OUTER_BOUND ( 'NONE', #105, .T. ) ;
#251 =( LENGTH_UNIT ( ) NAMED_UNIT ( * ) SI_UNIT ( $, .METRE. ) );
#252 = CARTESIAN_POINT ( 'NONE',  ( -0.07499999999999995559, 1.224646799147352807E-17, 0.3499999999999999778 ) ) ;
#253 = FACE_OUTER_BOUND ( 'NONE', #218, .T. ) ;
#254 = CARTESIAN_POINT ( 'NONE',  ( 9.184850993605145664E-18, -0.07499999999999998335, 0.1501332938855878263 ) ) ;
#255 = CARTESIAN_POINT ( 'NONE',  ( 0.0000000000000000000, 0.0000000000000000000, 0.09379999999999999449 ) ) ;
#256 = CARTESIAN_POINT ( 'NONE',  ( -0.1374999999999998446, 1.683889348827608472E-17, 1.412499999999996980 ) ) ;
#257 = CARTESIAN_POINT ( 'NONE',  ( 0.07499999999999998335, 9.184850993605147205E-18, 0.1501332938855878263 ) ) ;
#258 = DIRECTION ( 'NONE',  ( 0.05872202195147040865, 0.0000000000000000000, 0.9982743731749960103 ) ) ;
#259 = DIRECTION ( 'NONE',  ( -0.0000000000000000000, -0.0000000000000000000, -1.000000000000000000 ) ) ;
#260 = DIRECTION ( 'NONE',  ( -0.0000000000000000000, -0.0000000000000000000, -1.000000000000000000 ) ) ;
#261 = DIRECTION ( 'NONE',  ( 1.000000000000000000, 0.0000000000000000000, 0.0000000000000000000 ) ) ;
#262 = FACE_OUTER_BOUND ( 'NONE', #322, .T. ) ;
#263 = CIRCLE ( 'NONE', #130, 0.07499999999999998335 ) ;
#264 = ORIENTED_EDGE ( 'NONE', *, *, #132, .F. ) ;
#265 = ORIENTED_EDGE ( 'NONE', *, *, #14, .T. ) ;
#266 = ORIENTED_EDGE ( 'NONE', *, *, #87, .T. ) ;
#267 = CIRCLE ( 'NONE', #118, 0.1250000000000000000 ) ;
#268 = ORIENTED_EDGE ( 'NONE', *, *, #121, .T. ) ;
#269 = EDGE_CURVE ( 'NONE', #340, #247, #153, .T. ) ;
#270 = ORIENTED_EDGE ( 'NONE', *, *, #170, .T. ) ;
#271 = CONICAL_SURFACE ( 'NONE', #213, 0.1100000000000004446, 0.7853981633974613796 ) ;
#272 = DIRECTION ( 'NONE',  ( -0.0000000000000000000, -0.0000000000000000000, -1.000000000000000000 ) ) ;
#273 = MECHANICAL_DESIGN_GEOMETRIC_PRESENTATION_REPRESENTATION (  '', ( #244 ), #23 ) ;
#274 = CARTESIAN_POINT ( 'NONE',  ( 0.0000000000000000000, 0.0000000000000000000, 1.412499999999996980 ) ) ;
#275 = AXIS2_PLACEMENT_3D ( 'NONE', #9, #329, #230 ) ;
#276 =( CONVERSION_BASED_UNIT ( 'INCH', #304 ) LENGTH_UNIT ( ) NAMED_UNIT ( #295 ) );
#277 = FACE_OUTER_BOUND ( 'NONE', #20, .T. ) ;
#278 = ADVANCED_FACE ( 'NONE', ( #237 ), #271, .T. ) ;
#279 = DIRECTION ( 'NONE',  ( 0.0000000000000000000, 0.0000000000000000000, -1.000000000000000000 ) ) ;
#280 = CARTESIAN_POINT ( 'NONE',  ( 0.0000000000000000000, 0.0000000000000000000, 0.1501332938855878263 ) ) ;
#281 = PRODUCT_DEFINITION_SHAPE ( 'NONE', 'NONE',  #83 ) ;
#282 = CIRCLE ( 'NONE', #117, 0.1250000000000000000 ) ;
#283 = PRESENTATION_STYLE_ASSIGNMENT (( #176 ) ) ;
#284 = PRODUCT_RELATED_PRODUCT_CATEGORY ( 'part', '', ( #249 ) ) ;
#285 = DIRECTION ( 'NONE',  ( 1.000000000000000000, 0.0000000000000000000, 0.0000000000000000000 ) ) ;
#286 = DIRECTION ( 'NONE',  ( -0.0000000000000000000, -0.0000000000000000000, -1.000000000000000000 ) ) ;
#287 = LINE ( 'NONE', #180, #208 ) ;
#288 =( LENGTH_UNIT ( ) NAMED_UNIT ( * ) SI_UNIT ( $, .METRE. ) );
#289 = PRESENTATION_LAYER_ASSIGNMENT (  '', '', ( #244 ) ) ;
#290 = DIRECTION ( 'NONE',  ( -0.0000000000000000000, -0.0000000000000000000, -1.000000000000000000 ) ) ;
#291 = EDGE_CURVE ( 'NONE', #247, #88, #223, .T. ) ;
#292 = AXIS2_PLACEMENT_3D ( 'NONE', #13, #203, #127 ) ;
#293 = ORIENTED_EDGE ( 'NONE', *, *, #87, .F. ) ;
#294 = EDGE_CURVE ( 'NONE', #243, #215, #59, .T. ) ;
#295 = DIMENSIONAL_EXPONENTS ( 1.000000000000000000, 0.0000000000000000000, 0.0000000000000000000, 0.0000000000000000000, 0.0000000000000000000, 0.0000000000000000000, 0.0000000000000000000 ) ;
#296 = ORIENTED_EDGE ( 'NONE', *, *, #173, .F. ) ;
#297 = COLOUR_RGB ( '',0.7921568627450980005, 0.8196078431372548767, 0.9333333333333333481 ) ;
#298 = ORIENTED_EDGE ( 'NONE', *, *, #81, .F. ) ;
#299 = EDGE_LOOP ( 'NONE', ( #296, #186, #109, #165 ) ) ;
#300 = CARTESIAN_POINT ( 'NONE',  ( 0.0000000000000000000, 0.0000000000000000000, 3.000000000000000444 ) ) ;
#301 = DIRECTION ( 'NONE',  ( 0.0000000000000000000, 0.0000000000000000000, 1.000000000000000000 ) ) ;
#302 = PRESENTATION_LAYER_ASSIGNMENT (  '', '', ( #78 ) ) ;
#303 = FACE_OUTER_BOUND ( 'NONE', #26, .T. ) ;
#304 = LENGTH_MEASURE_WITH_UNIT ( LENGTH_MEASURE( 0.02539999999999999897 ), #251 );
#305 = EDGE_CURVE ( 'NONE', #214, #340, #155, .T. ) ;
#306 = CYLINDRICAL_SURFACE ( 'NONE', #184, 0.1250000000000000000 ) ;
#307 = APPLICATION_PROTOCOL_DEFINITION ( 'draft international standard', 'automotive_design', 1998, #240 ) ;
#308 = DIRECTION ( 'NONE',  ( -0.0000000000000000000, -0.0000000000000000000, -1.000000000000000000 ) ) ;
#309 = CARTESIAN_POINT ( 'NONE',  ( -0.07499999999999996947, 0.0000000000000000000, 0.0000000000000000000 ) ) ;
#310 = CARTESIAN_POINT ( 'NONE',  ( -0.07499999999999998335, 0.0000000000000000000, 0.1501332938855878263 ) ) ;
#311 = AXIS2_PLACEMENT_3D ( 'NONE', #42, #290, #150 ) ;
#312 = DIRECTION ( 'NONE',  ( -0.0000000000000000000, -0.0000000000000000000, -1.000000000000000000 ) ) ;
#313 = DIRECTION ( 'NONE',  ( 0.0000000000000000000, 1.000000000000000000, 0.0000000000000000000 ) ) ;
#314 = DIRECTION ( 'NONE',  ( -1.000000000000000000, 0.0000000000000000000, 0.0000000000000000000 ) ) ;
#315 = DIRECTION ( 'NONE',  ( 1.000000000000000000, 0.0000000000000000000, 0.0000000000000000000 ) ) ;
#316 = VECTOR ( 'NONE', #34, 39.37007874015748143 ) ;
#317 = CARTESIAN_POINT ( 'NONE',  ( 0.0000000000000000000, 0.0000000000000000000, 3.000000000000000444 ) ) ;
#318 = DIRECTION ( 'NONE',  ( 0.0000000000000000000, 0.0000000000000000000, 1.000000000000000000 ) ) ;
#319 = CONICAL_SURFACE ( 'NONE', #194, 0.1100000000000004446, 0.7853981633974613796 ) ;
#320 = ORIENTED_EDGE ( 'NONE', *, *, #236, .T. ) ;
#321 = ORIENTED_EDGE ( 'NONE', *, *, #132, .T. ) ;
#322 = EDGE_LOOP ( 'NONE', ( #246, #136, #344, #55, #245 ) ) ;
#323 = EDGE_LOOP ( 'NONE', ( #135, #57, #341, #190 ) ) ;
#324 = AXIS2_PLACEMENT_3D ( 'NONE', #227, #308, #167 ) ;
#325 = EDGE_LOOP ( 'NONE', ( #266, #320, #158, #216, #134 ) ) ;
#326 = DIRECTION ( 'NONE',  ( 0.0000000000000000000, 0.0000000000000000000, 1.000000000000000000 ) ) ;
#327 = LINE ( 'NONE', #309, #316 ) ;
#328 = CARTESIAN_POINT ( 'NONE',  ( 0.0000000000000000000, 0.0000000000000000000, 0.1501332938855878263 ) ) ;
#329 = DIRECTION ( 'NONE',  ( 1.000000000000000000, 1.224646799147353207E-16, -0.0000000000000000000 ) ) ;
#330 = APPLICATION_PROTOCOL_DEFINITION ( 'draft international standard', 'automotive_design', 1998, #233 ) ;
#331 = DIRECTION ( 'NONE',  ( -1.000000000000000000, 0.0000000000000000000, 0.0000000000000000000 ) ) ;
#332 = CARTESIAN_POINT ( 'NONE',  ( 0.1100000000000004446, 1.347111479062094019E-17, 3.000000000000000444 ) ) ;
#333 = CIRCLE ( 'NONE', #183, 0.1100000000000004446 ) ;
#334 = FACE_OUTER_BOUND ( 'NONE', #299, .T. ) ;
#335 = LINE ( 'NONE', #202, #62 ) ;
#336 = ADVANCED_FACE ( 'NONE', ( #334 ), #319, .T. ) ;
#337 = DIRECTION ( 'NONE',  ( -1.000000000000000000, 0.0000000000000000000, 0.0000000000000000000 ) ) ;
#338 = ADVANCED_FACE ( 'NONE', ( #75 ), #48, .T. ) ;
#339 = CARTESIAN_POINT ( 'NONE',  ( -0.1250000000000000000, 0.0000000000000000000, 1.199999999999999956 ) ) ;
#340 = VERTEX_POINT ( 'NONE', #74 ) ;
#341 = ORIENTED_EDGE ( 'NONE', *, *, #269, .T. ) ;
#342 = VECTOR ( 'NONE', #99, 39.37007874015748854 ) ;
#343 = CIRCLE ( 'NONE', #196, 0.07499999999999995559 ) ;
#344 = ORIENTED_EDGE ( 'NONE', *, *, #116, .T. ) ;
#345 = ORIENTED_EDGE ( 'NONE', *, *, #291, .F. ) ;
ENDSEC;
END-ISO-10303-21;
