ISO-10303-21;
HEADER;
FILE_DESCRIPTION (( 'STEP AP214' ),
    '1' );
FILE_NAME ('59559.STEP',
    '2023-07-24T15:11:03',
    ( '' ),
    ( '' ),
    'SwSTEP 2.0',
    'SolidWorks 2023',
    '' );
FILE_SCHEMA (( 'AUTOMOTIVE_DESIGN' ));
ENDSEC;

DATA;
#1 = EDGE_LOOP ( 'NONE', ( #27, #303, #56, #326 ) ) ;
#2 =( GEOMETRIC_REPRESENTATION_CONTEXT ( 3 ) GLOBAL_UNCERTAINTY_ASSIGNED_CONTEXT ( ( #255 ) ) GLOBAL_UNIT_ASSIGNED_CONTEXT ( ( #75, #190, #224 ) ) REPRESENTATION_CONTEXT ( 'NONE', 'WORKASPACE' ) );
#3 = PRESENTATION_STYLE_ASSIGNMENT (( #264 ) ) ;
#4 = ORIENTED_EDGE ( 'NONE', *, *, #317, .T. ) ;
#5 = EDGE_LOOP ( 'NONE', ( #208, #314 ) ) ;
#6 = VECTOR ( 'NONE', #178, 1000.000000000000000 ) ;
#7 = CARTESIAN_POINT ( 'NONE',  ( -5.999999999999987566, 75.00000000000000000, 0.000000000000000000 ) ) ;
#8 = AXIS2_PLACEMENT_3D ( 'NONE', #318, #41, #353 ) ;
#9 = CARTESIAN_POINT ( 'NONE',  ( -5.999999999999988454, 75.00000000000000000, 0.000000000000000000 ) ) ;
#10 = MECHANICAL_DESIGN_GEOMETRIC_PRESENTATION_REPRESENTATION (  '', ( #260 ), #370 ) ;
#11 = DIRECTION ( 'NONE',  ( -1.000000000000000000, 0.000000000000000000, 0.000000000000000000 ) ) ;
#12 = FILL_AREA_STYLE ('',( #276 ) ) ;
#13 = DIRECTION ( 'NONE',  ( 0.000000000000000000, 0.000000000000000000, -1.000000000000000000 ) ) ;
#14 = DIRECTION ( 'NONE',  ( 0.000000000000000000, 0.000000000000000000, -1.000000000000000000 ) ) ;
#15 = CARTESIAN_POINT ( 'NONE',  ( 0.000000000000000000, 1.000000000000000000, -5.000000000000000000 ) ) ;
#16 = SURFACE_SIDE_STYLE ('',( #357 ) ) ;
#17 =( NAMED_UNIT ( * ) SI_UNIT ( $, .STERADIAN. ) SOLID_ANGLE_UNIT ( ) );
#18 = AXIS2_PLACEMENT_3D ( 'NONE', #148, #360, #243 ) ;
#19 =( NAMED_UNIT ( * ) PLANE_ANGLE_UNIT ( ) SI_UNIT ( $, .RADIAN. ) );
#20 = ADVANCED_FACE ( 'NONE', ( #269 ), #112, .T. ) ;
#21 = AXIS2_PLACEMENT_3D ( 'NONE', #42, #221, #71 ) ;
#22 = UNCERTAINTY_MEASURE_WITH_UNIT (LENGTH_MEASURE( 1.000000000000000082E-05 ), #240, 'distance_accuracy_value', 'NONE');
#23 = AXIS2_PLACEMENT_3D ( 'NONE', #214, #330, #219 ) ;
#24 = FILL_AREA_STYLE_COLOUR ( '', #82 ) ;
#25 = ORIENTED_EDGE ( 'NONE', *, *, #192, .T. ) ;
#26 = FILL_AREA_STYLE_COLOUR ( '', #151 ) ;
#27 = ORIENTED_EDGE ( 'NONE', *, *, #192, .F. ) ;
#28 = AXIS2_PLACEMENT_3D ( 'NONE', #180, #213, #34 ) ;
#29 =( LENGTH_UNIT ( ) NAMED_UNIT ( * ) SI_UNIT ( .MILLI., .METRE. ) );
#30 = ADVANCED_FACE ( 'NONE', ( #33 ), #84, .T. ) ;
#31 = VERTEX_POINT ( 'NONE', #166 ) ;
#32 = MECHANICAL_DESIGN_GEOMETRIC_PRESENTATION_REPRESENTATION (  '', ( #97 ), #196 ) ;
#33 = FACE_OUTER_BOUND ( 'NONE', #144, .T. ) ;
#34 = DIRECTION ( 'NONE',  ( -1.000000000000000000, 1.560495851798313744E-17, 0.000000000000000000 ) ) ;
#35 = SURFACE_STYLE_FILL_AREA ( #301 ) ;
#36 = CYLINDRICAL_SURFACE ( 'NONE', #283, 6.000000000000000000 ) ;
#37 =( GEOMETRIC_REPRESENTATION_CONTEXT ( 3 ) GLOBAL_UNCERTAINTY_ASSIGNED_CONTEXT ( ( #49 ) ) GLOBAL_UNIT_ASSIGNED_CONTEXT ( ( #169, #198, #236 ) ) REPRESENTATION_CONTEXT ( 'NONE', 'WORKASPACE' ) );
#38 = ORIENTED_EDGE ( 'NONE', *, *, #358, .T. ) ;
#39 =( LENGTH_UNIT ( ) NAMED_UNIT ( * ) SI_UNIT ( .MILLI., .METRE. ) );
#40 = FILL_AREA_STYLE ('',( #149 ) ) ;
#41 = DIRECTION ( 'NONE',  ( 1.560495851798313744E-17, 1.000000000000000000, -0.000000000000000000 ) ) ;
#42 = CARTESIAN_POINT ( 'NONE',  ( 0.000000000000000000, 30.00000000000000000, 0.000000000000000000 ) ) ;
#43 = PRESENTATION_LAYER_ASSIGNMENT (  '', '', ( #73 ) ) ;
#44 = DIRECTION ( 'NONE',  ( 1.560495851798313744E-17, 1.000000000000000000, -0.000000000000000000 ) ) ;
#45 = AXIS2_PLACEMENT_3D ( 'NONE', #273, #90, #14 ) ;
#46 = TOROIDAL_SURFACE ( 'NONE', #261, 5.000000000000000000, 0.9999999999999995559 ) ;
#47 = LINE ( 'NONE', #159, #164 ) ;
#48 = ADVANCED_FACE ( 'NONE', ( #86 ), #324, .T. ) ;
#49 = UNCERTAINTY_MEASURE_WITH_UNIT (LENGTH_MEASURE( 1.000000000000000082E-05 ), #169, 'distance_accuracy_value', 'NONE');
#50 = UNCERTAINTY_MEASURE_WITH_UNIT (LENGTH_MEASURE( 1.000000000000000082E-05 ), #351, 'distance_accuracy_value', 'NONE');
#51 = ORIENTED_EDGE ( 'NONE', *, *, #72, .T. ) ;
#52 = AXIS2_PLACEMENT_3D ( 'NONE', #222, #286, #134 ) ;
#53 = DIRECTION ( 'NONE',  ( 0.000000000000000000, 0.000000000000000000, -1.000000000000000000 ) ) ;
#54 = ORIENTED_EDGE ( 'NONE', *, *, #140, .T. ) ;
#55 = FACE_OUTER_BOUND ( 'NONE', #333, .T. ) ;
#56 = ORIENTED_EDGE ( 'NONE', *, *, #124, .T. ) ;
#57 = ORIENTED_EDGE ( 'NONE', *, *, #242, .F. ) ;
#58 = SURFACE_SIDE_STYLE ('',( #170 ) ) ;
#59 = SURFACE_STYLE_USAGE ( .BOTH. , #295 ) ;
#60 = PRESENTATION_LAYER_ASSIGNMENT (  '', '', ( #260 ) ) ;
#61 = VERTEX_POINT ( 'NONE', #121 ) ;
#62 = CIRCLE ( 'NONE', #233, 5.999999999999994671 ) ;
#63 = SURFACE_SIDE_STYLE ('',( #93 ) ) ;
#64 = DIRECTION ( 'NONE',  ( 1.000000000000000000, 0.000000000000000000, -1.224646799147353207E-16 ) ) ;
#65 = MANIFOLD_SOLID_BREP ( 'Revolve - Tool Body (Straight Shanked)', #346 ) ;
#66 = AXIS2_PLACEMENT_3D ( 'NONE', #88, #280, #11 ) ;
#67 = LINE ( 'NONE', #9, #6 ) ;
#68 = EDGE_LOOP ( 'NONE', ( #57, #172 ) ) ;
#69 = SURFACE_STYLE_USAGE ( .BOTH. , #95 ) ;
#70 = STYLED_ITEM ( 'NONE', ( #349 ), #187 ) ;
#71 = DIRECTION ( 'NONE',  ( 0.000000000000000000, 0.000000000000000000, -1.000000000000000000 ) ) ;
#72 = EDGE_CURVE ( 'NONE', #229, #344, #211, .T. ) ;
#73 = STYLED_ITEM ( 'NONE', ( #125 ), #310 ) ;
#74 = EDGE_CURVE ( 'NONE', #61, #230, #135, .T. ) ;
#75 =( LENGTH_UNIT ( ) NAMED_UNIT ( * ) SI_UNIT ( .MILLI., .METRE. ) );
#76 = AXIS2_PLACEMENT_3D ( 'NONE', #15, #359, #146 ) ;
#77 = COLOUR_RGB ( '',0.7921568627450980005, 0.8196078431372548767, 0.9333333333333333481 ) ;
#78 = AXIS2_PLACEMENT_3D ( 'NONE', #156, #64, #176 ) ;
#79 = ORIENTED_EDGE ( 'NONE', *, *, #358, .F. ) ;
#80 = DIRECTION ( 'NONE',  ( -0.000000000000000000, -1.000000000000000000, -0.000000000000000000 ) ) ;
#81 = ORIENTED_EDGE ( 'NONE', *, *, #153, .F. ) ;
#82 = COLOUR_RGB ( '',0.7921568627450980005, 0.8196078431372548767, 0.9333333333333333481 ) ;
#83 = CARTESIAN_POINT ( 'NONE',  ( 0.000000000000000000, 0.000000000000000000, -5.000000000000000000 ) ) ;
#84 = CYLINDRICAL_SURFACE ( 'NONE', #173, 5.999999999999994671 ) ;
#85 = CARTESIAN_POINT ( 'NONE',  ( 0.000000000000000000, 1.000000000000000000, -6.000000000000000000 ) ) ;
#86 = FACE_OUTER_BOUND ( 'NONE', #114, .T. ) ;
#87 = PRODUCT_DEFINITION_SHAPE ( 'NONE', 'NONE',  #293 ) ;
#88 = CARTESIAN_POINT ( 'NONE',  ( 5.421010862427522170E-15, 30.00000000000000000, 0.000000000000000000 ) ) ;
#89 = PRESENTATION_LAYER_ASSIGNMENT (  '', '', ( #275 ) ) ;
#90 = DIRECTION ( 'NONE',  ( -0.000000000000000000, -1.000000000000000000, -0.000000000000000000 ) ) ;
#91 = CIRCLE ( 'NONE', #8, 5.999999999999993783 ) ;
#92 =( NAMED_UNIT ( * ) SI_UNIT ( $, .STERADIAN. ) SOLID_ANGLE_UNIT ( ) );
#93 = SURFACE_STYLE_FILL_AREA ( #182 ) ;
#94 = MECHANICAL_DESIGN_GEOMETRIC_PRESENTATION_REPRESENTATION (  '', ( #73 ), #193 ) ;
#95 = SURFACE_SIDE_STYLE ('',( #123 ) ) ;
#96 = DIRECTION ( 'NONE',  ( -0.000000000000000000, -1.000000000000000000, -0.000000000000000000 ) ) ;
#97 = STYLED_ITEM ( 'NONE', ( #3 ), #183 ) ;
#98 =( NAMED_UNIT ( * ) SI_UNIT ( $, .STERADIAN. ) SOLID_ANGLE_UNIT ( ) );
#99 = PRODUCT_RELATED_PRODUCT_CATEGORY ( 'part', '', ( #327 ) ) ;
#100 = APPLICATION_CONTEXT ( 'automotive_design' ) ;
#101 = UNCERTAINTY_MEASURE_WITH_UNIT (LENGTH_MEASURE( 1.000000000000000082E-05 ), #248, 'distance_accuracy_value', 'NONE');
#102 =( GEOMETRIC_REPRESENTATION_CONTEXT ( 3 ) GLOBAL_UNCERTAINTY_ASSIGNED_CONTEXT ( ( #160 ) ) GLOBAL_UNIT_ASSIGNED_CONTEXT ( ( #194, #315, #339 ) ) REPRESENTATION_CONTEXT ( 'NONE', 'WORKASPACE' ) );
#103 = CARTESIAN_POINT ( 'NONE',  ( 7.347880794884118750E-16, 1.000000000000000000, 6.000000000000000000 ) ) ;
#104 = DIRECTION ( 'NONE',  ( 0.000000000000000000, 0.000000000000000000, -1.000000000000000000 ) ) ;
#105 = ADVANCED_BREP_SHAPE_REPRESENTATION ( '59559', ( #183, #65, #52 ), #2 ) ;
#106 = DIRECTION ( 'NONE',  ( -0.000000000000000000, -1.000000000000000000, -0.000000000000000000 ) ) ;
#107 = APPLICATION_PROTOCOL_DEFINITION ( 'draft international standard', 'automotive_design', 1998, #100 ) ;
#108 = AXIS2_PLACEMENT_3D ( 'NONE', #244, #252, #335 ) ;
#109 = ORIENTED_EDGE ( 'NONE', *, *, #163, .T. ) ;
#110 = STYLED_ITEM ( 'NONE', ( #225 ), #313 ) ;
#111 = SURFACE_STYLE_FILL_AREA ( #267 ) ;
#112 = CYLINDRICAL_SURFACE ( 'NONE', #304, 5.999999999999994671 ) ;
#113 = AXIS2_PLACEMENT_3D ( 'NONE', #143, #259, #288 ) ;
#114 = EDGE_LOOP ( 'NONE', ( #241, #25, #116, #316 ) ) ;
#115 = FILL_AREA_STYLE ('',( #26 ) ) ;
#116 = ORIENTED_EDGE ( 'NONE', *, *, #72, .F. ) ;
#117 = PLANE ( 'NONE',  #28 ) ;
#118 = VERTEX_POINT ( 'NONE', #127 ) ;
#119 = EDGE_CURVE ( 'NONE', #118, #202, #189, .T. ) ;
#120 = CIRCLE ( 'NONE', #21, 6.000000000000000000 ) ;
#121 = CARTESIAN_POINT ( 'NONE',  ( 0.000000000000000000, 30.00000000000000000, -6.000000000000000000 ) ) ;
#122 = SURFACE_SIDE_STYLE ('',( #35 ) ) ;
#123 = SURFACE_STYLE_FILL_AREA ( #12 ) ;
#124 = EDGE_CURVE ( 'NONE', #61, #229, #337, .T. ) ;
#125 = PRESENTATION_STYLE_ASSIGNMENT (( #307 ) ) ;
#126 = COLOUR_RGB ( '',1.000000000000000000, 0.000000000000000000, 0.000000000000000000 ) ;
#127 = CARTESIAN_POINT ( 'NONE',  ( 6.000000000000000000, 75.00000000000000000, 7.347880794884112834E-16 ) ) ;
#128 = CARTESIAN_POINT ( 'NONE',  ( 0.000000000000000000, 0.000000000000000000, 0.000000000000000000 ) ) ;
#129 = PRESENTATION_STYLE_ASSIGNMENT (( #361 ) ) ;
#130 = EDGE_CURVE ( 'NONE', #230, #61, #120, .T. ) ;
#131 = AXIS2_PLACEMENT_3D ( 'NONE', #132, #157, #366 ) ;
#132 = CARTESIAN_POINT ( 'NONE',  ( 0.000000000000000000, 0.000000000000000000, 0.000000000000000000 ) ) ;
#133 = AXIS2_PLACEMENT_3D ( 'NONE', #128, #331, #250 ) ;
#134 = DIRECTION ( 'NONE',  ( 1.000000000000000000, 0.000000000000000000, 0.000000000000000000 ) ) ;
#135 = CIRCLE ( 'NONE', #274, 6.000000000000000000 ) ;
#136 = PRESENTATION_LAYER_ASSIGNMENT (  '', '', ( #97 ) ) ;
#137 = ORIENTED_EDGE ( 'NONE', *, *, #209, .T. ) ;
#138 = FILL_AREA_STYLE ('',( #24 ) ) ;
#139 = SURFACE_STYLE_USAGE ( .BOTH. , #58 ) ;
#140 = EDGE_CURVE ( 'NONE', #344, #168, #336, .T. ) ;
#141 = CARTESIAN_POINT ( 'NONE',  ( 7.347880794884119736E-16, 0.000000000000000000, 6.000000000000000000 ) ) ;
#142 = ORIENTED_EDGE ( 'NONE', *, *, #287, .T. ) ;
#143 = CARTESIAN_POINT ( 'NONE',  ( 0.000000000000000000, 1.000000000000000000, 0.000000000000000000 ) ) ;
#144 = EDGE_LOOP ( 'NONE', ( #245, #216, #109, #145 ) ) ;
#145 = ORIENTED_EDGE ( 'NONE', *, *, #119, .F. ) ;
#146 = DIRECTION ( 'NONE',  ( 0.000000000000000000, 0.000000000000000000, 1.000000000000000000 ) ) ;
#147 = DIRECTION ( 'NONE',  ( -1.000000000000000000, 0.000000000000000000, 0.000000000000000000 ) ) ;
#148 = CARTESIAN_POINT ( 'NONE',  ( 0.000000000000000000, 30.00000000000000000, 0.000000000000000000 ) ) ;
#149 = FILL_AREA_STYLE_COLOUR ( '', #77 ) ;
#150 = CLOSED_SHELL ( 'NONE', ( #48, #234, #313, #187, #165, #310 ) ) ;
#151 = COLOUR_RGB ( '',1.000000000000000000, 0.000000000000000000, 0.000000000000000000 ) ;
#152 =( NAMED_UNIT ( * ) PLANE_ANGLE_UNIT ( ) SI_UNIT ( $, .RADIAN. ) );
#153 = EDGE_CURVE ( 'NONE', #175, #168, #296, .T. ) ;
#154 = PLANE ( 'NONE',  #18 ) ;
#155 = FACE_OUTER_BOUND ( 'NONE', #179, .T. ) ;
#156 = CARTESIAN_POINT ( 'NONE',  ( 6.123233995736766282E-16, 1.000000000000000000, 5.000000000000000000 ) ) ;
#157 = DIRECTION ( 'NONE',  ( -0.000000000000000000, -1.000000000000000000, -0.000000000000000000 ) ) ;
#158 = TOROIDAL_SURFACE ( 'NONE', #203, 5.000000000000000000, 0.9999999999999995559 ) ;
#159 = CARTESIAN_POINT ( 'NONE',  ( 6.000000000000000888, 75.00000000000000000, 7.347880794884112834E-16 ) ) ;
#160 = UNCERTAINTY_MEASURE_WITH_UNIT (LENGTH_MEASURE( 1.000000000000000082E-05 ), #194, 'distance_accuracy_value', 'NONE');
#161 = COLOUR_RGB ( '',1.000000000000000000, 0.000000000000000000, 0.000000000000000000 ) ;
#162 = EDGE_CURVE ( 'NONE', #265, #31, #62, .T. ) ;
#163 = EDGE_CURVE ( 'NONE', #31, #202, #67, .T. ) ;
#164 = VECTOR ( 'NONE', #191, 1000.000000000000000 ) ;
#165 = ADVANCED_FACE ( 'NONE', ( #302 ), #36, .T. ) ;
#166 = CARTESIAN_POINT ( 'NONE',  ( -5.999999999999989342, 30.00000000000000000, 0.000000000000000000 ) ) ;
#167 = FILL_AREA_STYLE_COLOUR ( '', #161 ) ;
#168 = VERTEX_POINT ( 'NONE', #291 ) ;
#169 =( LENGTH_UNIT ( ) NAMED_UNIT ( * ) SI_UNIT ( .MILLI., .METRE. ) );
#170 = SURFACE_STYLE_FILL_AREA ( #271 ) ;
#171 =( NAMED_UNIT ( * ) SI_UNIT ( $, .STERADIAN. ) SOLID_ANGLE_UNIT ( ) );
#172 = ORIENTED_EDGE ( 'NONE', *, *, #162, .F. ) ;
#173 = AXIS2_PLACEMENT_3D ( 'NONE', #205, #199, #147 ) ;
#174 = DIRECTION ( 'NONE',  ( -0.000000000000000000, -1.000000000000000000, -0.000000000000000000 ) ) ;
#175 = VERTEX_POINT ( 'NONE', #83 ) ;
#176 = DIRECTION ( 'NONE',  ( -1.224646799147352468E-16, 0.000000000000000000, -1.000000000000000000 ) ) ;
#177 = FILL_AREA_STYLE_COLOUR ( '', #126 ) ;
#178 = DIRECTION ( 'NONE',  ( 1.560495851798313744E-17, 1.000000000000000000, -0.000000000000000000 ) ) ;
#179 = EDGE_LOOP ( 'NONE', ( #268, #289 ) ) ;
#180 = CARTESIAN_POINT ( 'NONE',  ( 5.421010862427522170E-15, 30.00000000000000000, 0.000000000000000000 ) ) ;
#181 = PRESENTATION_STYLE_ASSIGNMENT (( #69 ) ) ;
#182 = FILL_AREA_STYLE ('',( #270 ) ) ;
#183 = MANIFOLD_SOLID_BREP ( 'Revolve - Cutting Edge', #150 ) ;
#184 = DIRECTION ( 'NONE',  ( -0.000000000000000000, -1.000000000000000000, -0.000000000000000000 ) ) ;
#185 = FACE_OUTER_BOUND ( 'NONE', #292, .T. ) ;
#186 = CARTESIAN_POINT ( 'NONE',  ( 0.000000000000000000, 0.000000000000000000, -6.000000000000000000 ) ) ;
#187 = ADVANCED_FACE ( 'NONE', ( #207 ), #158, .T. ) ;
#188 = SHAPE_DEFINITION_REPRESENTATION ( #87, #105 ) ;
#189 = CIRCLE ( 'NONE', #23, 5.999999999999993783 ) ;
#190 =( NAMED_UNIT ( * ) PLANE_ANGLE_UNIT ( ) SI_UNIT ( $, .RADIAN. ) );
#191 = DIRECTION ( 'NONE',  ( 1.560495851798313744E-17, 1.000000000000000000, -0.000000000000000000 ) ) ;
#192 = EDGE_CURVE ( 'NONE', #230, #344, #321, .T. ) ;
#193 =( GEOMETRIC_REPRESENTATION_CONTEXT ( 3 ) GLOBAL_UNCERTAINTY_ASSIGNED_CONTEXT ( ( #369 ) ) GLOBAL_UNIT_ASSIGNED_CONTEXT ( ( #39, #272, #92 ) ) REPRESENTATION_CONTEXT ( 'NONE', 'WORKASPACE' ) );
#194 =( LENGTH_UNIT ( ) NAMED_UNIT ( * ) SI_UNIT ( .MILLI., .METRE. ) );
#195 =( GEOMETRIC_REPRESENTATION_CONTEXT ( 3 ) GLOBAL_UNCERTAINTY_ASSIGNED_CONTEXT ( ( #223 ) ) GLOBAL_UNIT_ASSIGNED_CONTEXT ( ( #29, #210, #17 ) ) REPRESENTATION_CONTEXT ( 'NONE', 'WORKASPACE' ) );
#196 =( GEOMETRIC_REPRESENTATION_CONTEXT ( 3 ) GLOBAL_UNCERTAINTY_ASSIGNED_CONTEXT ( ( #50 ) ) GLOBAL_UNIT_ASSIGNED_CONTEXT ( ( #351, #342, #171 ) ) REPRESENTATION_CONTEXT ( 'NONE', 'WORKASPACE' ) );
#197 = ORIENTED_EDGE ( 'NONE', *, *, #238, .F. ) ;
#198 =( NAMED_UNIT ( * ) PLANE_ANGLE_UNIT ( ) SI_UNIT ( $, .RADIAN. ) );
#199 = DIRECTION ( 'NONE',  ( 1.560495851798313744E-17, 1.000000000000000000, -0.000000000000000000 ) ) ;
#200 = CIRCLE ( 'NONE', #76, 1.000000000000000000 ) ;
#201 = CARTESIAN_POINT ( 'NONE',  ( 7.347880794884119736E-16, 30.00000000000000000, 6.000000000000000000 ) ) ;
#202 = VERTEX_POINT ( 'NONE', #7 ) ;
#203 = AXIS2_PLACEMENT_3D ( 'NONE', #297, #80, #53 ) ;
#204 = SURFACE_STYLE_FILL_AREA ( #115 ) ;
#205 = CARTESIAN_POINT ( 'NONE',  ( 6.123233995736762930E-15, 75.00000000000000000, 0.000000000000000000 ) ) ;
#206 = APPLICATION_CONTEXT ( 'automotive_design' ) ;
#207 = FACE_OUTER_BOUND ( 'NONE', #352, .T. ) ;
#208 = ORIENTED_EDGE ( 'NONE', *, *, #74, .F. ) ;
#209 = EDGE_CURVE ( 'NONE', #344, #229, #285, .T. ) ;
#210 =( NAMED_UNIT ( * ) PLANE_ANGLE_UNIT ( ) SI_UNIT ( $, .RADIAN. ) );
#211 = CIRCLE ( 'NONE', #45, 6.000000000000000000 ) ;
#212 =( GEOMETRIC_REPRESENTATION_CONTEXT ( 3 ) GLOBAL_UNCERTAINTY_ASSIGNED_CONTEXT ( ( #22 ) ) GLOBAL_UNIT_ASSIGNED_CONTEXT ( ( #240, #299, #98 ) ) REPRESENTATION_CONTEXT ( 'NONE', 'WORKASPACE' ) );
#213 = DIRECTION ( 'NONE',  ( 1.560495851798313744E-17, 1.000000000000000000, -0.000000000000000000 ) ) ;
#214 = CARTESIAN_POINT ( 'NONE',  ( 6.123233995736762930E-15, 75.00000000000000000, 0.000000000000000000 ) ) ;
#215 = PLANE ( 'NONE',  #294 ) ;
#216 = ORIENTED_EDGE ( 'NONE', *, *, #162, .T. ) ;
#217 = CARTESIAN_POINT ( 'NONE',  ( 6.000000000000000000, 75.00000000000000000, 0.000000000000000000 ) ) ;
#218 = MECHANICAL_DESIGN_GEOMETRIC_PRESENTATION_REPRESENTATION (  '', ( #355 ), #212 ) ;
#219 = DIRECTION ( 'NONE',  ( -1.000000000000000000, 0.000000000000000000, 0.000000000000000000 ) ) ;
#220 = DIRECTION ( 'NONE',  ( 1.000000000000000000, -1.560495851798313744E-17, 0.000000000000000000 ) ) ;
#221 = DIRECTION ( 'NONE',  ( -0.000000000000000000, -1.000000000000000000, -0.000000000000000000 ) ) ;
#222 = CARTESIAN_POINT ( 'NONE',  ( 0.000000000000000000, 0.000000000000000000, 0.000000000000000000 ) ) ;
#223 = UNCERTAINTY_MEASURE_WITH_UNIT (LENGTH_MEASURE( 1.000000000000000082E-05 ), #29, 'distance_accuracy_value', 'NONE');
#224 =( NAMED_UNIT ( * ) SI_UNIT ( $, .STERADIAN. ) SOLID_ANGLE_UNIT ( ) );
#225 = PRESENTATION_STYLE_ASSIGNMENT (( #246 ) ) ;
#226 =( LENGTH_UNIT ( ) NAMED_UNIT ( * ) SI_UNIT ( .MILLI., .METRE. ) );
#227 = APPLICATION_PROTOCOL_DEFINITION ( 'draft international standard', 'automotive_design', 1998, #206 ) ;
#228 = SURFACE_STYLE_FILL_AREA ( #138 ) ;
#229 = VERTEX_POINT ( 'NONE', #85 ) ;
#230 = VERTEX_POINT ( 'NONE', #201 ) ;
#231 = SURFACE_SIDE_STYLE ('',( #111 ) ) ;
#232 = DIRECTION ( 'NONE',  ( 1.560495851798313744E-17, 1.000000000000000000, -0.000000000000000000 ) ) ;
#233 = AXIS2_PLACEMENT_3D ( 'NONE', #309, #44, #300 ) ;
#234 = ADVANCED_FACE ( 'NONE', ( #55 ), #46, .T. ) ;
#235 = ORIENTED_EDGE ( 'NONE', *, *, #287, .F. ) ;
#236 =( NAMED_UNIT ( * ) SI_UNIT ( $, .STERADIAN. ) SOLID_ANGLE_UNIT ( ) );
#237 = ORIENTED_EDGE ( 'NONE', *, *, #153, .T. ) ;
#238 = EDGE_CURVE ( 'NONE', #202, #118, #91, .T. ) ;
#239 = CIRCLE ( 'NONE', #66, 5.999999999999994671 ) ;
#240 =( LENGTH_UNIT ( ) NAMED_UNIT ( * ) SI_UNIT ( .MILLI., .METRE. ) );
#241 = ORIENTED_EDGE ( 'NONE', *, *, #74, .T. ) ;
#242 = EDGE_CURVE ( 'NONE', #31, #265, #239, .T. ) ;
#243 = DIRECTION ( 'NONE',  ( 0.000000000000000000, -0.000000000000000000, 1.000000000000000000 ) ) ;
#244 = CARTESIAN_POINT ( 'NONE',  ( 0.000000000000000000, 0.000000000000000000, 0.000000000000000000 ) ) ;
#245 = ORIENTED_EDGE ( 'NONE', *, *, #317, .F. ) ;
#246 = SURFACE_STYLE_USAGE ( .BOTH. , #122 ) ;
#247 = FACE_OUTER_BOUND ( 'NONE', #68, .T. ) ;
#248 =( LENGTH_UNIT ( ) NAMED_UNIT ( * ) SI_UNIT ( .MILLI., .METRE. ) );
#249 = PRESENTATION_LAYER_ASSIGNMENT (  '', '', ( #70 ) ) ;
#250 = DIRECTION ( 'NONE',  ( 0.000000000000000000, 0.000000000000000000, -1.000000000000000000 ) ) ;
#251 = DIRECTION ( 'NONE',  ( 0.000000000000000000, -1.000000000000000000, -0.000000000000000000 ) ) ;
#252 = DIRECTION ( 'NONE',  ( -0.000000000000000000, -1.000000000000000000, -0.000000000000000000 ) ) ;
#253 = ADVANCED_FACE ( 'NONE', ( #155 ), #305, .F. ) ;
#254 = MECHANICAL_DESIGN_GEOMETRIC_PRESENTATION_REPRESENTATION (  '', ( #110 ), #332 ) ;
#255 = UNCERTAINTY_MEASURE_WITH_UNIT (LENGTH_MEASURE( 1.000000000000000082E-05 ), #75, 'distance_accuracy_value', 'NONE');
#256 = VECTOR ( 'NONE', #174, 1000.000000000000000 ) ;
#257 = PRODUCT_CONTEXT ( 'NONE', #100, 'mechanical' ) ;
#258 = UNCERTAINTY_MEASURE_WITH_UNIT (LENGTH_MEASURE( 1.000000000000000082E-05 ), #226, 'distance_accuracy_value', 'NONE');
#259 = DIRECTION ( 'NONE',  ( -0.000000000000000000, -1.000000000000000000, -0.000000000000000000 ) ) ;
#260 = STYLED_ITEM ( 'NONE', ( #129 ), #65 ) ;
#261 = AXIS2_PLACEMENT_3D ( 'NONE', #277, #96, #13 ) ;
#262 = ORIENTED_EDGE ( 'NONE', *, *, #140, .F. ) ;
#263 = PRESENTATION_STYLE_ASSIGNMENT (( #139 ) ) ;
#264 = SURFACE_STYLE_USAGE ( .BOTH. , #325 ) ;
#265 = VERTEX_POINT ( 'NONE', #356 ) ;
#266 = PRESENTATION_LAYER_ASSIGNMENT (  '', '', ( #110 ) ) ;
#267 = FILL_AREA_STYLE ('',( #167 ) ) ;
#268 = ORIENTED_EDGE ( 'NONE', *, *, #238, .T. ) ;
#269 = FACE_OUTER_BOUND ( 'NONE', #298, .T. ) ;
#270 = FILL_AREA_STYLE_COLOUR ( '', #338 ) ;
#271 = FILL_AREA_STYLE ('',( #322 ) ) ;
#272 =( NAMED_UNIT ( * ) PLANE_ANGLE_UNIT ( ) SI_UNIT ( $, .RADIAN. ) );
#273 = CARTESIAN_POINT ( 'NONE',  ( 0.000000000000000000, 1.000000000000000000, 0.000000000000000000 ) ) ;
#274 = AXIS2_PLACEMENT_3D ( 'NONE', #281, #184, #364 ) ;
#275 = STYLED_ITEM ( 'NONE', ( #263 ), #48 ) ;
#276 = FILL_AREA_STYLE_COLOUR ( '', #328 ) ;
#277 = CARTESIAN_POINT ( 'NONE',  ( 0.000000000000000000, 1.000000000000000000, 0.000000000000000000 ) ) ;
#278 = ADVANCED_FACE ( 'NONE', ( #247 ), #117, .F. ) ;
#279 = CIRCLE ( 'NONE', #131, 5.000000000000000000 ) ;
#280 = DIRECTION ( 'NONE',  ( 1.560495851798313744E-17, 1.000000000000000000, -0.000000000000000000 ) ) ;
#281 = CARTESIAN_POINT ( 'NONE',  ( 0.000000000000000000, 30.00000000000000000, 0.000000000000000000 ) ) ;
#282 = MECHANICAL_DESIGN_GEOMETRIC_PRESENTATION_REPRESENTATION (  '', ( #275 ), #195 ) ;
#283 = AXIS2_PLACEMENT_3D ( 'NONE', #368, #106, #343 ) ;
#284 = CARTESIAN_POINT ( 'NONE',  ( 0.000000000000000000, 0.000000000000000000, 0.000000000000000000 ) ) ;
#285 = CIRCLE ( 'NONE', #113, 6.000000000000000000 ) ;
#286 = DIRECTION ( 'NONE',  ( 0.000000000000000000, 0.000000000000000000, 1.000000000000000000 ) ) ;
#287 = EDGE_CURVE ( 'NONE', #229, #175, #200, .T. ) ;
#288 = DIRECTION ( 'NONE',  ( 0.000000000000000000, 0.000000000000000000, -1.000000000000000000 ) ) ;
#289 = ORIENTED_EDGE ( 'NONE', *, *, #119, .T. ) ;
#290 = VECTOR ( 'NONE', #308, 1000.000000000000000 ) ;
#291 = CARTESIAN_POINT ( 'NONE',  ( 6.735557395310443009E-16, 0.000000000000000000, 5.000000000000000000 ) ) ;
#292 = EDGE_LOOP ( 'NONE', ( #237, #38 ) ) ;
#293 = PRODUCT_DEFINITION ( 'UNKNOWN', '', #340, #341 ) ;
#294 = AXIS2_PLACEMENT_3D ( 'NONE', #284, #251, #104 ) ;
#295 = SURFACE_SIDE_STYLE ('',( #204 ) ) ;
#296 = CIRCLE ( 'NONE', #133, 5.000000000000000000 ) ;
#297 = CARTESIAN_POINT ( 'NONE',  ( 0.000000000000000000, 1.000000000000000000, 0.000000000000000000 ) ) ;
#298 = EDGE_LOOP ( 'NONE', ( #319, #4, #197, #354 ) ) ;
#299 =( NAMED_UNIT ( * ) PLANE_ANGLE_UNIT ( ) SI_UNIT ( $, .RADIAN. ) );
#300 = DIRECTION ( 'NONE',  ( -1.000000000000000000, 0.000000000000000000, 0.000000000000000000 ) ) ;
#301 = FILL_AREA_STYLE ('',( #177 ) ) ;
#302 = FACE_OUTER_BOUND ( 'NONE', #1, .T. ) ;
#303 = ORIENTED_EDGE ( 'NONE', *, *, #130, .T. ) ;
#304 = AXIS2_PLACEMENT_3D ( 'NONE', #350, #232, #347 ) ;
#305 = PLANE ( 'NONE',  #365 ) ;
#306 =( NAMED_UNIT ( * ) SI_UNIT ( $, .STERADIAN. ) SOLID_ANGLE_UNIT ( ) );
#307 = SURFACE_STYLE_USAGE ( .BOTH. , #63 ) ;
#308 = DIRECTION ( 'NONE',  ( -0.000000000000000000, -1.000000000000000000, -0.000000000000000000 ) ) ;
#309 = CARTESIAN_POINT ( 'NONE',  ( 5.421010862427522170E-15, 30.00000000000000000, 0.000000000000000000 ) ) ;
#310 = ADVANCED_FACE ( 'NONE', ( #329 ), #154, .T. ) ;
#311 = STYLED_ITEM ( 'NONE', ( #181 ), #165 ) ;
#312 = MECHANICAL_DESIGN_GEOMETRIC_PRESENTATION_REPRESENTATION (  '', ( #311 ), #102 ) ;
#313 = ADVANCED_FACE ( 'NONE', ( #185 ), #215, .T. ) ;
#314 = ORIENTED_EDGE ( 'NONE', *, *, #130, .F. ) ;
#315 =( NAMED_UNIT ( * ) PLANE_ANGLE_UNIT ( ) SI_UNIT ( $, .RADIAN. ) );
#316 = ORIENTED_EDGE ( 'NONE', *, *, #124, .F. ) ;
#317 = EDGE_CURVE ( 'NONE', #265, #118, #47, .T. ) ;
#318 = CARTESIAN_POINT ( 'NONE',  ( 6.123233995736762930E-15, 75.00000000000000000, 0.000000000000000000 ) ) ;
#319 = ORIENTED_EDGE ( 'NONE', *, *, #242, .T. ) ;
#320 = PRESENTATION_LAYER_ASSIGNMENT (  '', '', ( #311 ) ) ;
#321 = LINE ( 'NONE', #141, #256 ) ;
#322 = FILL_AREA_STYLE_COLOUR ( '', #362 ) ;
#323 = PRESENTATION_STYLE_ASSIGNMENT (( #345 ) ) ;
#324 = CYLINDRICAL_SURFACE ( 'NONE', #108, 6.000000000000000000 ) ;
#325 = SURFACE_SIDE_STYLE ('',( #228 ) ) ;
#326 = ORIENTED_EDGE ( 'NONE', *, *, #209, .F. ) ;
#327 = PRODUCT ( '59559', '59559', '', ( #257 ) ) ;
#328 = COLOUR_RGB ( '',1.000000000000000000, 0.000000000000000000, 0.000000000000000000 ) ;
#329 = FACE_OUTER_BOUND ( 'NONE', #5, .T. ) ;
#330 = DIRECTION ( 'NONE',  ( 1.560495851798313744E-17, 1.000000000000000000, -0.000000000000000000 ) ) ;
#331 = DIRECTION ( 'NONE',  ( -0.000000000000000000, -1.000000000000000000, -0.000000000000000000 ) ) ;
#332 =( GEOMETRIC_REPRESENTATION_CONTEXT ( 3 ) GLOBAL_UNCERTAINTY_ASSIGNED_CONTEXT ( ( #258 ) ) GLOBAL_UNIT_ASSIGNED_CONTEXT ( ( #226, #19, #367 ) ) REPRESENTATION_CONTEXT ( 'NONE', 'WORKASPACE' ) );
#333 = EDGE_LOOP ( 'NONE', ( #51, #54, #81, #235 ) ) ;
#334 = DIRECTION ( 'NONE',  ( -1.560495851798313744E-17, -1.000000000000000000, 0.000000000000000000 ) ) ;
#335 = DIRECTION ( 'NONE',  ( 0.000000000000000000, 0.000000000000000000, -1.000000000000000000 ) ) ;
#336 = CIRCLE ( 'NONE', #78, 1.000000000000000000 ) ;
#337 = LINE ( 'NONE', #186, #290 ) ;
#338 = COLOUR_RGB ( '',1.000000000000000000, 0.000000000000000000, 0.000000000000000000 ) ;
#339 =( NAMED_UNIT ( * ) SI_UNIT ( $, .STERADIAN. ) SOLID_ANGLE_UNIT ( ) );
#340 = PRODUCT_DEFINITION_FORMATION_WITH_SPECIFIED_SOURCE ( 'ANY', '', #327, .NOT_KNOWN. ) ;
#341 = PRODUCT_DEFINITION_CONTEXT ( 'detailed design', #206, 'design' ) ;
#342 =( NAMED_UNIT ( * ) PLANE_ANGLE_UNIT ( ) SI_UNIT ( $, .RADIAN. ) );
#343 = DIRECTION ( 'NONE',  ( 0.000000000000000000, 0.000000000000000000, -1.000000000000000000 ) ) ;
#344 = VERTEX_POINT ( 'NONE', #103 ) ;
#345 = SURFACE_STYLE_USAGE ( .BOTH. , #231 ) ;
#346 = CLOSED_SHELL ( 'NONE', ( #20, #278, #30, #253 ) ) ;
#347 = DIRECTION ( 'NONE',  ( -1.000000000000000000, 0.000000000000000000, 0.000000000000000000 ) ) ;
#348 = MECHANICAL_DESIGN_GEOMETRIC_PRESENTATION_REPRESENTATION (  '', ( #70 ), #37 ) ;
#349 = PRESENTATION_STYLE_ASSIGNMENT (( #59 ) ) ;
#350 = CARTESIAN_POINT ( 'NONE',  ( 6.123233995736762930E-15, 75.00000000000000000, 0.000000000000000000 ) ) ;
#351 =( LENGTH_UNIT ( ) NAMED_UNIT ( * ) SI_UNIT ( .MILLI., .METRE. ) );
#352 = EDGE_LOOP ( 'NONE', ( #262, #137, #142, #79 ) ) ;
#353 = DIRECTION ( 'NONE',  ( -1.000000000000000000, 0.000000000000000000, 0.000000000000000000 ) ) ;
#354 = ORIENTED_EDGE ( 'NONE', *, *, #163, .F. ) ;
#355 = STYLED_ITEM ( 'NONE', ( #323 ), #234 ) ;
#356 = CARTESIAN_POINT ( 'NONE',  ( 6.000000000000000000, 30.00000000000000000, 7.347880794884112834E-16 ) ) ;
#357 = SURFACE_STYLE_FILL_AREA ( #40 ) ;
#358 = EDGE_CURVE ( 'NONE', #168, #175, #279, .T. ) ;
#359 = DIRECTION ( 'NONE',  ( -1.000000000000000000, 0.000000000000000000, 0.000000000000000000 ) ) ;
#360 = DIRECTION ( 'NONE',  ( 0.000000000000000000, 1.000000000000000000, 0.000000000000000000 ) ) ;
#361 = SURFACE_STYLE_USAGE ( .BOTH. , #16 ) ;
#362 = COLOUR_RGB ( '',1.000000000000000000, 0.000000000000000000, 0.000000000000000000 ) ;
#363 = PRESENTATION_LAYER_ASSIGNMENT (  '', '', ( #355 ) ) ;
#364 = DIRECTION ( 'NONE',  ( 0.000000000000000000, 0.000000000000000000, -1.000000000000000000 ) ) ;
#365 = AXIS2_PLACEMENT_3D ( 'NONE', #217, #334, #220 ) ;
#366 = DIRECTION ( 'NONE',  ( 0.000000000000000000, 0.000000000000000000, -1.000000000000000000 ) ) ;
#367 =( NAMED_UNIT ( * ) SI_UNIT ( $, .STERADIAN. ) SOLID_ANGLE_UNIT ( ) );
#368 = CARTESIAN_POINT ( 'NONE',  ( 0.000000000000000000, 0.000000000000000000, 0.000000000000000000 ) ) ;
#369 = UNCERTAINTY_MEASURE_WITH_UNIT (LENGTH_MEASURE( 1.000000000000000082E-05 ), #39, 'distance_accuracy_value', 'NONE');
#370 =( GEOMETRIC_REPRESENTATION_CONTEXT ( 3 ) GLOBAL_UNCERTAINTY_ASSIGNED_CONTEXT ( ( #101 ) ) GLOBAL_UNIT_ASSIGNED_CONTEXT ( ( #248, #152, #306 ) ) REPRESENTATION_CONTEXT ( 'NONE', 'WORKASPACE' ) );
ENDSEC;
END-ISO-10303-21;
