ISO-10303-21;
HEADER;
FILE_DESCRIPTION (( 'STEP AP214' ),
    '1' );
FILE_NAME ('Micro_DCM-016.STEP',
    '2021-08-31T17:23:14',
    ( '' ),
    ( '' ),
    'SwSTEP 2.0',
    'SolidWorks 2020',
    '' );
FILE_SCHEMA (( 'AUTOMOTIVE_DESIGN' ));
ENDSEC;

DATA;
#1 = DIRECTION ( 'NONE',  ( -1.221636071744017175E-16, -0.0000000000000000000, -1.000000000000000000 ) ) ;
#2 = AXIS2_PLACEMENT_3D ( 'NONE', #343, #9, #347 ) ;
#3 = CIRCLE ( 'NONE', #99, 0.03149599999999999622 ) ;
#4 = ORIENTED_EDGE ( 'NONE', *, *, #62, .T. ) ;
#5 = FACE_OUTER_BOUND ( 'NONE', #193, .T. ) ;
#6 = FACE_OUTER_BOUND ( 'NONE', #14, .T. ) ;
#7 = EDGE_CURVE ( 'NONE', #203, #75, #172, .T. ) ;
#8 = ORIENTED_EDGE ( 'NONE', *, *, #122, .T. ) ;
#9 = DIRECTION ( 'NONE',  ( 1.221636071744017175E-16, 0.0000000000000000000, -1.000000000000000000 ) ) ;
#10 = AXIS2_PLACEMENT_3D ( 'NONE', #393, #25, #179 ) ;
#11 = ORIENTED_EDGE ( 'NONE', *, *, #344, .F. ) ;
#12 = VERTEX_POINT ( 'NONE', #89 ) ;
#13 = EDGE_CURVE ( 'NONE', #44, #230, #31, .T. ) ;
#14 = EDGE_LOOP ( 'NONE', ( #197, #4, #262 ) ) ;
#15 = PRODUCT_DEFINITION_FORMATION_WITH_SPECIFIED_SOURCE ( 'ANY', '', #361, .NOT_KNOWN. ) ;
#16 = CONICAL_SURFACE ( 'NONE', #301, 65.52281426576882950, 1.029744258676657198 ) ;
#17 = ORIENTED_EDGE ( 'NONE', *, *, #330, .F. ) ;
#18 = DIRECTION ( 'NONE',  ( 0.8571673007021137769, 0.0000000000000000000, 0.5150380749100517130 ) ) ;
#19 = ORIENTED_EDGE ( 'NONE', *, *, #222, .T. ) ;
#20 = DIRECTION ( 'NONE',  ( -1.221636071744017175E-16, -0.0000000000000000000, -1.000000000000000000 ) ) ;
#21 = AXIS2_PLACEMENT_3D ( 'NONE', #185, #33, #369 ) ;
#22 = CARTESIAN_POINT ( 'NONE',  ( -0.07874000000000000443, 0.0000000000000000000, 1.397637999999999936 ) ) ;
#23 = DIRECTION ( 'NONE',  ( -1.000000000000000000, 0.0000000000000000000, 0.0000000000000000000 ) ) ;
#24 = ORIENTED_EDGE ( 'NONE', *, *, #13, .F. ) ;
#25 = DIRECTION ( 'NONE',  ( -1.221636071744017175E-16, -0.0000000000000000000, -1.000000000000000000 ) ) ;
#26 = LINE ( 'NONE', #210, #177 ) ;
#27 = DIRECTION ( 'NONE',  ( -1.000000000000000000, 0.0000000000000000000, 0.0000000000000000000 ) ) ;
#28 = LINE ( 'NONE', #368, #218 ) ;
#29 = FACE_OUTER_BOUND ( 'NONE', #289, .T. ) ;
#30 = CYLINDRICAL_SURFACE ( 'NONE', #231, 0.03149599999999999622 ) ;
#31 = CIRCLE ( 'NONE', #280, 0.03149599999999999622 ) ;
#32 = EDGE_CURVE ( 'NONE', #12, #198, #325, .T. ) ;
#33 = DIRECTION ( 'NONE',  ( -1.221636071744017175E-16, -0.0000000000000000000, -1.000000000000000000 ) ) ;
#34 = FACE_OUTER_BOUND ( 'NONE', #246, .T. ) ;
#35 = ADVANCED_FACE ( 'NONE', ( #150 ), #140, .T. ) ;
#36 = VECTOR ( 'NONE', #70, 39.37007874015748143 ) ;
#37 = SURFACE_SIDE_STYLE ('',( #220 ) ) ;
#38 = CARTESIAN_POINT ( 'NONE',  ( 0.07874000000000000443, 9.642868896486258509E-18, 1.218144285590324172 ) ) ;
#39 = DIRECTION ( 'NONE',  ( 1.000000000000000000, 0.0000000000000000000, 1.334178587669835812E-16 ) ) ;
#40 =( NAMED_UNIT ( * ) PLANE_ANGLE_UNIT ( ) SI_UNIT ( $, .RADIAN. ) );
#41 = CARTESIAN_POINT ( 'NONE',  ( 4.809590833637862801E-15, 0.0000000000000000000, 39.37007874015748143 ) ) ;
#42 = VERTEX_POINT ( 'NONE', #50 ) ;
#43 = ADVANCED_FACE ( 'NONE', ( #176 ), #390, .T. ) ;
#44 = VERTEX_POINT ( 'NONE', #374 ) ;
#45 = VERTEX_POINT ( 'NONE', #161 ) ;
#46 = CARTESIAN_POINT ( 'NONE',  ( 2.311910356625166301E-18, 0.0000000000000000000, 0.01892470605689192467 ) ) ;
#47 = AXIS2_PLACEMENT_3D ( 'NONE', #348, #252, #377 ) ;
#48 = EDGE_LOOP ( 'NONE', ( #113, #287, #261 ) ) ;
#49 = DIRECTION ( 'NONE',  ( 1.000000000000000000, 0.0000000000000000000, 0.0000000000000000000 ) ) ;
#50 = CARTESIAN_POINT ( 'NONE',  ( 0.07874000000000000443, 9.642868896486258509E-18, 0.1794937144096756809 ) ) ;
#51 =( GEOMETRIC_REPRESENTATION_CONTEXT ( 3 ) GLOBAL_UNCERTAINTY_ASSIGNED_CONTEXT ( ( #189 ) ) GLOBAL_UNIT_ASSIGNED_CONTEXT ( ( #310, #174, #90 ) ) REPRESENTATION_CONTEXT ( 'NONE', 'WORKASPACE' ) );
#52 = ADVANCED_FACE ( 'NONE', ( #6 ), #16, .T. ) ;
#53 = AXIS2_PLACEMENT_3D ( 'NONE', #46, #293, #264 ) ;
#54 = LINE ( 'NONE', #58, #59 ) ;
#55 = CARTESIAN_POINT ( 'NONE',  ( 2.311910356625166301E-18, 0.0000000000000000000, 1.378713293943108154 ) ) ;
#56 = CARTESIAN_POINT ( 'NONE',  ( 0.03149600000000001010, 0.0000000000000000000, 1.299973293943107899 ) ) ;
#57 = DIRECTION ( 'NONE',  ( -0.8571673007021136659, -1.049727191138620298E-16, -0.5150380749100519351 ) ) ;
#58 = CARTESIAN_POINT ( 'NONE',  ( -0.03149599999999998234, 3.857147558594503404E-18, 0.09766470605689192563 ) ) ;
#59 = VECTOR ( 'NONE', #266, 39.37007874015748854 ) ;
#60 = CARTESIAN_POINT ( 'NONE',  ( 0.0000000000000000000, 0.0000000000000000000, 1.397637999999999936 ) ) ;
#61 = CARTESIAN_POINT ( 'NONE',  ( 0.03149599999999999622, -3.857147558594503404E-18, 1.397637999999999936 ) ) ;
#62 = EDGE_CURVE ( 'NONE', #102, #12, #307, .T. ) ;
#63 = CARTESIAN_POINT ( 'NONE',  ( 0.03149600000000000316, 0.0000000000000000000, 0.01892470605689192120 ) ) ;
#64 = DIRECTION ( 'NONE',  ( -1.221636071744017175E-16, -0.0000000000000000000, -1.000000000000000000 ) ) ;
#65 = ORIENTED_EDGE ( 'NONE', *, *, #93, .F. ) ;
#66 = CARTESIAN_POINT ( 'NONE',  ( 4.809590833637862801E-15, 0.0000000000000000000, -37.97244074015748083 ) ) ;
#67 = CLOSED_SHELL ( 'NONE', ( #370, #255, #164, #117, #196, #206, #281, #228, #35, #275, #271, #52, #43, #382 ) ) ;
#68 = VECTOR ( 'NONE', #236, 39.37007874015748143 ) ;
#69 =( LENGTH_UNIT ( ) NAMED_UNIT ( * ) SI_UNIT ( $, .METRE. ) );
#70 = DIRECTION ( 'NONE',  ( -1.221636071744017175E-16, -0.0000000000000000000, 1.000000000000000000 ) ) ;
#71 = CARTESIAN_POINT ( 'NONE',  ( 4.809590833637862801E-15, 0.0000000000000000000, -37.97244074015748083 ) ) ;
#72 = LENGTH_MEASURE_WITH_UNIT ( LENGTH_MEASURE( 0.02539999999999999897 ), #163 );
#73 = CYLINDRICAL_SURFACE ( 'NONE', #311, 0.03149599999999999622 ) ;
#74 = EDGE_CURVE ( 'NONE', #44, #129, #279, .T. ) ;
#75 = VERTEX_POINT ( 'NONE', #38 ) ;
#76 = COLOUR_RGB ( '',0.7921568627450980005, 0.8196078431372548767, 0.9333333333333333481 ) ;
#77 = AXIS2_PLACEMENT_3D ( 'NONE', #148, #267, #88 ) ;
#78 = ORIENTED_EDGE ( 'NONE', *, *, #286, .T. ) ;
#79 = ORIENTED_EDGE ( 'NONE', *, *, #178, .T. ) ;
#80 = DIMENSIONAL_EXPONENTS ( 1.000000000000000000, 0.0000000000000000000, 0.0000000000000000000, 0.0000000000000000000, 0.0000000000000000000, 0.0000000000000000000, 0.0000000000000000000 ) ;
#81 = ORIENTED_EDGE ( 'NONE', *, *, #173, .F. ) ;
#82 = CONICAL_SURFACE ( 'NONE', #2, 0.03149599999999999622, 0.5235987755983003700 ) ;
#83 = AXIS2_PLACEMENT_3D ( 'NONE', #272, #302, #215 ) ;
#84 = VERTEX_POINT ( 'NONE', #251 ) ;
#85 = ORIENTED_EDGE ( 'NONE', *, *, #7, .F. ) ;
#86 = CARTESIAN_POINT ( 'NONE',  ( -0.03149599999999999622, 3.857147558594504174E-18, 0.01892470605689193161 ) ) ;
#87 = EDGE_CURVE ( 'NONE', #169, #198, #376, .T. ) ;
#88 = DIRECTION ( 'NONE',  ( -1.000000000000000000, 0.0000000000000000000, 0.0000000000000000000 ) ) ;
#89 = CARTESIAN_POINT ( 'NONE',  ( 0.03149599999999981581, 0.0000000000000000000, 1.378713293943108154 ) ) ;
#90 =( NAMED_UNIT ( * ) SI_UNIT ( $, .STERADIAN. ) SOLID_ANGLE_UNIT ( ) );
#91 = CONICAL_SURFACE ( 'NONE', #349, 65.52281426576882950, 1.029744258676657198 ) ;
#92 = DIRECTION ( 'NONE',  ( -1.000000000000000000, 0.0000000000000000000, 0.0000000000000000000 ) ) ;
#93 = EDGE_CURVE ( 'NONE', #169, #84, #3, .T. ) ;
#94 = CARTESIAN_POINT ( 'NONE',  ( 0.0000000000000000000, 0.0000000000000000000, 0.0000000000000000000 ) ) ;
#95 = EDGE_LOOP ( 'NONE', ( #17, #358, #224, #313 ) ) ;
#96 = DIRECTION ( 'NONE',  ( -1.221636071744017175E-16, -0.0000000000000000000, -1.000000000000000000 ) ) ;
#97 = AXIS2_PLACEMENT_3D ( 'NONE', #362, #392, #23 ) ;
#98 = CARTESIAN_POINT ( 'NONE',  ( 1.193107278553755846E-17, 0.0000000000000000000, 1.299973293943107899 ) ) ;
#99 = AXIS2_PLACEMENT_3D ( 'NONE', #187, #303, #290 ) ;
#100 = DIRECTION ( 'NONE',  ( -1.000000000000000000, 0.0000000000000000000, 0.0000000000000000000 ) ) ;
#101 = UNCERTAINTY_MEASURE_WITH_UNIT (LENGTH_MEASURE( 1.000000000000000082E-05 ), #277, 'distance_accuracy_value', 'NONE');
#102 = VERTEX_POINT ( 'NONE', #120 ) ;
#103 = AXIS2_PLACEMENT_3D ( 'NONE', #104, #107, #219 ) ;
#104 = CARTESIAN_POINT ( 'NONE',  ( 1.193107278553755846E-17, 0.0000000000000000000, 1.299973293943107899 ) ) ;
#105 = CARTESIAN_POINT ( 'NONE',  ( -0.03149599999999999622, 0.0000000000000000000, 1.397637999999999936 ) ) ;
#106 = VECTOR ( 'NONE', #396, 39.37007874015748854 ) ;
#107 = DIRECTION ( 'NONE',  ( 1.221636071744017175E-16, 0.0000000000000000000, -1.000000000000000000 ) ) ;
#108 = EDGE_LOOP ( 'NONE', ( #233, #317, #183, #126 ) ) ;
#109 = ORIENTED_EDGE ( 'NONE', *, *, #201, .F. ) ;
#110 = EDGE_CURVE ( 'NONE', #45, #350, #26, .T. ) ;
#111 = EDGE_LOOP ( 'NONE', ( #380, #114, #81, #320 ) ) ;
#112 = ORIENTED_EDGE ( 'NONE', *, *, #243, .F. ) ;
#113 = ORIENTED_EDGE ( 'NONE', *, *, #110, .F. ) ;
#114 = ORIENTED_EDGE ( 'NONE', *, *, #330, .T. ) ;
#115 = AXIS2_PLACEMENT_3D ( 'NONE', #55, #238, #180 ) ;
#116 = COLOUR_RGB ( '',0.7921568627450980005, 0.8196078431372548767, 0.9333333333333333481 ) ;
#117 = ADVANCED_FACE ( 'NONE', ( #29 ), #223, .T. ) ;
#118 = CARTESIAN_POINT ( 'NONE',  ( 1.193107278553755846E-17, 0.0000000000000000000, 0.09766470605689192563 ) ) ;
#119 = CARTESIAN_POINT ( 'NONE',  ( 0.03149599999999999622, 3.857147558594503404E-18, -3.847664971564956402E-18 ) ) ;
#120 = CARTESIAN_POINT ( 'NONE',  ( 0.0000000000000000000, 0.0000000000000000000, 1.397637999999999936 ) ) ;
#121 = LINE ( 'NONE', #365, #304 ) ;
#122 = EDGE_CURVE ( 'NONE', #75, #42, #388, .T. ) ;
#123 = DIRECTION ( 'NONE',  ( -0.5000000000000012212, -6.123233995736780827E-17, -0.8660254037844379305 ) ) ;
#124 = CARTESIAN_POINT ( 'NONE',  ( 1.193107278553755846E-17, 0.0000000000000000000, 0.09766470605689192563 ) ) ;
#125 = CARTESIAN_POINT ( 'NONE',  ( 0.03149600000000001704, 3.857147558594504174E-18, 0.09766470605689192563 ) ) ;
#126 = ORIENTED_EDGE ( 'NONE', *, *, #128, .F. ) ;
#127 =( GEOMETRIC_REPRESENTATION_CONTEXT ( 3 ) GLOBAL_UNCERTAINTY_ASSIGNED_CONTEXT ( ( #101 ) ) GLOBAL_UNIT_ASSIGNED_CONTEXT ( ( #277, #40, #159 ) ) REPRESENTATION_CONTEXT ( 'NONE', 'WORKASPACE' ) );
#128 = EDGE_CURVE ( 'NONE', #42, #342, #288, .T. ) ;
#129 = VERTEX_POINT ( 'NONE', #86 ) ;
#130 = DIRECTION ( 'NONE',  ( 1.000000000000000000, 0.0000000000000000000, 1.334178587669835812E-16 ) ) ;
#131 =( NAMED_UNIT ( * ) PLANE_ANGLE_UNIT ( ) SI_UNIT ( $, .RADIAN. ) );
#132 = CARTESIAN_POINT ( 'NONE',  ( -0.03149599999999999622, 0.0000000000000000000, 3.847664971564956402E-18 ) ) ;
#133 = PRODUCT_DEFINITION_CONTEXT ( 'detailed design', #381, 'design' ) ;
#134 = PRODUCT_DEFINITION ( 'UNKNOWN', '', #15, #133 ) ;
#135 = VECTOR ( 'NONE', #181, 39.37007874015748854 ) ;
#136 =( NAMED_UNIT ( * ) SI_UNIT ( $, .STERADIAN. ) SOLID_ANGLE_UNIT ( ) );
#137 = ORIENTED_EDGE ( 'NONE', *, *, #201, .T. ) ;
#138 = ORIENTED_EDGE ( 'NONE', *, *, #294, .F. ) ;
#139 = EDGE_LOOP ( 'NONE', ( #221, #353, #351 ) ) ;
#140 = CONICAL_SURFACE ( 'NONE', #340, 65.52281426576882950, 1.029744258676657198 ) ;
#141 = VECTOR ( 'NONE', #334, 39.37007874015748143 ) ;
#142 = CARTESIAN_POINT ( 'NONE',  ( 0.0000000000000000000, 0.0000000000000000000, 0.0000000000000000000 ) ) ;
#143 = ORIENTED_EDGE ( 'NONE', *, *, #237, .F. ) ;
#144 = CONICAL_SURFACE ( 'NONE', #154, 65.52281426576882950, 1.029744258676657198 ) ;
#145 = FILL_AREA_STYLE ('',( #186 ) ) ;
#146 = ORIENTED_EDGE ( 'NONE', *, *, #128, .T. ) ;
#147 = SHAPE_DEFINITION_REPRESENTATION ( #232, #357 ) ;
#148 = CARTESIAN_POINT ( 'NONE',  ( 0.0000000000000000000, 0.0000000000000000000, 1.397637999999999936 ) ) ;
#149 = EDGE_CURVE ( 'NONE', #198, #12, #184, .T. ) ;
#150 = FACE_OUTER_BOUND ( 'NONE', #139, .T. ) ;
#151 = APPLICATION_PROTOCOL_DEFINITION ( 'draft international standard', 'automotive_design', 1998, #381 ) ;
#152 = CYLINDRICAL_SURFACE ( 'NONE', #77, 0.07874000000000000443 ) ;
#153 = AXIS2_PLACEMENT_3D ( 'NONE', #142, #355, #394 ) ;
#154 = AXIS2_PLACEMENT_3D ( 'NONE', #41, #352, #324 ) ;
#155 = DIRECTION ( 'NONE',  ( -0.8571673007021136659, 1.049727191138620298E-16, 0.5150380749100519351 ) ) ;
#156 = LINE ( 'NONE', #22, #371 ) ;
#157 =( CONVERSION_BASED_UNIT ( 'INCH', #379 ) LENGTH_UNIT ( ) NAMED_UNIT ( #80 ) );
#158 = ORIENTED_EDGE ( 'NONE', *, *, #222, .F. ) ;
#159 =( NAMED_UNIT ( * ) SI_UNIT ( $, .STERADIAN. ) SOLID_ANGLE_UNIT ( ) );
#160 = CIRCLE ( 'NONE', #366, 0.03149599999999999622 ) ;
#161 = CARTESIAN_POINT ( 'NONE',  ( 0.0000000000000000000, 0.0000000000000000000, 0.0000000000000000000 ) ) ;
#162 = ORIENTED_EDGE ( 'NONE', *, *, #260, .F. ) ;
#163 =( LENGTH_UNIT ( ) NAMED_UNIT ( * ) SI_UNIT ( $, .METRE. ) );
#164 = ADVANCED_FACE ( 'NONE', ( #5 ), #91, .T. ) ;
#165 = EDGE_LOOP ( 'NONE', ( #315, #138, #79, #146 ) ) ;
#166 = DIRECTION ( 'NONE',  ( 1.221636071744017175E-16, 0.0000000000000000000, -1.000000000000000000 ) ) ;
#167 = PRESENTATION_LAYER_ASSIGNMENT (  '', '', ( #335 ) ) ;
#168 = CARTESIAN_POINT ( 'NONE',  ( -0.03149599999999980887, -3.857147558594480292E-18, 1.378713293943108154 ) ) ;
#169 = VERTEX_POINT ( 'NONE', #318 ) ;
#170 = FACE_OUTER_BOUND ( 'NONE', #111, .T. ) ;
#171 = CARTESIAN_POINT ( 'NONE',  ( 0.0000000000000000000, 0.0000000000000000000, 0.0000000000000000000 ) ) ;
#172 = CIRCLE ( 'NONE', #263, 0.07873999999999999055 ) ;
#173 = EDGE_CURVE ( 'NONE', #129, #350, #256, .T. ) ;
#174 =( NAMED_UNIT ( * ) PLANE_ANGLE_UNIT ( ) SI_UNIT ( $, .RADIAN. ) );
#175 = ORIENTED_EDGE ( 'NONE', *, *, #87, .T. ) ;
#176 = FACE_OUTER_BOUND ( 'NONE', #258, .T. ) ;
#177 = VECTOR ( 'NONE', #18, 39.37007874015748143 ) ;
#178 = EDGE_CURVE ( 'NONE', #230, #42, #385, .T. ) ;
#179 = DIRECTION ( 'NONE',  ( -1.000000000000000000, 0.0000000000000000000, 1.355255426117733015E-16 ) ) ;
#180 = DIRECTION ( 'NONE',  ( -1.000000000000000000, 0.0000000000000000000, 0.0000000000000000000 ) ) ;
#181 = DIRECTION ( 'NONE',  ( 0.5000000000000013323, 0.0000000000000000000, -0.8660254037844377084 ) ) ;
#182 = FACE_OUTER_BOUND ( 'NONE', #108, .T. ) ;
#183 = ORIENTED_EDGE ( 'NONE', *, *, #237, .T. ) ;
#184 = CIRCLE ( 'NONE', #47, 0.03149599999999999622 ) ;
#185 = CARTESIAN_POINT ( 'NONE',  ( 2.192759961741786873E-17, 0.0000000000000000000, 0.1794937144096756809 ) ) ;
#186 = FILL_AREA_STYLE_COLOUR ( '', #116 ) ;
#187 = CARTESIAN_POINT ( 'NONE',  ( 1.193107278553755846E-17, 0.0000000000000000000, 1.299973293943107899 ) ) ;
#188 = DIRECTION ( 'NONE',  ( 1.221636071744017175E-16, 0.0000000000000000000, -1.000000000000000000 ) ) ;
#189 = UNCERTAINTY_MEASURE_WITH_UNIT (LENGTH_MEASURE( 1.000000000000000082E-05 ), #310, 'distance_accuracy_value', 'NONE');
#190 = ORIENTED_EDGE ( 'NONE', *, *, #7, .T. ) ;
#191 = PRESENTATION_STYLE_ASSIGNMENT (( #254 ) ) ;
#192 = DIRECTION ( 'NONE',  ( -1.000000000000000000, 0.0000000000000000000, 1.221636071744017175E-16 ) ) ;
#193 = EDGE_LOOP ( 'NONE', ( #386, #78, #284 ) ) ;
#194 = DIRECTION ( 'NONE',  ( -1.221636071744017175E-16, -0.0000000000000000000, 1.000000000000000000 ) ) ;
#195 = CIRCLE ( 'NONE', #326, 0.03149599999999999622 ) ;
#196 = ADVANCED_FACE ( 'NONE', ( #170 ), #73, .T. ) ;
#197 = ORIENTED_EDGE ( 'NONE', *, *, #286, .F. ) ;
#198 = VERTEX_POINT ( 'NONE', #168 ) ;
#199 = EDGE_LOOP ( 'NONE', ( #190, #8, #11, #143 ) ) ;
#200 = ORIENTED_EDGE ( 'NONE', *, *, #360, .T. ) ;
#201 = EDGE_CURVE ( 'NONE', #84, #12, #283, .T. ) ;
#202 = CONICAL_SURFACE ( 'NONE', #83, 0.03149599999999999622, 0.5235987755983003700 ) ;
#203 = VERTEX_POINT ( 'NONE', #329 ) ;
#204 = CARTESIAN_POINT ( 'NONE',  ( 0.03149600000000001010, 0.0000000000000000000, 0.09766470605689192563 ) ) ;
#205 = CARTESIAN_POINT ( 'NONE',  ( 2.192759961741786873E-17, 0.0000000000000000000, 1.218144285590324172 ) ) ;
#206 = ADVANCED_FACE ( 'NONE', ( #227 ), #144, .T. ) ;
#207 = CYLINDRICAL_SURFACE ( 'NONE', #378, 0.03149599999999999622 ) ;
#208 = AXIS2_PLACEMENT_3D ( 'NONE', #359, #20, #319 ) ;
#209 = FACE_OUTER_BOUND ( 'NONE', #95, .T. ) ;
#210 = CARTESIAN_POINT ( 'NONE',  ( 0.0000000000000000000, 0.0000000000000000000, 0.0000000000000000000 ) ) ;
#211 = DIRECTION ( 'NONE',  ( -1.000000000000000000, 0.0000000000000000000, 1.221636071744017175E-16 ) ) ;
#212 = LINE ( 'NONE', #119, #141 ) ;
#213 = EDGE_CURVE ( 'NONE', #350, #129, #341, .T. ) ;
#214 = AXIS2_PLACEMENT_3D ( 'NONE', #397, #244, #296 ) ;
#215 = DIRECTION ( 'NONE',  ( 1.000000000000000000, 0.0000000000000000000, 0.0000000000000000000 ) ) ;
#216 = PRODUCT_RELATED_PRODUCT_CATEGORY ( 'part', '', ( #361 ) ) ;
#217 =( LENGTH_UNIT ( ) NAMED_UNIT ( * ) SI_UNIT ( $, .METRE. ) );
#218 = VECTOR ( 'NONE', #57, 39.37007874015748854 ) ;
#219 = DIRECTION ( 'NONE',  ( 1.000000000000000000, 0.0000000000000000000, 0.0000000000000000000 ) ) ;
#220 = SURFACE_STYLE_FILL_AREA ( #338 ) ;
#221 = ORIENTED_EDGE ( 'NONE', *, *, #248, .F. ) ;
#222 = EDGE_CURVE ( 'NONE', #84, #75, #395, .T. ) ;
#223 = CONICAL_SURFACE ( 'NONE', #247, 0.03149599999999999622, 0.5235987755983003700 ) ;
#224 = ORIENTED_EDGE ( 'NONE', *, *, #74, .T. ) ;
#225 = APPLICATION_CONTEXT ( 'automotive_design' ) ;
#226 = ORIENTED_EDGE ( 'NONE', *, *, #93, .T. ) ;
#227 = FACE_OUTER_BOUND ( 'NONE', #48, .T. ) ;
#228 = ADVANCED_FACE ( 'NONE', ( #182 ), #152, .T. ) ;
#229 = MECHANICAL_DESIGN_GEOMETRIC_PRESENTATION_REPRESENTATION (  '', ( #240 ), #51 ) ;
#230 = VERTEX_POINT ( 'NONE', #125 ) ;
#231 = AXIS2_PLACEMENT_3D ( 'NONE', #94, #1, #211 ) ;
#232 = PRODUCT_DEFINITION_SHAPE ( 'NONE', 'NONE',  #134 ) ;
#233 = ORIENTED_EDGE ( 'NONE', *, *, #122, .F. ) ;
#234 = DIRECTION ( 'NONE',  ( -1.000000000000000000, 0.0000000000000000000, 0.0000000000000000000 ) ) ;
#235 = CARTESIAN_POINT ( 'NONE',  ( -0.07873999999999996280, 0.0000000000000000000, 0.1794937144096756809 ) ) ;
#236 = DIRECTION ( 'NONE',  ( -0.0000000000000000000, -0.0000000000000000000, -1.000000000000000000 ) ) ;
#237 = EDGE_CURVE ( 'NONE', #203, #342, #156, .T. ) ;
#238 = DIRECTION ( 'NONE',  ( 1.221636071744017175E-16, 0.0000000000000000000, -1.000000000000000000 ) ) ;
#239 = DIRECTION ( 'NONE',  ( -0.0000000000000000000, -0.0000000000000000000, -1.000000000000000000 ) ) ;
#240 = STYLED_ITEM ( 'NONE', ( #308 ), #357 ) ;
#241 = EDGE_LOOP ( 'NONE', ( #162, #226, #19, #85 ) ) ;
#242 = DIRECTION ( 'NONE',  ( -1.221636071744017175E-16, -0.0000000000000000000, 1.000000000000000000 ) ) ;
#243 = EDGE_CURVE ( 'NONE', #75, #203, #306, .T. ) ;
#244 = DIRECTION ( 'NONE',  ( 1.221636071744017175E-16, 0.0000000000000000000, -1.000000000000000000 ) ) ;
#245 = DIRECTION ( 'NONE',  ( -1.000000000000000000, 0.0000000000000000000, 0.0000000000000000000 ) ) ;
#246 = EDGE_LOOP ( 'NONE', ( #200, #354, #112, #158 ) ) ;
#247 = AXIS2_PLACEMENT_3D ( 'NONE', #322, #295, #49 ) ;
#248 = EDGE_CURVE ( 'NONE', #45, #129, #121, .T. ) ;
#249 = DIRECTION ( 'NONE',  ( 0.8571673007021137769, 0.0000000000000000000, -0.5150380749100517130 ) ) ;
#250 = FILL_AREA_STYLE_COLOUR ( '', #76 ) ;
#251 = CARTESIAN_POINT ( 'NONE',  ( 0.03149600000000001704, -3.857147558594504174E-18, 1.299973293943107899 ) ) ;
#252 = DIRECTION ( 'NONE',  ( 1.221636071744017175E-16, 0.0000000000000000000, -1.000000000000000000 ) ) ;
#253 = SURFACE_STYLE_USAGE ( .BOTH. , #37 ) ;
#254 = SURFACE_STYLE_USAGE ( .BOTH. , #372 ) ;
#255 = ADVANCED_FACE ( 'NONE', ( #269 ), #207, .T. ) ;
#256 = CIRCLE ( 'NONE', #53, 0.03149599999999999622 ) ;
#257 = ORIENTED_EDGE ( 'NONE', *, *, #344, .T. ) ;
#258 = EDGE_LOOP ( 'NONE', ( #109, #65, #175, #312 ) ) ;
#259 = VECTOR ( 'NONE', #64, 39.37007874015748143 ) ;
#260 = EDGE_CURVE ( 'NONE', #169, #203, #273, .T. ) ;
#261 = ORIENTED_EDGE ( 'NONE', *, *, #173, .T. ) ;
#262 = ORIENTED_EDGE ( 'NONE', *, *, #149, .F. ) ;
#263 = AXIS2_PLACEMENT_3D ( 'NONE', #205, #364, #27 ) ;
#264 = DIRECTION ( 'NONE',  ( -1.000000000000000000, 0.0000000000000000000, 1.355255426117733015E-16 ) ) ;
#265 = DIRECTION ( 'NONE',  ( 1.000000000000000000, 0.0000000000000000000, -1.334178587669835812E-16 ) ) ;
#266 = DIRECTION ( 'NONE',  ( -0.5000000000000012212, 6.123233995736780827E-17, 0.8660254037844379305 ) ) ;
#267 = DIRECTION ( 'NONE',  ( -0.0000000000000000000, -0.0000000000000000000, -1.000000000000000000 ) ) ;
#268 = CARTESIAN_POINT ( 'NONE',  ( 4.809590833637862801E-15, 0.0000000000000000000, 39.37007874015748143 ) ) ;
#269 = FACE_OUTER_BOUND ( 'NONE', #321, .T. ) ;
#270 = VECTOR ( 'NONE', #249, 39.37007874015748143 ) ;
#271 = ADVANCED_FACE ( 'NONE', ( #367 ), #202, .T. ) ;
#272 = CARTESIAN_POINT ( 'NONE',  ( 1.193107278553755846E-17, 0.0000000000000000000, 0.09766470605689192563 ) ) ;
#273 = LINE ( 'NONE', #332, #384 ) ;
#274 = LENGTH_MEASURE_WITH_UNIT ( LENGTH_MEASURE( 0.02539999999999999897 ), #69 );
#275 = ADVANCED_FACE ( 'NONE', ( #209 ), #30, .T. ) ;
#276 = AXIS2_PLACEMENT_3D ( 'NONE', #298, #299, #391 ) ;
#277 =( CONVERSION_BASED_UNIT ( 'INCH', #274 ) LENGTH_UNIT ( ) NAMED_UNIT ( #291 ) );
#278 = CARTESIAN_POINT ( 'NONE',  ( 0.0000000000000000000, 0.0000000000000000000, 1.397637999999999936 ) ) ;
#279 = LINE ( 'NONE', #132, #259 ) ;
#280 = AXIS2_PLACEMENT_3D ( 'NONE', #118, #327, #234 ) ;
#281 = ADVANCED_FACE ( 'NONE', ( #331 ), #336, .T. ) ;
#282 = CIRCLE ( 'NONE', #21, 0.07873999999999999055 ) ;
#283 = LINE ( 'NONE', #61, #356 ) ;
#284 = ORIENTED_EDGE ( 'NONE', *, *, #32, .F. ) ;
#285 = DIRECTION ( 'NONE',  ( -1.221636071744017175E-16, -0.0000000000000000000, -1.000000000000000000 ) ) ;
#286 = EDGE_CURVE ( 'NONE', #102, #198, #28, .T. ) ;
#287 = ORIENTED_EDGE ( 'NONE', *, *, #248, .T. ) ;
#288 = CIRCLE ( 'NONE', #208, 0.07873999999999999055 ) ;
#289 = EDGE_LOOP ( 'NONE', ( #24, #387, #257, #297 ) ) ;
#290 = DIRECTION ( 'NONE',  ( -1.000000000000000000, 0.0000000000000000000, 0.0000000000000000000 ) ) ;
#291 = DIMENSIONAL_EXPONENTS ( 1.000000000000000000, 0.0000000000000000000, 0.0000000000000000000, 0.0000000000000000000, 0.0000000000000000000, 0.0000000000000000000, 0.0000000000000000000 ) ;
#292 = CARTESIAN_POINT ( 'NONE',  ( 0.07874000000000000443, 9.642868896486258509E-18, 1.397637999999999936 ) ) ;
#293 = DIRECTION ( 'NONE',  ( -1.221636071744017175E-16, -0.0000000000000000000, -1.000000000000000000 ) ) ;
#294 = EDGE_CURVE ( 'NONE', #230, #44, #195, .T. ) ;
#295 = DIRECTION ( 'NONE',  ( 1.221636071744017175E-16, 0.0000000000000000000, 1.000000000000000000 ) ) ;
#296 = DIRECTION ( 'NONE',  ( -1.000000000000000000, 0.0000000000000000000, 0.0000000000000000000 ) ) ;
#297 = ORIENTED_EDGE ( 'NONE', *, *, #178, .F. ) ;
#298 = CARTESIAN_POINT ( 'NONE',  ( 0.0000000000000000000, 0.0000000000000000000, 1.397637999999999936 ) ) ;
#299 = DIRECTION ( 'NONE',  ( -0.0000000000000000000, -0.0000000000000000000, -1.000000000000000000 ) ) ;
#300 = CONICAL_SURFACE ( 'NONE', #103, 0.03149599999999999622, 0.5235987755983003700 ) ;
#301 = AXIS2_PLACEMENT_3D ( 'NONE', #66, #188, #130 ) ;
#302 = DIRECTION ( 'NONE',  ( 1.221636071744017175E-16, 0.0000000000000000000, 1.000000000000000000 ) ) ;
#303 = DIRECTION ( 'NONE',  ( 1.221636071744017175E-16, 0.0000000000000000000, -1.000000000000000000 ) ) ;
#304 = VECTOR ( 'NONE', #155, 39.37007874015748854 ) ;
#305 =( GEOMETRIC_REPRESENTATION_CONTEXT ( 3 ) GLOBAL_UNCERTAINTY_ASSIGNED_CONTEXT ( ( #339 ) ) GLOBAL_UNIT_ASSIGNED_CONTEXT ( ( #157, #131, #136 ) ) REPRESENTATION_CONTEXT ( 'NONE', 'WORKASPACE' ) );
#306 = CIRCLE ( 'NONE', #214, 0.07873999999999999055 ) ;
#307 = LINE ( 'NONE', #278, #270 ) ;
#308 = PRESENTATION_STYLE_ASSIGNMENT (( #253 ) ) ;
#309 = DIRECTION ( 'NONE',  ( 1.221636071744017175E-16, 0.0000000000000000000, -1.000000000000000000 ) ) ;
#310 =( CONVERSION_BASED_UNIT ( 'INCH', #72 ) LENGTH_UNIT ( ) NAMED_UNIT ( #316 ) );
#311 = AXIS2_PLACEMENT_3D ( 'NONE', #171, #285, #192 ) ;
#312 = ORIENTED_EDGE ( 'NONE', *, *, #149, .T. ) ;
#313 = ORIENTED_EDGE ( 'NONE', *, *, #213, .F. ) ;
#314 = PRESENTATION_LAYER_ASSIGNMENT (  '', '', ( #240 ) ) ;
#315 = ORIENTED_EDGE ( 'NONE', *, *, #337, .F. ) ;
#316 = DIMENSIONAL_EXPONENTS ( 1.000000000000000000, 0.0000000000000000000, 0.0000000000000000000, 0.0000000000000000000, 0.0000000000000000000, 0.0000000000000000000, 0.0000000000000000000 ) ;
#317 = ORIENTED_EDGE ( 'NONE', *, *, #243, .T. ) ;
#318 = CARTESIAN_POINT ( 'NONE',  ( -0.03149599999999998234, 0.0000000000000000000, 1.299973293943107899 ) ) ;
#319 = DIRECTION ( 'NONE',  ( -1.000000000000000000, 0.0000000000000000000, 0.0000000000000000000 ) ) ;
#320 = ORIENTED_EDGE ( 'NONE', *, *, #74, .F. ) ;
#321 = EDGE_LOOP ( 'NONE', ( #333, #137, #345, #383 ) ) ;
#322 = CARTESIAN_POINT ( 'NONE',  ( 1.193107278553755846E-17, 0.0000000000000000000, 0.09766470605689192563 ) ) ;
#323 = DIRECTION ( 'NONE',  ( 1.221636071744017175E-16, 0.0000000000000000000, 1.000000000000000000 ) ) ;
#324 = DIRECTION ( 'NONE',  ( 1.000000000000000000, 0.0000000000000000000, -1.334178587669835812E-16 ) ) ;
#325 = CIRCLE ( 'NONE', #115, 0.03149599999999999622 ) ;
#326 = AXIS2_PLACEMENT_3D ( 'NONE', #124, #96, #245 ) ;
#327 = DIRECTION ( 'NONE',  ( -1.221636071744017175E-16, -0.0000000000000000000, -1.000000000000000000 ) ) ;
#328 = PRODUCT_CONTEXT ( 'NONE', #225, 'mechanical' ) ;
#329 = CARTESIAN_POINT ( 'NONE',  ( -0.07873999999999996280, 0.0000000000000000000, 1.218144285590324172 ) ) ;
#330 = EDGE_CURVE ( 'NONE', #230, #350, #212, .T. ) ;
#331 = FACE_OUTER_BOUND ( 'NONE', #199, .T. ) ;
#332 = CARTESIAN_POINT ( 'NONE',  ( -0.03149599999999998234, -3.857147558594503404E-18, 1.299973293943107899 ) ) ;
#333 = ORIENTED_EDGE ( 'NONE', *, *, #360, .F. ) ;
#334 = DIRECTION ( 'NONE',  ( -1.221636071744017175E-16, -0.0000000000000000000, -1.000000000000000000 ) ) ;
#335 = STYLED_ITEM ( 'NONE', ( #191 ), #346 ) ;
#336 = CYLINDRICAL_SURFACE ( 'NONE', #276, 0.07874000000000000443 ) ;
#337 = EDGE_CURVE ( 'NONE', #44, #342, #54, .T. ) ;
#338 = FILL_AREA_STYLE ('',( #250 ) ) ;
#339 = UNCERTAINTY_MEASURE_WITH_UNIT (LENGTH_MEASURE( 1.000000000000000082E-05 ), #157, 'distance_accuracy_value', 'NONE');
#340 = AXIS2_PLACEMENT_3D ( 'NONE', #268, #323, #265 ) ;
#341 = CIRCLE ( 'NONE', #10, 0.03149599999999999622 ) ;
#342 = VERTEX_POINT ( 'NONE', #235 ) ;
#343 = CARTESIAN_POINT ( 'NONE',  ( 1.193107278553755846E-17, 0.0000000000000000000, 1.299973293943107899 ) ) ;
#344 = EDGE_CURVE ( 'NONE', #342, #42, #282, .T. ) ;
#345 = ORIENTED_EDGE ( 'NONE', *, *, #32, .T. ) ;
#346 = MANIFOLD_SOLID_BREP ( 'Mirror1', #67 ) ;
#347 = DIRECTION ( 'NONE',  ( 1.000000000000000000, 0.0000000000000000000, 0.0000000000000000000 ) ) ;
#348 = CARTESIAN_POINT ( 'NONE',  ( 2.311910356625166301E-18, 0.0000000000000000000, 1.378713293943108154 ) ) ;
#349 = AXIS2_PLACEMENT_3D ( 'NONE', #71, #309, #39 ) ;
#350 = VERTEX_POINT ( 'NONE', #63 ) ;
#351 = ORIENTED_EDGE ( 'NONE', *, *, #213, .T. ) ;
#352 = DIRECTION ( 'NONE',  ( 1.221636071744017175E-16, 0.0000000000000000000, 1.000000000000000000 ) ) ;
#353 = ORIENTED_EDGE ( 'NONE', *, *, #110, .T. ) ;
#354 = ORIENTED_EDGE ( 'NONE', *, *, #260, .T. ) ;
#355 = DIRECTION ( 'NONE',  ( 0.0000000000000000000, 0.0000000000000000000, 1.000000000000000000 ) ) ;
#356 = VECTOR ( 'NONE', #194, 39.37007874015748143 ) ;
#357 = ADVANCED_BREP_SHAPE_REPRESENTATION ( 'Micro_DCM-016', ( #346, #153 ), #305 ) ;
#358 = ORIENTED_EDGE ( 'NONE', *, *, #294, .T. ) ;
#359 = CARTESIAN_POINT ( 'NONE',  ( 2.192759961741786873E-17, 0.0000000000000000000, 0.1794937144096756809 ) ) ;
#360 = EDGE_CURVE ( 'NONE', #84, #169, #160, .T. ) ;
#361 = PRODUCT ( 'Micro_DCM-016', 'Micro_DCM-016', '', ( #328 ) ) ;
#362 = CARTESIAN_POINT ( 'NONE',  ( 0.0000000000000000000, 0.0000000000000000000, 1.397637999999999936 ) ) ;
#363 = SURFACE_STYLE_FILL_AREA ( #145 ) ;
#364 = DIRECTION ( 'NONE',  ( 1.221636071744017175E-16, 0.0000000000000000000, -1.000000000000000000 ) ) ;
#365 = CARTESIAN_POINT ( 'NONE',  ( 0.0000000000000000000, 0.0000000000000000000, 0.0000000000000000000 ) ) ;
#366 = AXIS2_PLACEMENT_3D ( 'NONE', #98, #166, #100 ) ;
#367 = FACE_OUTER_BOUND ( 'NONE', #165, .T. ) ;
#368 = CARTESIAN_POINT ( 'NONE',  ( 0.0000000000000000000, 0.0000000000000000000, 1.397637999999999936 ) ) ;
#369 = DIRECTION ( 'NONE',  ( -1.000000000000000000, 0.0000000000000000000, 0.0000000000000000000 ) ) ;
#370 = ADVANCED_FACE ( 'NONE', ( #34 ), #300, .T. ) ;
#371 = VECTOR ( 'NONE', #239, 39.37007874015748143 ) ;
#372 = SURFACE_SIDE_STYLE ('',( #363 ) ) ;
#373 = APPLICATION_PROTOCOL_DEFINITION ( 'draft international standard', 'automotive_design', 1998, #225 ) ;
#374 = CARTESIAN_POINT ( 'NONE',  ( -0.03149599999999998234, 0.0000000000000000000, 0.09766470605689192563 ) ) ;
#375 = FACE_OUTER_BOUND ( 'NONE', #241, .T. ) ;
#376 = LINE ( 'NONE', #105, #36 ) ;
#377 = DIRECTION ( 'NONE',  ( -1.000000000000000000, 0.0000000000000000000, 0.0000000000000000000 ) ) ;
#378 = AXIS2_PLACEMENT_3D ( 'NONE', #60, #242, #92 ) ;
#379 = LENGTH_MEASURE_WITH_UNIT ( LENGTH_MEASURE( 0.02539999999999999897 ), #217 );
#380 = ORIENTED_EDGE ( 'NONE', *, *, #13, .T. ) ;
#381 = APPLICATION_CONTEXT ( 'automotive_design' ) ;
#382 = ADVANCED_FACE ( 'NONE', ( #375 ), #82, .T. ) ;
#383 = ORIENTED_EDGE ( 'NONE', *, *, #87, .F. ) ;
#384 = VECTOR ( 'NONE', #123, 39.37007874015748854 ) ;
#385 = LINE ( 'NONE', #204, #106 ) ;
#386 = ORIENTED_EDGE ( 'NONE', *, *, #62, .F. ) ;
#387 = ORIENTED_EDGE ( 'NONE', *, *, #337, .T. ) ;
#388 = LINE ( 'NONE', #292, #68 ) ;
#389 = MECHANICAL_DESIGN_GEOMETRIC_PRESENTATION_REPRESENTATION (  '', ( #335 ), #127 ) ;
#390 = CYLINDRICAL_SURFACE ( 'NONE', #97, 0.03149599999999999622 ) ;
#391 = DIRECTION ( 'NONE',  ( -1.000000000000000000, 0.0000000000000000000, 0.0000000000000000000 ) ) ;
#392 = DIRECTION ( 'NONE',  ( -1.221636071744017175E-16, -0.0000000000000000000, 1.000000000000000000 ) ) ;
#393 = CARTESIAN_POINT ( 'NONE',  ( 2.311910356625166301E-18, 0.0000000000000000000, 0.01892470605689192467 ) ) ;
#394 = DIRECTION ( 'NONE',  ( 1.000000000000000000, 0.0000000000000000000, 0.0000000000000000000 ) ) ;
#395 = LINE ( 'NONE', #56, #135 ) ;
#396 = DIRECTION ( 'NONE',  ( 0.5000000000000013323, 0.0000000000000000000, 0.8660254037844377084 ) ) ;
#397 = CARTESIAN_POINT ( 'NONE',  ( 2.192759961741786873E-17, 0.0000000000000000000, 1.218144285590324172 ) ) ;
ENDSEC;
END-ISO-10303-21;
