ISO-10303-21;
HEADER;
FILE_DESCRIPTION (( 'STEP AP214' ),
    '1' );
FILE_NAME ('26227.STEP',
    '2023-06-22T17:31:12',
    ( '' ),
    ( '' ),
    'SwSTEP 2.0',
    'SolidWorks 2023',
    '' );
FILE_SCHEMA (( 'AUTOMOTIVE_DESIGN' ));
ENDSEC;

DATA;
#1 = DIRECTION ( 'NONE',  ( -1.000000000000000000, 0.000000000000000000, 0.000000000000000000 ) ) ;
#2 = CIRCLE ( 'NONE', #100, 0.1874999999999999722 ) ;
#3 = AXIS2_PLACEMENT_3D ( 'NONE', #234, #210, #306 ) ;
#4 =( CONVERSION_BASED_UNIT ( 'INCH', #294 ) LENGTH_UNIT ( ) NAMED_UNIT ( #144 ) );
#5 = PRODUCT_RELATED_PRODUCT_CATEGORY ( 'part', '', ( #180 ) ) ;
#6 = PRESENTATION_LAYER_ASSIGNMENT (  '', '', ( #119 ) ) ;
#7 = SURFACE_SIDE_STYLE ('',( #272 ) ) ;
#8 = PRESENTATION_STYLE_ASSIGNMENT (( #131 ) ) ;
#9 = EDGE_LOOP ( 'NONE', ( #135, #200 ) ) ;
#10 = CLOSED_SHELL ( 'NONE', ( #138, #122, #238, #48 ) ) ;
#11 = COLOUR_RGB ( '',1.000000000000000000, 0.000000000000000000, 0.000000000000000000 ) ;
#12 = CARTESIAN_POINT ( 'NONE',  ( 0.000000000000000000, 0.000000000000000000, -0.1874999999999999722 ) ) ;
#13 = FACE_OUTER_BOUND ( 'NONE', #274, .T. ) ;
#14 = EDGE_LOOP ( 'NONE', ( #152, #157, #58, #16 ) ) ;
#15 = EDGE_CURVE ( 'NONE', #42, #279, #37, .T. ) ;
#16 = ORIENTED_EDGE ( 'NONE', *, *, #55, .F. ) ;
#17 = SHAPE_DEFINITION_REPRESENTATION ( #233, #170 ) ;
#18 = PLANE ( 'NONE',  #172 ) ;
#19 = PRODUCT_DEFINITION ( 'UNKNOWN', '', #291, #215 ) ;
#20 = DIRECTION ( 'NONE',  ( -3.498990854706722745E-17, 1.000000000000000000, -0.000000000000000000 ) ) ;
#21 = SURFACE_SIDE_STYLE ('',( #43 ) ) ;
#22 = CARTESIAN_POINT ( 'NONE',  ( 0.000000000000000000, 0.000000000000000000, -0.1875000000000000278 ) ) ;
#23 = DIRECTION ( 'NONE',  ( -3.498990854706722745E-17, 1.000000000000000000, -0.000000000000000000 ) ) ;
#24 = EDGE_CURVE ( 'NONE', #202, #83, #126, .T. ) ;
#25 = AXIS2_PLACEMENT_3D ( 'NONE', #77, #76, #98 ) ;
#26 = CYLINDRICAL_SURFACE ( 'NONE', #206, 0.1875000000000000278 ) ;
#27 = COLOUR_RGB ( '',0.7921568627450980005, 0.8196078431372548767, 0.9333333333333333481 ) ;
#28 = CIRCLE ( 'NONE', #250, 0.1874999999999999722 ) ;
#29 = PRESENTATION_LAYER_ASSIGNMENT (  '', '', ( #133 ) ) ;
#30 = SURFACE_SIDE_STYLE ('',( #213 ) ) ;
#31 = DIRECTION ( 'NONE',  ( 1.000000000000000000, 3.498990854706722745E-17, 0.000000000000000000 ) ) ;
#32 = CARTESIAN_POINT ( 'NONE',  ( 0.1874999999999999722, 2.500000000000000000, 0.000000000000000000 ) ) ;
#33 = ORIENTED_EDGE ( 'NONE', *, *, #75, .T. ) ;
#34 = COLOUR_RGB ( '',1.000000000000000000, 0.000000000000000000, 0.000000000000000000 ) ;
#35 = AXIS2_PLACEMENT_3D ( 'NONE', #123, #124, #178 ) ;
#36 = DIRECTION ( 'NONE',  ( -1.000000000000000000, 0.000000000000000000, 0.000000000000000000 ) ) ;
#37 = LINE ( 'NONE', #129, #240 ) ;
#38 = DIRECTION ( 'NONE',  ( -3.498990854706722745E-17, 1.000000000000000000, -0.000000000000000000 ) ) ;
#39 = ORIENTED_EDGE ( 'NONE', *, *, #252, .F. ) ;
#40 = SURFACE_STYLE_FILL_AREA ( #296 ) ;
#41 = VECTOR ( 'NONE', #207, 39.37007874015748143 ) ;
#42 = VERTEX_POINT ( 'NONE', #256 ) ;
#43 = SURFACE_STYLE_FILL_AREA ( #211 ) ;
#44 = DIRECTION ( 'NONE',  ( -3.498990854706722745E-17, 1.000000000000000000, -0.000000000000000000 ) ) ;
#45 = CIRCLE ( 'NONE', #120, 0.1875000000000000555 ) ;
#46 = DIRECTION ( 'NONE',  ( -1.000000000000000000, 0.000000000000000000, 0.000000000000000000 ) ) ;
#47 =( NAMED_UNIT ( * ) PLANE_ANGLE_UNIT ( ) SI_UNIT ( $, .RADIAN. ) );
#48 = ADVANCED_FACE ( 'NONE', ( #132 ), #109, .T. ) ;
#49 = SURFACE_SIDE_STYLE ('',( #285 ) ) ;
#50 =( NAMED_UNIT ( * ) SI_UNIT ( $, .STERADIAN. ) SOLID_ANGLE_UNIT ( ) );
#51 = FACE_OUTER_BOUND ( 'NONE', #161, .T. ) ;
#52 = DIRECTION ( 'NONE',  ( 0.000000000000000000, 1.000000000000000000, 0.000000000000000000 ) ) ;
#53 = CIRCLE ( 'NONE', #288, 0.1874999999999999722 ) ;
#54 =( CONVERSION_BASED_UNIT ( 'INCH', #156 ) LENGTH_UNIT ( ) NAMED_UNIT ( #91 ) );
#55 = EDGE_CURVE ( 'NONE', #177, #282, #84, .T. ) ;
#56 = ORIENTED_EDGE ( 'NONE', *, *, #112, .T. ) ;
#57 = CARTESIAN_POINT ( 'NONE',  ( -6.123233995736766036E-17, 2.500000000000000000, 0.000000000000000000 ) ) ;
#58 = ORIENTED_EDGE ( 'NONE', *, *, #194, .T. ) ;
#59 =( GEOMETRIC_REPRESENTATION_CONTEXT ( 3 ) GLOBAL_UNCERTAINTY_ASSIGNED_CONTEXT ( ( #219 ) ) GLOBAL_UNIT_ASSIGNED_CONTEXT ( ( #54, #198, #303 ) ) REPRESENTATION_CONTEXT ( 'NONE', 'WORKASPACE' ) );
#60 = PLANE ( 'NONE',  #231 ) ;
#61 = VERTEX_POINT ( 'NONE', #191 ) ;
#62 = EDGE_CURVE ( 'NONE', #83, #202, #2, .T. ) ;
#63 = DIRECTION ( 'NONE',  ( -1.000000000000000000, 0.000000000000000000, 0.000000000000000000 ) ) ;
#64 = AXIS2_PLACEMENT_3D ( 'NONE', #65, #111, #209 ) ;
#65 = CARTESIAN_POINT ( 'NONE',  ( 0.000000000000000000, 0.000000000000000000, 0.000000000000000000 ) ) ;
#66 = EDGE_CURVE ( 'NONE', #282, #177, #155, .T. ) ;
#67 = DIRECTION ( 'NONE',  ( 0.000000000000000000, 0.000000000000000000, -1.000000000000000000 ) ) ;
#68 = DIRECTION ( 'NONE',  ( -1.000000000000000000, -3.498990854706722745E-17, 0.000000000000000000 ) ) ;
#69 =( CONVERSION_BASED_UNIT ( 'INCH', #286 ) LENGTH_UNIT ( ) NAMED_UNIT ( #189 ) );
#70 = AXIS2_PLACEMENT_3D ( 'NONE', #262, #44, #1 ) ;
#71 = DIRECTION ( 'NONE',  ( 0.000000000000000000, 0.000000000000000000, -1.000000000000000000 ) ) ;
#72 = DIMENSIONAL_EXPONENTS ( 1.000000000000000000, 0.000000000000000000, 0.000000000000000000, 0.000000000000000000, 0.000000000000000000, 0.000000000000000000, 0.000000000000000000 ) ;
#73 = LENGTH_MEASURE_WITH_UNIT ( LENGTH_MEASURE( 0.02539999999999999897 ), #136 );
#74 =( NAMED_UNIT ( * ) PLANE_ANGLE_UNIT ( ) SI_UNIT ( $, .RADIAN. ) );
#75 = EDGE_CURVE ( 'NONE', #61, #230, #284, .T. ) ;
#76 = DIRECTION ( 'NONE',  ( -0.000000000000000000, -1.000000000000000000, -0.000000000000000000 ) ) ;
#77 = CARTESIAN_POINT ( 'NONE',  ( 0.000000000000000000, 0.000000000000000000, 0.000000000000000000 ) ) ;
#78 = FILL_AREA_STYLE_COLOUR ( '', #34 ) ;
#79 = STYLED_ITEM ( 'NONE', ( #267 ), #138 ) ;
#80 = UNCERTAINTY_MEASURE_WITH_UNIT (LENGTH_MEASURE( 1.000000000000000082E-05 ), #90, 'distance_accuracy_value', 'NONE');
#81 = ORIENTED_EDGE ( 'NONE', *, *, #293, .T. ) ;
#82 = EDGE_LOOP ( 'NONE', ( #205, #56, #154, #251 ) ) ;
#83 = VERTEX_POINT ( 'NONE', #236 ) ;
#84 = CIRCLE ( 'NONE', #64, 0.1875000000000000278 ) ;
#85 = CARTESIAN_POINT ( 'NONE',  ( 0.000000000000000000, 0.7500000000000001110, -0.1874999999999999722 ) ) ;
#86 = DIMENSIONAL_EXPONENTS ( 1.000000000000000000, 0.000000000000000000, 0.000000000000000000, 0.000000000000000000, 0.000000000000000000, 0.000000000000000000, 0.000000000000000000 ) ;
#87 = CARTESIAN_POINT ( 'NONE',  ( 2.296212748401287109E-17, 0.000000000000000000, 0.1875000000000000278 ) ) ;
#88 = CARTESIAN_POINT ( 'NONE',  ( 0.000000000000000000, 0.7500000000000001110, 0.000000000000000000 ) ) ;
#89 = PRESENTATION_LAYER_ASSIGNMENT (  '', '', ( #192 ) ) ;
#90 =( CONVERSION_BASED_UNIT ( 'INCH', #73 ) LENGTH_UNIT ( ) NAMED_UNIT ( #72 ) );
#91 = DIMENSIONAL_EXPONENTS ( 1.000000000000000000, 0.000000000000000000, 0.000000000000000000, 0.000000000000000000, 0.000000000000000000, 0.000000000000000000, 0.000000000000000000 ) ;
#92 = DIRECTION ( 'NONE',  ( 0.000000000000000000, -1.000000000000000000, -0.000000000000000000 ) ) ;
#93 = COLOUR_RGB ( '',1.000000000000000000, 0.000000000000000000, 0.000000000000000000 ) ;
#94 = SURFACE_STYLE_USAGE ( .BOTH. , #21 ) ;
#95 =( NAMED_UNIT ( * ) PLANE_ANGLE_UNIT ( ) SI_UNIT ( $, .RADIAN. ) );
#96 =( NAMED_UNIT ( * ) SI_UNIT ( $, .STERADIAN. ) SOLID_ANGLE_UNIT ( ) );
#97 = AXIS2_PLACEMENT_3D ( 'NONE', #281, #232, #68 ) ;
#98 = DIRECTION ( 'NONE',  ( 0.000000000000000000, 0.000000000000000000, -1.000000000000000000 ) ) ;
#99 = FILL_AREA_STYLE ('',( #78 ) ) ;
#100 = AXIS2_PLACEMENT_3D ( 'NONE', #88, #287, #166 ) ;
#101 = CARTESIAN_POINT ( 'NONE',  ( 0.1874999999999999722, 2.500000000000000000, 2.296212748401287726E-17 ) ) ;
#102 = ORIENTED_EDGE ( 'NONE', *, *, #103, .F. ) ;
#103 = EDGE_CURVE ( 'NONE', #279, #230, #229, .T. ) ;
#104 = DIRECTION ( 'NONE',  ( -3.498990854706722745E-17, 1.000000000000000000, -0.000000000000000000 ) ) ;
#105 = DIRECTION ( 'NONE',  ( -3.498990854706722745E-17, 1.000000000000000000, -0.000000000000000000 ) ) ;
#106 = CYLINDRICAL_SURFACE ( 'NONE', #107, 0.1875000000000000278 ) ;
#107 = AXIS2_PLACEMENT_3D ( 'NONE', #57, #153, #36 ) ;
#108 =( LENGTH_UNIT ( ) NAMED_UNIT ( * ) SI_UNIT ( $, .METRE. ) );
#109 = PLANE ( 'NONE',  #199 ) ;
#110 =( NAMED_UNIT ( * ) PLANE_ANGLE_UNIT ( ) SI_UNIT ( $, .RADIAN. ) );
#111 = DIRECTION ( 'NONE',  ( -0.000000000000000000, -1.000000000000000000, -0.000000000000000000 ) ) ;
#112 = EDGE_CURVE ( 'NONE', #83, #177, #163, .T. ) ;
#113 =( NAMED_UNIT ( * ) SI_UNIT ( $, .STERADIAN. ) SOLID_ANGLE_UNIT ( ) );
#114 = FILL_AREA_STYLE_COLOUR ( '', #151 ) ;
#115 =( NAMED_UNIT ( * ) SI_UNIT ( $, .STERADIAN. ) SOLID_ANGLE_UNIT ( ) );
#116 = APPLICATION_PROTOCOL_DEFINITION ( 'draft international standard', 'automotive_design', 1998, #295 ) ;
#117 = FACE_OUTER_BOUND ( 'NONE', #258, .T. ) ;
#118 = SURFACE_SIDE_STYLE ('',( #146 ) ) ;
#119 = STYLED_ITEM ( 'NONE', ( #149 ), #147 ) ;
#120 = AXIS2_PLACEMENT_3D ( 'NONE', #128, #104, #264 ) ;
#121 = PRESENTATION_STYLE_ASSIGNMENT (( #150 ) ) ;
#122 = ADVANCED_FACE ( 'NONE', ( #117 ), #18, .T. ) ;
#123 = CARTESIAN_POINT ( 'NONE',  ( 0.000000000000000000, 0.000000000000000000, 0.000000000000000000 ) ) ;
#124 = DIRECTION ( 'NONE',  ( -0.000000000000000000, -1.000000000000000000, -0.000000000000000000 ) ) ;
#125 = EDGE_LOOP ( 'NONE', ( #297, #130 ) ) ;
#126 = CIRCLE ( 'NONE', #186, 0.1874999999999999722 ) ;
#127 =( GEOMETRIC_REPRESENTATION_CONTEXT ( 3 ) GLOBAL_UNCERTAINTY_ASSIGNED_CONTEXT ( ( #273 ) ) GLOBAL_UNIT_ASSIGNED_CONTEXT ( ( #69, #110, #142 ) ) REPRESENTATION_CONTEXT ( 'NONE', 'WORKASPACE' ) );
#128 = CARTESIAN_POINT ( 'NONE',  ( -6.123233995736766036E-17, 2.500000000000000000, 0.000000000000000000 ) ) ;
#129 = CARTESIAN_POINT ( 'NONE',  ( -0.1875000000000000833, 2.500000000000000000, 0.000000000000000000 ) ) ;
#130 = ORIENTED_EDGE ( 'NONE', *, *, #55, .T. ) ;
#131 = SURFACE_STYLE_USAGE ( .BOTH. , #220 ) ;
#132 = FACE_OUTER_BOUND ( 'NONE', #125, .T. ) ;
#133 = STYLED_ITEM ( 'NONE', ( #8 ), #238 ) ;
#134 = APPLICATION_PROTOCOL_DEFINITION ( 'draft international standard', 'automotive_design', 1998, #175 ) ;
#135 = ORIENTED_EDGE ( 'NONE', *, *, #103, .T. ) ;
#136 =( LENGTH_UNIT ( ) NAMED_UNIT ( * ) SI_UNIT ( $, .METRE. ) );
#137 =( LENGTH_UNIT ( ) NAMED_UNIT ( * ) SI_UNIT ( $, .METRE. ) );
#138 = ADVANCED_FACE ( 'NONE', ( #216 ), #197, .T. ) ;
#139 =( GEOMETRIC_REPRESENTATION_CONTEXT ( 3 ) GLOBAL_UNCERTAINTY_ASSIGNED_CONTEXT ( ( #148 ) ) GLOBAL_UNIT_ASSIGNED_CONTEXT ( ( #4, #74, #50 ) ) REPRESENTATION_CONTEXT ( 'NONE', 'WORKASPACE' ) );
#140 = UNCERTAINTY_MEASURE_WITH_UNIT (LENGTH_MEASURE( 1.000000000000000082E-05 ), #164, 'distance_accuracy_value', 'NONE');
#141 = CARTESIAN_POINT ( 'NONE',  ( 2.296212748401286801E-17, 0.000000000000000000, 0.1874999999999999722 ) ) ;
#142 =( NAMED_UNIT ( * ) SI_UNIT ( $, .STERADIAN. ) SOLID_ANGLE_UNIT ( ) );
#143 = LENGTH_MEASURE_WITH_UNIT ( LENGTH_MEASURE( 0.02539999999999999897 ), #169 );
#144 = DIMENSIONAL_EXPONENTS ( 1.000000000000000000, 0.000000000000000000, 0.000000000000000000, 0.000000000000000000, 0.000000000000000000, 0.000000000000000000, 0.000000000000000000 ) ;
#145 = MANIFOLD_SOLID_BREP ( 'Revolve - Tool Body (Straight Shanked)', #276 ) ;
#146 = SURFACE_STYLE_FILL_AREA ( #171 ) ;
#147 = MANIFOLD_SOLID_BREP ( 'Revolve - Cutting Edge', #10 ) ;
#148 = UNCERTAINTY_MEASURE_WITH_UNIT (LENGTH_MEASURE( 1.000000000000000082E-05 ), #4, 'distance_accuracy_value', 'NONE');
#149 = PRESENTATION_STYLE_ASSIGNMENT (( #214 ) ) ;
#150 = SURFACE_STYLE_USAGE ( .BOTH. , #30 ) ;
#151 = COLOUR_RGB ( '',1.000000000000000000, 0.000000000000000000, 0.000000000000000000 ) ;
#152 = ORIENTED_EDGE ( 'NONE', *, *, #112, .F. ) ;
#153 = DIRECTION ( 'NONE',  ( -3.498990854706722745E-17, 1.000000000000000000, -0.000000000000000000 ) ) ;
#154 = ORIENTED_EDGE ( 'NONE', *, *, #66, .F. ) ;
#155 = CIRCLE ( 'NONE', #263, 0.1875000000000000278 ) ;
#156 = LENGTH_MEASURE_WITH_UNIT ( LENGTH_MEASURE( 0.02539999999999999897 ), #248 );
#157 = ORIENTED_EDGE ( 'NONE', *, *, #62, .T. ) ;
#158 = DIRECTION ( 'NONE',  ( 0.000000000000000000, 0.000000000000000000, -1.000000000000000000 ) ) ;
#159 = DIMENSIONAL_EXPONENTS ( 1.000000000000000000, 0.000000000000000000, 0.000000000000000000, 0.000000000000000000, 0.000000000000000000, 0.000000000000000000, 0.000000000000000000 ) ;
#160 = ADVANCED_FACE ( 'NONE', ( #51 ), #26, .T. ) ;
#161 = EDGE_LOOP ( 'NONE', ( #226, #224, #228, #39 ) ) ;
#162 = CARTESIAN_POINT ( 'NONE',  ( -7.582401355855259480E-33, 0.7499999999999998890, 0.000000000000000000 ) ) ;
#163 = LINE ( 'NONE', #141, #307 ) ;
#164 =( CONVERSION_BASED_UNIT ( 'INCH', #143 ) LENGTH_UNIT ( ) NAMED_UNIT ( #159 ) );
#165 = PLANE ( 'NONE',  #97 ) ;
#166 = DIRECTION ( 'NONE',  ( 0.000000000000000000, 0.000000000000000000, -1.000000000000000000 ) ) ;
#167 = DIMENSIONAL_EXPONENTS ( 1.000000000000000000, 0.000000000000000000, 0.000000000000000000, 0.000000000000000000, 0.000000000000000000, 0.000000000000000000, 0.000000000000000000 ) ;
#168 =( GEOMETRIC_REPRESENTATION_CONTEXT ( 3 ) GLOBAL_UNCERTAINTY_ASSIGNED_CONTEXT ( ( #80 ) ) GLOBAL_UNIT_ASSIGNED_CONTEXT ( ( #90, #309, #115 ) ) REPRESENTATION_CONTEXT ( 'NONE', 'WORKASPACE' ) );
#169 =( LENGTH_UNIT ( ) NAMED_UNIT ( * ) SI_UNIT ( $, .METRE. ) );
#170 = ADVANCED_BREP_SHAPE_REPRESENTATION ( '26227', ( #147, #145, #3 ), #127 ) ;
#171 = FILL_AREA_STYLE ('',( #195 ) ) ;
#172 = AXIS2_PLACEMENT_3D ( 'NONE', #173, #52, #245 ) ;
#173 = CARTESIAN_POINT ( 'NONE',  ( 0.000000000000000000, 0.7500000000000001110, 0.000000000000000000 ) ) ;
#174 =( GEOMETRIC_REPRESENTATION_CONTEXT ( 3 ) GLOBAL_UNCERTAINTY_ASSIGNED_CONTEXT ( ( #203 ) ) GLOBAL_UNIT_ASSIGNED_CONTEXT ( ( #270, #95, #96 ) ) REPRESENTATION_CONTEXT ( 'NONE', 'WORKASPACE' ) );
#175 = APPLICATION_CONTEXT ( 'automotive_design' ) ;
#176 =( NAMED_UNIT ( * ) PLANE_ANGLE_UNIT ( ) SI_UNIT ( $, .RADIAN. ) );
#177 = VERTEX_POINT ( 'NONE', #87 ) ;
#178 = DIRECTION ( 'NONE',  ( 0.000000000000000000, 0.000000000000000000, -1.000000000000000000 ) ) ;
#179 = ORIENTED_EDGE ( 'NONE', *, *, #305, .F. ) ;
#180 = PRODUCT ( '26227', '26227', '', ( #259 ) ) ;
#181 = CYLINDRICAL_SURFACE ( 'NONE', #35, 0.1874999999999999722 ) ;
#182 = MECHANICAL_DESIGN_GEOMETRIC_PRESENTATION_REPRESENTATION (  '', ( #192 ), #212 ) ;
#183 = FILL_AREA_STYLE_COLOUR ( '', #11 ) ;
#184 = ORIENTED_EDGE ( 'NONE', *, *, #15, .F. ) ;
#185 = DIRECTION ( 'NONE',  ( -0.000000000000000000, -1.000000000000000000, -0.000000000000000000 ) ) ;
#186 = AXIS2_PLACEMENT_3D ( 'NONE', #204, #302, #158 ) ;
#187 = PRESENTATION_STYLE_ASSIGNMENT (( #265 ) ) ;
#188 = CARTESIAN_POINT ( 'NONE',  ( -0.1875000000000001110, 2.500000000000000000, 0.000000000000000000 ) ) ;
#189 = DIMENSIONAL_EXPONENTS ( 1.000000000000000000, 0.000000000000000000, 0.000000000000000000, 0.000000000000000000, 0.000000000000000000, 0.000000000000000000, 0.000000000000000000 ) ;
#190 = FACE_OUTER_BOUND ( 'NONE', #280, .T. ) ;
#191 = CARTESIAN_POINT ( 'NONE',  ( 0.1874999999999999722, 0.7499999999999998890, 2.296212748401287726E-17 ) ) ;
#192 = STYLED_ITEM ( 'NONE', ( #187 ), #48 ) ;
#193 = PRESENTATION_STYLE_ASSIGNMENT (( #94 ) ) ;
#194 = EDGE_CURVE ( 'NONE', #202, #282, #246, .T. ) ;
#195 = FILL_AREA_STYLE_COLOUR ( '', #244 ) ;
#196 = PRESENTATION_LAYER_ASSIGNMENT (  '', '', ( #79 ) ) ;
#197 = CYLINDRICAL_SURFACE ( 'NONE', #25, 0.1874999999999999722 ) ;
#198 =( NAMED_UNIT ( * ) PLANE_ANGLE_UNIT ( ) SI_UNIT ( $, .RADIAN. ) );
#199 = AXIS2_PLACEMENT_3D ( 'NONE', #239, #92, #67 ) ;
#200 = ORIENTED_EDGE ( 'NONE', *, *, #252, .T. ) ;
#201 = LENGTH_MEASURE_WITH_UNIT ( LENGTH_MEASURE( 0.02539999999999999897 ), #108 );
#202 = VERTEX_POINT ( 'NONE', #85 ) ;
#203 = UNCERTAINTY_MEASURE_WITH_UNIT (LENGTH_MEASURE( 1.000000000000000082E-05 ), #270, 'distance_accuracy_value', 'NONE');
#204 = CARTESIAN_POINT ( 'NONE',  ( 0.000000000000000000, 0.7500000000000001110, 0.000000000000000000 ) ) ;
#205 = ORIENTED_EDGE ( 'NONE', *, *, #24, .T. ) ;
#206 = AXIS2_PLACEMENT_3D ( 'NONE', #225, #38, #255 ) ;
#207 = DIRECTION ( 'NONE',  ( -0.000000000000000000, -1.000000000000000000, -0.000000000000000000 ) ) ;
#208 = FILL_AREA_STYLE_COLOUR ( '', #93 ) ;
#209 = DIRECTION ( 'NONE',  ( 0.000000000000000000, 0.000000000000000000, -1.000000000000000000 ) ) ;
#210 = DIRECTION ( 'NONE',  ( 0.000000000000000000, 0.000000000000000000, 1.000000000000000000 ) ) ;
#211 = FILL_AREA_STYLE ('',( #114 ) ) ;
#212 =( GEOMETRIC_REPRESENTATION_CONTEXT ( 3 ) GLOBAL_UNCERTAINTY_ASSIGNED_CONTEXT ( ( #140 ) ) GLOBAL_UNIT_ASSIGNED_CONTEXT ( ( #164, #47, #113 ) ) REPRESENTATION_CONTEXT ( 'NONE', 'WORKASPACE' ) );
#213 = SURFACE_STYLE_FILL_AREA ( #218 ) ;
#214 = SURFACE_STYLE_USAGE ( .BOTH. , #118 ) ;
#215 = PRODUCT_DEFINITION_CONTEXT ( 'detailed design', #175, 'design' ) ;
#216 = FACE_OUTER_BOUND ( 'NONE', #82, .T. ) ;
#217 = STYLED_ITEM ( 'NONE', ( #121 ), #145 ) ;
#218 = FILL_AREA_STYLE ('',( #289 ) ) ;
#219 = UNCERTAINTY_MEASURE_WITH_UNIT (LENGTH_MEASURE( 1.000000000000000082E-05 ), #54, 'distance_accuracy_value', 'NONE');
#220 = SURFACE_SIDE_STYLE ('',( #40 ) ) ;
#221 = ADVANCED_FACE ( 'NONE', ( #223 ), #60, .F. ) ;
#222 = UNCERTAINTY_MEASURE_WITH_UNIT (LENGTH_MEASURE( 1.000000000000000082E-05 ), #227, 'distance_accuracy_value', 'NONE');
#223 = FACE_OUTER_BOUND ( 'NONE', #9, .T. ) ;
#224 = ORIENTED_EDGE ( 'NONE', *, *, #305, .T. ) ;
#225 = CARTESIAN_POINT ( 'NONE',  ( -6.123233995736766036E-17, 2.500000000000000000, 0.000000000000000000 ) ) ;
#226 = ORIENTED_EDGE ( 'NONE', *, *, #75, .F. ) ;
#227 =( CONVERSION_BASED_UNIT ( 'INCH', #201 ) LENGTH_UNIT ( ) NAMED_UNIT ( #167 ) );
#228 = ORIENTED_EDGE ( 'NONE', *, *, #15, .T. ) ;
#229 = CIRCLE ( 'NONE', #70, 0.1875000000000000555 ) ;
#230 = VERTEX_POINT ( 'NONE', #101 ) ;
#231 = AXIS2_PLACEMENT_3D ( 'NONE', #32, #277, #31 ) ;
#232 = DIRECTION ( 'NONE',  ( -3.498990854706722745E-17, 1.000000000000000000, 0.000000000000000000 ) ) ;
#233 = PRODUCT_DEFINITION_SHAPE ( 'NONE', 'NONE',  #19 ) ;
#234 = CARTESIAN_POINT ( 'NONE',  ( 0.000000000000000000, 0.000000000000000000, 0.000000000000000000 ) ) ;
#235 = CARTESIAN_POINT ( 'NONE',  ( -7.582401355855259480E-33, 0.7499999999999998890, 0.000000000000000000 ) ) ;
#236 = CARTESIAN_POINT ( 'NONE',  ( 2.296212748401286801E-17, 0.7500000000000001110, 0.1874999999999999722 ) ) ;
#237 =( GEOMETRIC_REPRESENTATION_CONTEXT ( 3 ) GLOBAL_UNCERTAINTY_ASSIGNED_CONTEXT ( ( #222 ) ) GLOBAL_UNIT_ASSIGNED_CONTEXT ( ( #227, #176, #298 ) ) REPRESENTATION_CONTEXT ( 'NONE', 'WORKASPACE' ) );
#238 = ADVANCED_FACE ( 'NONE', ( #253 ), #181, .T. ) ;
#239 = CARTESIAN_POINT ( 'NONE',  ( 0.000000000000000000, 0.000000000000000000, 0.000000000000000000 ) ) ;
#240 = VECTOR ( 'NONE', #105, 39.37007874015748143 ) ;
#241 =( LENGTH_UNIT ( ) NAMED_UNIT ( * ) SI_UNIT ( $, .METRE. ) );
#242 = ADVANCED_FACE ( 'NONE', ( #13 ), #106, .T. ) ;
#243 =( LENGTH_UNIT ( ) NAMED_UNIT ( * ) SI_UNIT ( $, .METRE. ) );
#244 = COLOUR_RGB ( '',0.7921568627450980005, 0.8196078431372548767, 0.9333333333333333481 ) ;
#245 = DIRECTION ( 'NONE',  ( 0.000000000000000000, -0.000000000000000000, 1.000000000000000000 ) ) ;
#246 = LINE ( 'NONE', #12, #41 ) ;
#247 = ORIENTED_EDGE ( 'NONE', *, *, #24, .F. ) ;
#248 =( LENGTH_UNIT ( ) NAMED_UNIT ( * ) SI_UNIT ( $, .METRE. ) );
#249 = PRESENTATION_LAYER_ASSIGNMENT (  '', '', ( #217 ) ) ;
#250 = AXIS2_PLACEMENT_3D ( 'NONE', #162, #261, #63 ) ;
#251 = ORIENTED_EDGE ( 'NONE', *, *, #194, .F. ) ;
#252 = EDGE_CURVE ( 'NONE', #230, #279, #45, .T. ) ;
#253 = FACE_OUTER_BOUND ( 'NONE', #14, .T. ) ;
#254 = ORIENTED_EDGE ( 'NONE', *, *, #62, .F. ) ;
#255 = DIRECTION ( 'NONE',  ( -1.000000000000000000, 0.000000000000000000, 0.000000000000000000 ) ) ;
#256 = CARTESIAN_POINT ( 'NONE',  ( -0.1874999999999999722, 0.7499999999999998890, 0.000000000000000000 ) ) ;
#257 = VECTOR ( 'NONE', #23, 39.37007874015748143 ) ;
#258 = EDGE_LOOP ( 'NONE', ( #247, #254 ) ) ;
#259 = PRODUCT_CONTEXT ( 'NONE', #295, 'mechanical' ) ;
#260 = DIRECTION ( 'NONE',  ( -0.000000000000000000, -1.000000000000000000, -0.000000000000000000 ) ) ;
#261 = DIRECTION ( 'NONE',  ( -3.498990854706722745E-17, 1.000000000000000000, -0.000000000000000000 ) ) ;
#262 = CARTESIAN_POINT ( 'NONE',  ( -6.123233995736766036E-17, 2.500000000000000000, 0.000000000000000000 ) ) ;
#263 = AXIS2_PLACEMENT_3D ( 'NONE', #308, #185, #71 ) ;
#264 = DIRECTION ( 'NONE',  ( -1.000000000000000000, 0.000000000000000000, 0.000000000000000000 ) ) ;
#265 = SURFACE_STYLE_USAGE ( .BOTH. , #49 ) ;
#266 = CARTESIAN_POINT ( 'NONE',  ( 0.1874999999999999445, 2.500000000000000000, 2.296212748401287726E-17 ) ) ;
#267 = PRESENTATION_STYLE_ASSIGNMENT (( #292 ) ) ;
#268 = LENGTH_MEASURE_WITH_UNIT ( LENGTH_MEASURE( 0.02539999999999999897 ), #241 );
#269 = ADVANCED_FACE ( 'NONE', ( #190 ), #165, .F. ) ;
#270 =( CONVERSION_BASED_UNIT ( 'INCH', #268 ) LENGTH_UNIT ( ) NAMED_UNIT ( #86 ) );
#271 = STYLED_ITEM ( 'NONE', ( #193 ), #122 ) ;
#272 = SURFACE_STYLE_FILL_AREA ( #99 ) ;
#273 = UNCERTAINTY_MEASURE_WITH_UNIT (LENGTH_MEASURE( 1.000000000000000082E-05 ), #69, 'distance_accuracy_value', 'NONE');
#274 = EDGE_LOOP ( 'NONE', ( #81, #33, #102, #184 ) ) ;
#275 = ORIENTED_EDGE ( 'NONE', *, *, #293, .F. ) ;
#276 = CLOSED_SHELL ( 'NONE', ( #242, #269, #160, #221 ) ) ;
#277 = DIRECTION ( 'NONE',  ( 3.498990854706722745E-17, -1.000000000000000000, 0.000000000000000000 ) ) ;
#278 = PRESENTATION_LAYER_ASSIGNMENT (  '', '', ( #271 ) ) ;
#279 = VERTEX_POINT ( 'NONE', #188 ) ;
#280 = EDGE_LOOP ( 'NONE', ( #275, #179 ) ) ;
#281 = CARTESIAN_POINT ( 'NONE',  ( 1.147775343873870077E-34, 0.7500000000000001110, 0.000000000000000000 ) ) ;
#282 = VERTEX_POINT ( 'NONE', #22 ) ;
#283 = MECHANICAL_DESIGN_GEOMETRIC_PRESENTATION_REPRESENTATION (  '', ( #271 ), #168 ) ;
#284 = LINE ( 'NONE', #266, #257 ) ;
#285 = SURFACE_STYLE_FILL_AREA ( #304 ) ;
#286 = LENGTH_MEASURE_WITH_UNIT ( LENGTH_MEASURE( 0.02539999999999999897 ), #137 );
#287 = DIRECTION ( 'NONE',  ( -0.000000000000000000, -1.000000000000000000, -0.000000000000000000 ) ) ;
#288 = AXIS2_PLACEMENT_3D ( 'NONE', #235, #20, #46 ) ;
#289 = FILL_AREA_STYLE_COLOUR ( '', #27 ) ;
#290 = MECHANICAL_DESIGN_GEOMETRIC_PRESENTATION_REPRESENTATION (  '', ( #217 ), #139 ) ;
#291 = PRODUCT_DEFINITION_FORMATION_WITH_SPECIFIED_SOURCE ( 'ANY', '', #180, .NOT_KNOWN. ) ;
#292 = SURFACE_STYLE_USAGE ( .BOTH. , #7 ) ;
#293 = EDGE_CURVE ( 'NONE', #42, #61, #53, .T. ) ;
#294 = LENGTH_MEASURE_WITH_UNIT ( LENGTH_MEASURE( 0.02539999999999999897 ), #243 );
#295 = APPLICATION_CONTEXT ( 'automotive_design' ) ;
#296 = FILL_AREA_STYLE ('',( #183 ) ) ;
#297 = ORIENTED_EDGE ( 'NONE', *, *, #66, .T. ) ;
#298 =( NAMED_UNIT ( * ) SI_UNIT ( $, .STERADIAN. ) SOLID_ANGLE_UNIT ( ) );
#299 = MECHANICAL_DESIGN_GEOMETRIC_PRESENTATION_REPRESENTATION (  '', ( #79 ), #174 ) ;
#300 = MECHANICAL_DESIGN_GEOMETRIC_PRESENTATION_REPRESENTATION (  '', ( #119 ), #59 ) ;
#301 = MECHANICAL_DESIGN_GEOMETRIC_PRESENTATION_REPRESENTATION (  '', ( #133 ), #237 ) ;
#302 = DIRECTION ( 'NONE',  ( -0.000000000000000000, -1.000000000000000000, -0.000000000000000000 ) ) ;
#303 =( NAMED_UNIT ( * ) SI_UNIT ( $, .STERADIAN. ) SOLID_ANGLE_UNIT ( ) );
#304 = FILL_AREA_STYLE ('',( #208 ) ) ;
#305 = EDGE_CURVE ( 'NONE', #61, #42, #28, .T. ) ;
#306 = DIRECTION ( 'NONE',  ( 1.000000000000000000, 0.000000000000000000, 0.000000000000000000 ) ) ;
#307 = VECTOR ( 'NONE', #260, 39.37007874015748143 ) ;
#308 = CARTESIAN_POINT ( 'NONE',  ( 0.000000000000000000, 0.000000000000000000, 0.000000000000000000 ) ) ;
#309 =( NAMED_UNIT ( * ) PLANE_ANGLE_UNIT ( ) SI_UNIT ( $, .RADIAN. ) );
ENDSEC;
END-ISO-10303-21;
