ISO-10303-21;
HEADER;
FILE_DESCRIPTION (( 'STEP AP214' ),
    '1' );
FILE_NAME ('48235.STEP',
    '2023-06-22T21:16:37',
    ( '' ),
    ( '' ),
    'SwSTEP 2.0',
    'SolidWorks 2023',
    '' );
FILE_SCHEMA (( 'AUTOMOTIVE_DESIGN' ));
ENDSEC;

DATA;
#1 = CIRCLE ( 'NONE', #15, 0.1875000000000000555 ) ;
#2 = DIRECTION ( 'NONE',  ( 0.000000000000000000, -0.000000000000000000, 1.000000000000000000 ) ) ;
#3 = ADVANCED_FACE ( 'NONE', ( #271 ), #128, .F. ) ;
#4 = CARTESIAN_POINT ( 'NONE',  ( 1.224646799147353700E-16, 2.000000000000000000, 0.000000000000000000 ) ) ;
#5 = DIRECTION ( 'NONE',  ( 8.164311994315692567E-17, 1.000000000000000000, -0.000000000000000000 ) ) ;
#6 = LENGTH_MEASURE_WITH_UNIT ( LENGTH_MEASURE( 0.02539999999999999897 ), #72 );
#7 =( LENGTH_UNIT ( ) NAMED_UNIT ( * ) SI_UNIT ( $, .METRE. ) );
#8 = PRESENTATION_LAYER_ASSIGNMENT (  '', '', ( #257 ) ) ;
#9 = EDGE_CURVE ( 'NONE', #217, #194, #117, .T. ) ;
#10 = SURFACE_STYLE_USAGE ( .BOTH. , #214 ) ;
#11 = CARTESIAN_POINT ( 'NONE',  ( 0.000000000000000000, 0.5000000000000001110, 0.000000000000000000 ) ) ;
#12 = ORIENTED_EDGE ( 'NONE', *, *, #96, .T. ) ;
#13 = SHAPE_DEFINITION_REPRESENTATION ( #138, #284 ) ;
#14 = FILL_AREA_STYLE_COLOUR ( '', #179 ) ;
#15 = AXIS2_PLACEMENT_3D ( 'NONE', #273, #248, #174 ) ;
#16 =( GEOMETRIC_REPRESENTATION_CONTEXT ( 3 ) GLOBAL_UNCERTAINTY_ASSIGNED_CONTEXT ( ( #228 ) ) GLOBAL_UNIT_ASSIGNED_CONTEXT ( ( #146, #269, #102 ) ) REPRESENTATION_CONTEXT ( 'NONE', 'WORKASPACE' ) );
#17 =( NAMED_UNIT ( * ) PLANE_ANGLE_UNIT ( ) SI_UNIT ( $, .RADIAN. ) );
#18 =( LENGTH_UNIT ( ) NAMED_UNIT ( * ) SI_UNIT ( $, .METRE. ) );
#19 = CARTESIAN_POINT ( 'NONE',  ( 1.224646799147353700E-16, 2.000000000000000000, 0.000000000000000000 ) ) ;
#20 = CARTESIAN_POINT ( 'NONE',  ( 0.000000000000000000, 0.5000000000000000000, 0.000000000000000000 ) ) ;
#21 = FACE_OUTER_BOUND ( 'NONE', #294, .T. ) ;
#22 = STYLED_ITEM ( 'NONE', ( #108 ), #158 ) ;
#23 = MECHANICAL_DESIGN_GEOMETRIC_PRESENTATION_REPRESENTATION (  '', ( #257 ), #192 ) ;
#24 = SURFACE_STYLE_USAGE ( .BOTH. , #86 ) ;
#25 = DIRECTION ( 'NONE',  ( -0.000000000000000000, -1.000000000000000000, -0.000000000000000000 ) ) ;
#26 = EDGE_LOOP ( 'NONE', ( #12, #70 ) ) ;
#27 = LENGTH_MEASURE_WITH_UNIT ( LENGTH_MEASURE( 0.02539999999999999897 ), #221 );
#28 = CARTESIAN_POINT ( 'NONE',  ( 2.296212748401287726E-17, 0.000000000000000000, 0.1875000000000000278 ) ) ;
#29 = ORIENTED_EDGE ( 'NONE', *, *, #172, .T. ) ;
#30 = AXIS2_PLACEMENT_3D ( 'NONE', #251, #225, #253 ) ;
#31 = VERTEX_POINT ( 'NONE', #190 ) ;
#32 = UNCERTAINTY_MEASURE_WITH_UNIT (LENGTH_MEASURE( 1.000000000000000082E-05 ), #133, 'distance_accuracy_value', 'NONE');
#33 = FILL_AREA_STYLE_COLOUR ( '', #170 ) ;
#34 = LENGTH_MEASURE_WITH_UNIT ( LENGTH_MEASURE( 0.02539999999999999897 ), #18 );
#35 = UNCERTAINTY_MEASURE_WITH_UNIT (LENGTH_MEASURE( 1.000000000000000082E-05 ), #98, 'distance_accuracy_value', 'NONE');
#36 = DIRECTION ( 'NONE',  ( 0.000000000000000000, 0.000000000000000000, -1.000000000000000000 ) ) ;
#37 =( NAMED_UNIT ( * ) PLANE_ANGLE_UNIT ( ) SI_UNIT ( $, .RADIAN. ) );
#38 = LENGTH_MEASURE_WITH_UNIT ( LENGTH_MEASURE( 0.02539999999999999897 ), #57 );
#39 = DIRECTION ( 'NONE',  ( 8.164311994315692567E-17, 1.000000000000000000, -0.000000000000000000 ) ) ;
#40 = DIRECTION ( 'NONE',  ( 8.164311994315692567E-17, 1.000000000000000000, -0.000000000000000000 ) ) ;
#41 = FILL_AREA_STYLE ('',( #159 ) ) ;
#42 = CIRCLE ( 'NONE', #107, 0.1875000000000000278 ) ;
#43 = AXIS2_PLACEMENT_3D ( 'NONE', #44, #39, #161 ) ;
#44 = CARTESIAN_POINT ( 'NONE',  ( 6.248999094424416107E-34, 0.5000000000000000000, 0.000000000000000000 ) ) ;
#45 = PLANE ( 'NONE',  #43 ) ;
#46 = VERTEX_POINT ( 'NONE', #28 ) ;
#47 = STYLED_ITEM ( 'NONE', ( #252 ), #78 ) ;
#48 = COLOUR_RGB ( '',1.000000000000000000, 0.000000000000000000, 0.000000000000000000 ) ;
#49 = VERTEX_POINT ( 'NONE', #219 ) ;
#50 = CARTESIAN_POINT ( 'NONE',  ( 1.224646799147353700E-16, 2.000000000000000000, 0.000000000000000000 ) ) ;
#51 = SURFACE_STYLE_FILL_AREA ( #131 ) ;
#52 = VERTEX_POINT ( 'NONE', #54 ) ;
#53 = AXIS2_PLACEMENT_3D ( 'NONE', #162, #262, #165 ) ;
#54 = CARTESIAN_POINT ( 'NONE',  ( 0.000000000000000000, 0.5000000000000000000, -0.1875000000000000555 ) ) ;
#55 = EDGE_CURVE ( 'NONE', #217, #31, #164, .T. ) ;
#56 = SURFACE_STYLE_USAGE ( .BOTH. , #178 ) ;
#57 =( LENGTH_UNIT ( ) NAMED_UNIT ( * ) SI_UNIT ( $, .METRE. ) );
#58 = ADVANCED_FACE ( 'NONE', ( #150 ), #247, .T. ) ;
#59 =( NAMED_UNIT ( * ) SI_UNIT ( $, .STERADIAN. ) SOLID_ANGLE_UNIT ( ) );
#60 = CYLINDRICAL_SURFACE ( 'NONE', #264, 0.1875000000000000555 ) ;
#61 = DIRECTION ( 'NONE',  ( -0.000000000000000000, -1.000000000000000000, -0.000000000000000000 ) ) ;
#62 = MECHANICAL_DESIGN_GEOMETRIC_PRESENTATION_REPRESENTATION (  '', ( #65 ), #100 ) ;
#63 = DIRECTION ( 'NONE',  ( -0.000000000000000000, -1.000000000000000000, -0.000000000000000000 ) ) ;
#64 = DIRECTION ( 'NONE',  ( 8.164311994315692567E-17, 1.000000000000000000, -0.000000000000000000 ) ) ;
#65 = STYLED_ITEM ( 'NONE', ( #125 ), #58 ) ;
#66 = CIRCLE ( 'NONE', #111, 0.1875000000000000278 ) ;
#67 = CARTESIAN_POINT ( 'NONE',  ( -0.1874999999999997780, 2.000000000000000000, 0.000000000000000000 ) ) ;
#68 =( CONVERSION_BASED_UNIT ( 'INCH', #6 ) LENGTH_UNIT ( ) NAMED_UNIT ( #166 ) );
#69 = SURFACE_STYLE_USAGE ( .BOTH. , #106 ) ;
#70 = ORIENTED_EDGE ( 'NONE', *, *, #282, .T. ) ;
#71 = EDGE_LOOP ( 'NONE', ( #307, #73, #196, #292 ) ) ;
#72 =( LENGTH_UNIT ( ) NAMED_UNIT ( * ) SI_UNIT ( $, .METRE. ) );
#73 = ORIENTED_EDGE ( 'NONE', *, *, #208, .T. ) ;
#74 =( NAMED_UNIT ( * ) PLANE_ANGLE_UNIT ( ) SI_UNIT ( $, .RADIAN. ) );
#75 = ORIENTED_EDGE ( 'NONE', *, *, #55, .T. ) ;
#76 = CLOSED_SHELL ( 'NONE', ( #203, #300, #78, #58 ) ) ;
#77 = FILL_AREA_STYLE ('',( #277 ) ) ;
#78 = ADVANCED_FACE ( 'NONE', ( #176 ), #60, .T. ) ;
#79 =( NAMED_UNIT ( * ) SI_UNIT ( $, .STERADIAN. ) SOLID_ANGLE_UNIT ( ) );
#80 = PRODUCT_CONTEXT ( 'NONE', #92, 'mechanical' ) ;
#81 = DIRECTION ( 'NONE',  ( -0.000000000000000000, -1.000000000000000000, -0.000000000000000000 ) ) ;
#82 = VECTOR ( 'NONE', #5, 39.37007874015748143 ) ;
#83 = CIRCLE ( 'NONE', #249, 0.1874999999999999167 ) ;
#84 = SURFACE_STYLE_FILL_AREA ( #110 ) ;
#85 = CARTESIAN_POINT ( 'NONE',  ( -0.1875000000000000555, 0.5000000000000001110, 0.000000000000000000 ) ) ;
#86 = SURFACE_SIDE_STYLE ('',( #211 ) ) ;
#87 = CARTESIAN_POINT ( 'NONE',  ( -0.1874999999999998335, 2.000000000000000000, 0.000000000000000000 ) ) ;
#88 = DIRECTION ( 'NONE',  ( -1.000000000000000000, 0.000000000000000000, 0.000000000000000000 ) ) ;
#89 = CARTESIAN_POINT ( 'NONE',  ( 0.000000000000000000, 0.5000000000000000000, 0.000000000000000000 ) ) ;
#90 = PRESENTATION_LAYER_ASSIGNMENT (  '', '', ( #65 ) ) ;
#91 = AXIS2_PLACEMENT_3D ( 'NONE', #89, #25, #135 ) ;
#92 = APPLICATION_CONTEXT ( 'automotive_design' ) ;
#93 = FACE_OUTER_BOUND ( 'NONE', #288, .T. ) ;
#94 = PRODUCT_DEFINITION_CONTEXT ( 'detailed design', #114, 'design' ) ;
#95 = FILL_AREA_STYLE_COLOUR ( '', #48 ) ;
#96 = EDGE_CURVE ( 'NONE', #49, #46, #42, .T. ) ;
#97 = PLANE ( 'NONE',  #156 ) ;
#98 =( CONVERSION_BASED_UNIT ( 'INCH', #145 ) LENGTH_UNIT ( ) NAMED_UNIT ( #289 ) );
#99 = PRODUCT_RELATED_PRODUCT_CATEGORY ( 'part', '', ( #238 ) ) ;
#100 =( GEOMETRIC_REPRESENTATION_CONTEXT ( 3 ) GLOBAL_UNCERTAINTY_ASSIGNED_CONTEXT ( ( #35 ) ) GLOBAL_UNIT_ASSIGNED_CONTEXT ( ( #98, #17, #304 ) ) REPRESENTATION_CONTEXT ( 'NONE', 'WORKASPACE' ) );
#101 =( GEOMETRIC_REPRESENTATION_CONTEXT ( 3 ) GLOBAL_UNCERTAINTY_ASSIGNED_CONTEXT ( ( #109 ) ) GLOBAL_UNIT_ASSIGNED_CONTEXT ( ( #189, #301, #173 ) ) REPRESENTATION_CONTEXT ( 'NONE', 'WORKASPACE' ) );
#102 =( NAMED_UNIT ( * ) SI_UNIT ( $, .STERADIAN. ) SOLID_ANGLE_UNIT ( ) );
#103 = ORIENTED_EDGE ( 'NONE', *, *, #112, .F. ) ;
#104 = DIRECTION ( 'NONE',  ( -0.000000000000000000, -1.000000000000000000, -0.000000000000000000 ) ) ;
#105 = EDGE_LOOP ( 'NONE', ( #29, #265 ) ) ;
#106 = SURFACE_SIDE_STYLE ('',( #51 ) ) ;
#107 = AXIS2_PLACEMENT_3D ( 'NONE', #154, #81, #113 ) ;
#108 = PRESENTATION_STYLE_ASSIGNMENT (( #56 ) ) ;
#109 = UNCERTAINTY_MEASURE_WITH_UNIT (LENGTH_MEASURE( 1.000000000000000082E-05 ), #189, 'distance_accuracy_value', 'NONE');
#110 = FILL_AREA_STYLE ('',( #14 ) ) ;
#111 = AXIS2_PLACEMENT_3D ( 'NONE', #283, #104, #163 ) ;
#112 = EDGE_CURVE ( 'NONE', #194, #217, #1, .T. ) ;
#113 = DIRECTION ( 'NONE',  ( 0.000000000000000000, 0.000000000000000000, -1.000000000000000000 ) ) ;
#114 = APPLICATION_CONTEXT ( 'automotive_design' ) ;
#115 =( CONVERSION_BASED_UNIT ( 'INCH', #235 ) LENGTH_UNIT ( ) NAMED_UNIT ( #126 ) );
#116 = CARTESIAN_POINT ( 'NONE',  ( 2.296212748401288034E-17, 0.000000000000000000, 0.1875000000000000555 ) ) ;
#117 = CIRCLE ( 'NONE', #202, 0.1875000000000000555 ) ;
#118 = VECTOR ( 'NONE', #63, 39.37007874015748143 ) ;
#119 = AXIS2_PLACEMENT_3D ( 'NONE', #50, #127, #263 ) ;
#120 = CARTESIAN_POINT ( 'NONE',  ( 0.000000000000000000, 0.5000000000000000000, 0.000000000000000000 ) ) ;
#121 = ORIENTED_EDGE ( 'NONE', *, *, #223, .F. ) ;
#122 = CIRCLE ( 'NONE', #160, 0.1874999999999999167 ) ;
#123 = PRODUCT_DEFINITION_FORMATION_WITH_SPECIFIED_SOURCE ( 'ANY', '', #238, .NOT_KNOWN. ) ;
#124 = SURFACE_STYLE_FILL_AREA ( #246 ) ;
#125 = PRESENTATION_STYLE_ASSIGNMENT (( #69 ) ) ;
#126 = DIMENSIONAL_EXPONENTS ( 1.000000000000000000, 0.000000000000000000, 0.000000000000000000, 0.000000000000000000, 0.000000000000000000, 0.000000000000000000, 0.000000000000000000 ) ;
#127 = DIRECTION ( 'NONE',  ( 8.164311994315692567E-17, 1.000000000000000000, -0.000000000000000000 ) ) ;
#128 = PLANE ( 'NONE',  #53 ) ;
#129 = UNCERTAINTY_MEASURE_WITH_UNIT (LENGTH_MEASURE( 1.000000000000000082E-05 ), #231, 'distance_accuracy_value', 'NONE');
#130 = PRESENTATION_STYLE_ASSIGNMENT (( #259 ) ) ;
#131 = FILL_AREA_STYLE ('',( #33 ) ) ;
#132 =( GEOMETRIC_REPRESENTATION_CONTEXT ( 3 ) GLOBAL_UNCERTAINTY_ASSIGNED_CONTEXT ( ( #199 ) ) GLOBAL_UNIT_ASSIGNED_CONTEXT ( ( #115, #256, #180 ) ) REPRESENTATION_CONTEXT ( 'NONE', 'WORKASPACE' ) );
#133 =( CONVERSION_BASED_UNIT ( 'INCH', #38 ) LENGTH_UNIT ( ) NAMED_UNIT ( #148 ) );
#134 = CARTESIAN_POINT ( 'NONE',  ( 0.1875000000000000555, 0.5000000000000001110, 2.296212748401287109E-17 ) ) ;
#135 = DIRECTION ( 'NONE',  ( 0.000000000000000000, 0.000000000000000000, -1.000000000000000000 ) ) ;
#136 = MECHANICAL_DESIGN_GEOMETRIC_PRESENTATION_REPRESENTATION (  '', ( #213 ), #132 ) ;
#137 = SURFACE_STYLE_FILL_AREA ( #41 ) ;
#138 = PRODUCT_DEFINITION_SHAPE ( 'NONE', 'NONE',  #188 ) ;
#139 = FILL_AREA_STYLE ('',( #255 ) ) ;
#140 = EDGE_LOOP ( 'NONE', ( #195, #169, #290, #121 ) ) ;
#141 = DIRECTION ( 'NONE',  ( 8.164311994315692567E-17, 1.000000000000000000, -0.000000000000000000 ) ) ;
#142 = DIRECTION ( 'NONE',  ( -1.000000000000000000, 0.000000000000000000, 0.000000000000000000 ) ) ;
#143 = FACE_OUTER_BOUND ( 'NONE', #186, .T. ) ;
#144 = EDGE_LOOP ( 'NONE', ( #267, #75, #240, #244 ) ) ;
#145 = LENGTH_MEASURE_WITH_UNIT ( LENGTH_MEASURE( 0.02539999999999999897 ), #7 );
#146 =( CONVERSION_BASED_UNIT ( 'INCH', #261 ) LENGTH_UNIT ( ) NAMED_UNIT ( #200 ) );
#147 = ORIENTED_EDGE ( 'NONE', *, *, #208, .F. ) ;
#148 = DIMENSIONAL_EXPONENTS ( 1.000000000000000000, 0.000000000000000000, 0.000000000000000000, 0.000000000000000000, 0.000000000000000000, 0.000000000000000000, 0.000000000000000000 ) ;
#149 = COLOUR_RGB ( '',0.7921568627450980005, 0.8196078431372548767, 0.9333333333333333481 ) ;
#150 = FACE_OUTER_BOUND ( 'NONE', #26, .T. ) ;
#151 = CARTESIAN_POINT ( 'NONE',  ( 0.000000000000000000, 0.000000000000000000, 0.000000000000000000 ) ) ;
#152 = MECHANICAL_DESIGN_GEOMETRIC_PRESENTATION_REPRESENTATION (  '', ( #47 ), #272 ) ;
#153 = APPLICATION_PROTOCOL_DEFINITION ( 'draft international standard', 'automotive_design', 1998, #114 ) ;
#154 = CARTESIAN_POINT ( 'NONE',  ( 0.000000000000000000, 0.000000000000000000, 0.000000000000000000 ) ) ;
#155 = LINE ( 'NONE', #116, #220 ) ;
#156 = AXIS2_PLACEMENT_3D ( 'NONE', #120, #242, #2 ) ;
#157 = CARTESIAN_POINT ( 'NONE',  ( 1.224646799147353700E-16, 2.000000000000000000, 0.000000000000000000 ) ) ;
#158 = MANIFOLD_SOLID_BREP ( 'Revolve - Cutting Edge', #76 ) ;
#159 = FILL_AREA_STYLE_COLOUR ( '', #149 ) ;
#160 = AXIS2_PLACEMENT_3D ( 'NONE', #19, #40, #88 ) ;
#161 = DIRECTION ( 'NONE',  ( -1.000000000000000000, 8.164311994315692567E-17, 0.000000000000000000 ) ) ;
#162 = CARTESIAN_POINT ( 'NONE',  ( 0.1875000000000000555, 2.000000000000000000, 0.000000000000000000 ) ) ;
#163 = DIRECTION ( 'NONE',  ( 0.000000000000000000, 0.000000000000000000, -1.000000000000000000 ) ) ;
#164 = LINE ( 'NONE', #241, #82 ) ;
#165 = DIRECTION ( 'NONE',  ( 1.000000000000000000, -8.164311994315692567E-17, 0.000000000000000000 ) ) ;
#166 = DIMENSIONAL_EXPONENTS ( 1.000000000000000000, 0.000000000000000000, 0.000000000000000000, 0.000000000000000000, 0.000000000000000000, 0.000000000000000000, 0.000000000000000000 ) ;
#167 = VERTEX_POINT ( 'NONE', #206 ) ;
#168 = DIMENSIONAL_EXPONENTS ( 1.000000000000000000, 0.000000000000000000, 0.000000000000000000, 0.000000000000000000, 0.000000000000000000, 0.000000000000000000, 0.000000000000000000 ) ;
#169 = ORIENTED_EDGE ( 'NONE', *, *, #232, .T. ) ;
#170 = COLOUR_RGB ( '',1.000000000000000000, 0.000000000000000000, 0.000000000000000000 ) ;
#171 = SURFACE_SIDE_STYLE ('',( #274 ) ) ;
#172 = EDGE_CURVE ( 'NONE', #224, #31, #122, .T. ) ;
#173 =( NAMED_UNIT ( * ) SI_UNIT ( $, .STERADIAN. ) SOLID_ANGLE_UNIT ( ) );
#174 = DIRECTION ( 'NONE',  ( -1.000000000000000000, 0.000000000000000000, 0.000000000000000000 ) ) ;
#175 = DIMENSIONAL_EXPONENTS ( 1.000000000000000000, 0.000000000000000000, 0.000000000000000000, 0.000000000000000000, 0.000000000000000000, 0.000000000000000000, 0.000000000000000000 ) ;
#176 = FACE_OUTER_BOUND ( 'NONE', #71, .T. ) ;
#177 = CIRCLE ( 'NONE', #91, 0.1875000000000000555 ) ;
#178 = SURFACE_SIDE_STYLE ('',( #84 ) ) ;
#179 = COLOUR_RGB ( '',0.7921568627450980005, 0.8196078431372548767, 0.9333333333333333481 ) ;
#180 =( NAMED_UNIT ( * ) SI_UNIT ( $, .STERADIAN. ) SOLID_ANGLE_UNIT ( ) );
#181 = AXIS2_PLACEMENT_3D ( 'NONE', #278, #61, #258 ) ;
#182 = DIRECTION ( 'NONE',  ( -1.000000000000000000, 0.000000000000000000, 0.000000000000000000 ) ) ;
#183 = DIRECTION ( 'NONE',  ( 0.000000000000000000, 0.000000000000000000, -1.000000000000000000 ) ) ;
#184 = FACE_OUTER_BOUND ( 'NONE', #140, .T. ) ;
#185 = PRESENTATION_LAYER_ASSIGNMENT (  '', '', ( #22 ) ) ;
#186 = EDGE_LOOP ( 'NONE', ( #295, #147 ) ) ;
#187 = PRESENTATION_STYLE_ASSIGNMENT (( #10 ) ) ;
#188 = PRODUCT_DEFINITION ( 'UNKNOWN', '', #123, #94 ) ;
#189 =( CONVERSION_BASED_UNIT ( 'INCH', #27 ) LENGTH_UNIT ( ) NAMED_UNIT ( #168 ) );
#190 = CARTESIAN_POINT ( 'NONE',  ( 0.1875000000000000555, 2.000000000000000000, 2.296212748401287109E-17 ) ) ;
#191 = MECHANICAL_DESIGN_GEOMETRIC_PRESENTATION_REPRESENTATION (  '', ( #22 ), #303 ) ;
#192 =( GEOMETRIC_REPRESENTATION_CONTEXT ( 3 ) GLOBAL_UNCERTAINTY_ASSIGNED_CONTEXT ( ( #299 ) ) GLOBAL_UNIT_ASSIGNED_CONTEXT ( ( #68, #74, #216 ) ) REPRESENTATION_CONTEXT ( 'NONE', 'WORKASPACE' ) );
#193 = CYLINDRICAL_SURFACE ( 'NONE', #119, 0.1874999999999999722 ) ;
#194 = VERTEX_POINT ( 'NONE', #85 ) ;
#195 = ORIENTED_EDGE ( 'NONE', *, *, #236, .T. ) ;
#196 = ORIENTED_EDGE ( 'NONE', *, *, #223, .T. ) ;
#197 = PRESENTATION_LAYER_ASSIGNMENT (  '', '', ( #47 ) ) ;
#198 = PRESENTATION_LAYER_ASSIGNMENT (  '', '', ( #280 ) ) ;
#199 = UNCERTAINTY_MEASURE_WITH_UNIT (LENGTH_MEASURE( 1.000000000000000082E-05 ), #115, 'distance_accuracy_value', 'NONE');
#200 = DIMENSIONAL_EXPONENTS ( 1.000000000000000000, 0.000000000000000000, 0.000000000000000000, 0.000000000000000000, 0.000000000000000000, 0.000000000000000000, 0.000000000000000000 ) ;
#201 = DIRECTION ( 'NONE',  ( -0.000000000000000000, -1.000000000000000000, -0.000000000000000000 ) ) ;
#202 = AXIS2_PLACEMENT_3D ( 'NONE', #11, #222, #142 ) ;
#203 = ADVANCED_FACE ( 'NONE', ( #184 ), #234, .T. ) ;
#204 = MECHANICAL_DESIGN_GEOMETRIC_PRESENTATION_REPRESENTATION (  '', ( #280 ), #16 ) ;
#205 =( NAMED_UNIT ( * ) PLANE_ANGLE_UNIT ( ) SI_UNIT ( $, .RADIAN. ) );
#206 = CARTESIAN_POINT ( 'NONE',  ( 2.296212748401288034E-17, 0.5000000000000000000, 0.1875000000000000555 ) ) ;
#207 = CARTESIAN_POINT ( 'NONE',  ( 0.000000000000000000, 0.000000000000000000, -0.1875000000000000555 ) ) ;
#208 = EDGE_CURVE ( 'NONE', #167, #52, #177, .T. ) ;
#209 = CLOSED_SHELL ( 'NONE', ( #298, #229, #305, #3 ) ) ;
#210 = DIRECTION ( 'NONE',  ( -0.000000000000000000, -1.000000000000000000, -0.000000000000000000 ) ) ;
#211 = SURFACE_STYLE_FILL_AREA ( #139 ) ;
#212 = CYLINDRICAL_SURFACE ( 'NONE', #227, 0.1874999999999999722 ) ;
#213 = STYLED_ITEM ( 'NONE', ( #239 ), #203 ) ;
#214 = SURFACE_SIDE_STYLE ('',( #124 ) ) ;
#215 = ORIENTED_EDGE ( 'NONE', *, *, #266, .F. ) ;
#216 =( NAMED_UNIT ( * ) SI_UNIT ( $, .STERADIAN. ) SOLID_ANGLE_UNIT ( ) );
#217 = VERTEX_POINT ( 'NONE', #134 ) ;
#218 = DIRECTION ( 'NONE',  ( -1.000000000000000000, 0.000000000000000000, 0.000000000000000000 ) ) ;
#219 = CARTESIAN_POINT ( 'NONE',  ( 0.000000000000000000, 0.000000000000000000, -0.1875000000000000278 ) ) ;
#220 = VECTOR ( 'NONE', #233, 39.37007874015748143 ) ;
#221 =( LENGTH_UNIT ( ) NAMED_UNIT ( * ) SI_UNIT ( $, .METRE. ) );
#222 = DIRECTION ( 'NONE',  ( 8.164311994315692567E-17, 1.000000000000000000, -0.000000000000000000 ) ) ;
#223 = EDGE_CURVE ( 'NONE', #52, #49, #286, .T. ) ;
#224 = VERTEX_POINT ( 'NONE', #67 ) ;
#225 = DIRECTION ( 'NONE',  ( 0.000000000000000000, 0.000000000000000000, 1.000000000000000000 ) ) ;
#226 = SURFACE_STYLE_USAGE ( .BOTH. , #171 ) ;
#227 = AXIS2_PLACEMENT_3D ( 'NONE', #4, #141, #218 ) ;
#228 = UNCERTAINTY_MEASURE_WITH_UNIT (LENGTH_MEASURE( 1.000000000000000082E-05 ), #146, 'distance_accuracy_value', 'NONE');
#229 = ADVANCED_FACE ( 'NONE', ( #21 ), #45, .F. ) ;
#230 = DIRECTION ( 'NONE',  ( 0.000000000000000000, -1.000000000000000000, -0.000000000000000000 ) ) ;
#231 =( CONVERSION_BASED_UNIT ( 'INCH', #34 ) LENGTH_UNIT ( ) NAMED_UNIT ( #175 ) );
#232 = EDGE_CURVE ( 'NONE', #167, #46, #155, .T. ) ;
#233 = DIRECTION ( 'NONE',  ( -0.000000000000000000, -1.000000000000000000, -0.000000000000000000 ) ) ;
#234 = CYLINDRICAL_SURFACE ( 'NONE', #181, 0.1875000000000000555 ) ;
#235 = LENGTH_MEASURE_WITH_UNIT ( LENGTH_MEASURE( 0.02539999999999999897 ), #285 );
#236 = EDGE_CURVE ( 'NONE', #52, #167, #296, .T. ) ;
#237 = SURFACE_SIDE_STYLE ('',( #137 ) ) ;
#238 = PRODUCT ( '48235', '48235', '', ( #80 ) ) ;
#239 = PRESENTATION_STYLE_ASSIGNMENT (( #24 ) ) ;
#240 = ORIENTED_EDGE ( 'NONE', *, *, #172, .F. ) ;
#241 = CARTESIAN_POINT ( 'NONE',  ( 0.1875000000000001110, 2.000000000000000000, 2.296212748401286801E-17 ) ) ;
#242 = DIRECTION ( 'NONE',  ( 0.000000000000000000, 1.000000000000000000, 0.000000000000000000 ) ) ;
#243 = EDGE_CURVE ( 'NONE', #194, #224, #306, .T. ) ;
#244 = ORIENTED_EDGE ( 'NONE', *, *, #243, .F. ) ;
#245 = ORIENTED_EDGE ( 'NONE', *, *, #55, .F. ) ;
#246 = FILL_AREA_STYLE ('',( #95 ) ) ;
#247 = PLANE ( 'NONE',  #279 ) ;
#248 = DIRECTION ( 'NONE',  ( 8.164311994315692567E-17, 1.000000000000000000, -0.000000000000000000 ) ) ;
#249 = AXIS2_PLACEMENT_3D ( 'NONE', #157, #309, #182 ) ;
#250 = VECTOR ( 'NONE', #64, 39.37007874015748143 ) ;
#251 = CARTESIAN_POINT ( 'NONE',  ( 0.000000000000000000, 0.000000000000000000, 0.000000000000000000 ) ) ;
#252 = PRESENTATION_STYLE_ASSIGNMENT (( #226 ) ) ;
#253 = DIRECTION ( 'NONE',  ( 1.000000000000000000, 0.000000000000000000, 0.000000000000000000 ) ) ;
#254 = PRESENTATION_LAYER_ASSIGNMENT (  '', '', ( #213 ) ) ;
#255 = FILL_AREA_STYLE_COLOUR ( '', #275 ) ;
#256 =( NAMED_UNIT ( * ) PLANE_ANGLE_UNIT ( ) SI_UNIT ( $, .RADIAN. ) );
#257 = STYLED_ITEM ( 'NONE', ( #187 ), #300 ) ;
#258 = DIRECTION ( 'NONE',  ( 0.000000000000000000, 0.000000000000000000, -1.000000000000000000 ) ) ;
#259 = SURFACE_STYLE_USAGE ( .BOTH. , #237 ) ;
#260 = ORIENTED_EDGE ( 'NONE', *, *, #243, .T. ) ;
#261 = LENGTH_MEASURE_WITH_UNIT ( LENGTH_MEASURE( 0.02539999999999999897 ), #287 );
#262 = DIRECTION ( 'NONE',  ( -8.164311994315692567E-17, -1.000000000000000000, 0.000000000000000000 ) ) ;
#263 = DIRECTION ( 'NONE',  ( -1.000000000000000000, 0.000000000000000000, 0.000000000000000000 ) ) ;
#264 = AXIS2_PLACEMENT_3D ( 'NONE', #151, #201, #302 ) ;
#265 = ORIENTED_EDGE ( 'NONE', *, *, #266, .T. ) ;
#266 = EDGE_CURVE ( 'NONE', #31, #224, #83, .T. ) ;
#267 = ORIENTED_EDGE ( 'NONE', *, *, #112, .T. ) ;
#268 = ORIENTED_EDGE ( 'NONE', *, *, #9, .F. ) ;
#269 =( NAMED_UNIT ( * ) PLANE_ANGLE_UNIT ( ) SI_UNIT ( $, .RADIAN. ) );
#270 = MANIFOLD_SOLID_BREP ( 'Revolve - Tool Body (Straight Shanked)', #209 ) ;
#271 = FACE_OUTER_BOUND ( 'NONE', #105, .T. ) ;
#272 =( GEOMETRIC_REPRESENTATION_CONTEXT ( 3 ) GLOBAL_UNCERTAINTY_ASSIGNED_CONTEXT ( ( #129 ) ) GLOBAL_UNIT_ASSIGNED_CONTEXT ( ( #231, #205, #79 ) ) REPRESENTATION_CONTEXT ( 'NONE', 'WORKASPACE' ) );
#273 = CARTESIAN_POINT ( 'NONE',  ( 0.000000000000000000, 0.5000000000000001110, 0.000000000000000000 ) ) ;
#274 = SURFACE_STYLE_FILL_AREA ( #77 ) ;
#275 = COLOUR_RGB ( '',1.000000000000000000, 0.000000000000000000, 0.000000000000000000 ) ;
#276 = CARTESIAN_POINT ( 'NONE',  ( 0.000000000000000000, 0.000000000000000000, 0.000000000000000000 ) ) ;
#277 = FILL_AREA_STYLE_COLOUR ( '', #291 ) ;
#278 = CARTESIAN_POINT ( 'NONE',  ( 0.000000000000000000, 0.000000000000000000, 0.000000000000000000 ) ) ;
#279 = AXIS2_PLACEMENT_3D ( 'NONE', #276, #230, #36 ) ;
#280 = STYLED_ITEM ( 'NONE', ( #130 ), #270 ) ;
#281 = ORIENTED_EDGE ( 'NONE', *, *, #9, .T. ) ;
#282 = EDGE_CURVE ( 'NONE', #46, #49, #66, .T. ) ;
#283 = CARTESIAN_POINT ( 'NONE',  ( 0.000000000000000000, 0.000000000000000000, 0.000000000000000000 ) ) ;
#284 = ADVANCED_BREP_SHAPE_REPRESENTATION ( '48235', ( #158, #270, #30 ), #101 ) ;
#285 =( LENGTH_UNIT ( ) NAMED_UNIT ( * ) SI_UNIT ( $, .METRE. ) );
#286 = LINE ( 'NONE', #207, #118 ) ;
#287 =( LENGTH_UNIT ( ) NAMED_UNIT ( * ) SI_UNIT ( $, .METRE. ) );
#288 = EDGE_LOOP ( 'NONE', ( #245, #281, #260, #215 ) ) ;
#289 = DIMENSIONAL_EXPONENTS ( 1.000000000000000000, 0.000000000000000000, 0.000000000000000000, 0.000000000000000000, 0.000000000000000000, 0.000000000000000000, 0.000000000000000000 ) ;
#290 = ORIENTED_EDGE ( 'NONE', *, *, #96, .F. ) ;
#291 = COLOUR_RGB ( '',1.000000000000000000, 0.000000000000000000, 0.000000000000000000 ) ;
#292 = ORIENTED_EDGE ( 'NONE', *, *, #282, .F. ) ;
#293 = FACE_OUTER_BOUND ( 'NONE', #144, .T. ) ;
#294 = EDGE_LOOP ( 'NONE', ( #103, #268 ) ) ;
#295 = ORIENTED_EDGE ( 'NONE', *, *, #236, .F. ) ;
#296 = CIRCLE ( 'NONE', #308, 0.1875000000000000555 ) ;
#297 = APPLICATION_PROTOCOL_DEFINITION ( 'draft international standard', 'automotive_design', 1998, #92 ) ;
#298 = ADVANCED_FACE ( 'NONE', ( #293 ), #193, .T. ) ;
#299 = UNCERTAINTY_MEASURE_WITH_UNIT (LENGTH_MEASURE( 1.000000000000000082E-05 ), #68, 'distance_accuracy_value', 'NONE');
#300 = ADVANCED_FACE ( 'NONE', ( #143 ), #97, .T. ) ;
#301 =( NAMED_UNIT ( * ) PLANE_ANGLE_UNIT ( ) SI_UNIT ( $, .RADIAN. ) );
#302 = DIRECTION ( 'NONE',  ( 0.000000000000000000, 0.000000000000000000, -1.000000000000000000 ) ) ;
#303 =( GEOMETRIC_REPRESENTATION_CONTEXT ( 3 ) GLOBAL_UNCERTAINTY_ASSIGNED_CONTEXT ( ( #32 ) ) GLOBAL_UNIT_ASSIGNED_CONTEXT ( ( #133, #37, #59 ) ) REPRESENTATION_CONTEXT ( 'NONE', 'WORKASPACE' ) );
#304 =( NAMED_UNIT ( * ) SI_UNIT ( $, .STERADIAN. ) SOLID_ANGLE_UNIT ( ) );
#305 = ADVANCED_FACE ( 'NONE', ( #93 ), #212, .T. ) ;
#306 = LINE ( 'NONE', #87, #250 ) ;
#307 = ORIENTED_EDGE ( 'NONE', *, *, #232, .F. ) ;
#308 = AXIS2_PLACEMENT_3D ( 'NONE', #20, #210, #183 ) ;
#309 = DIRECTION ( 'NONE',  ( 8.164311994315692567E-17, 1.000000000000000000, -0.000000000000000000 ) ) ;
ENDSEC;
END-ISO-10303-21;
