ISO-10303-21;
HEADER;
FILE_DESCRIPTION (( 'STEP AP214' ),
    '1' );
FILE_NAME ('Micro_GEM-312-4X.STEP',
    '2021-09-01T20:33:07',
    ( '' ),
    ( '' ),
    'SwSTEP 2.0',
    'SolidWorks 2020',
    '' );
FILE_SCHEMA (( 'AUTOMOTIVE_DESIGN' ));
ENDSEC;

DATA;
#1 = DIRECTION ( 'NONE',  ( -0.0000000000000000000, -0.0000000000000000000, -1.000000000000000000 ) ) ;
#2 = AXIS2_PLACEMENT_3D ( 'NONE', #52, #94, #204 ) ;
#3 = LENGTH_MEASURE_WITH_UNIT ( LENGTH_MEASURE( 0.02539999999999999897 ), #225 );
#4 = EDGE_CURVE ( 'NONE', #44, #67, #165, .T. ) ;
#5 = EDGE_CURVE ( 'NONE', #150, #14, #127, .T. ) ;
#6 = CLOSED_SHELL ( 'NONE', ( #228, #234, #47, #166, #51, #189, #214, #287, #128, #261 ) ) ;
#7 = FACE_OUTER_BOUND ( 'NONE', #24, .T. ) ;
#8 = CIRCLE ( 'NONE', #211, 0.1562500000000000000 ) ;
#9 = DIRECTION ( 'NONE',  ( -1.000000000000000000, 0.0000000000000000000, 0.0000000000000000000 ) ) ;
#10 = ORIENTED_EDGE ( 'NONE', *, *, #282, .F. ) ;
#11 = APPLICATION_PROTOCOL_DEFINITION ( 'draft international standard', 'automotive_design', 1998, #268 ) ;
#12 =( NAMED_UNIT ( * ) SI_UNIT ( $, .STERADIAN. ) SOLID_ANGLE_UNIT ( ) );
#13 = VECTOR ( 'NONE', #272, 39.37007874015748143 ) ;
#14 = VERTEX_POINT ( 'NONE', #198 ) ;
#15 = DIRECTION ( 'NONE',  ( 0.0000000000000000000, 0.0000000000000000000, 1.000000000000000000 ) ) ;
#16 = EDGE_CURVE ( 'NONE', #222, #216, #78, .T. ) ;
#17 = LENGTH_MEASURE_WITH_UNIT ( LENGTH_MEASURE( 0.02539999999999999897 ), #233 );
#18 = ORIENTED_EDGE ( 'NONE', *, *, #224, .T. ) ;
#19 = APPLICATION_PROTOCOL_DEFINITION ( 'draft international standard', 'automotive_design', 1998, #96 ) ;
#20 = ORIENTED_EDGE ( 'NONE', *, *, #275, .F. ) ;
#21 = COLOUR_RGB ( '',0.7921568627450980005, 0.8196078431372548767, 0.9333333333333333481 ) ;
#22 = ORIENTED_EDGE ( 'NONE', *, *, #263, .T. ) ;
#23 = DIRECTION ( 'NONE',  ( 0.0000000000000000000, 0.0000000000000000000, 1.000000000000000000 ) ) ;
#24 = EDGE_LOOP ( 'NONE', ( #86, #18, #285, #289 ) ) ;
#25 = DIRECTION ( 'NONE',  ( 1.000000000000000000, 0.0000000000000000000, 0.0000000000000000000 ) ) ;
#26 = DIRECTION ( 'NONE',  ( 1.000000000000000000, 0.0000000000000000000, 0.0000000000000000000 ) ) ;
#27 = AXIS2_PLACEMENT_3D ( 'NONE', #183, #277, #223 ) ;
#28 = FACE_OUTER_BOUND ( 'NONE', #197, .T. ) ;
#29 = LINE ( 'NONE', #206, #141 ) ;
#30 = MECHANICAL_DESIGN_GEOMETRIC_PRESENTATION_REPRESENTATION (  '', ( #178 ), #260 ) ;
#31 = FACE_OUTER_BOUND ( 'NONE', #131, .T. ) ;
#32 = CARTESIAN_POINT ( 'NONE',  ( 0.1562500000000000000, 1.913510623667739463E-17, 2.484999999999999432 ) ) ;
#33 = DIRECTION ( 'NONE',  ( -1.000000000000000000, 0.0000000000000000000, 0.0000000000000000000 ) ) ;
#34 = VECTOR ( 'NONE', #299, 39.37007874015748854 ) ;
#35 = AXIS2_PLACEMENT_3D ( 'NONE', #135, #142, #60 ) ;
#36 = LINE ( 'NONE', #39, #92 ) ;
#37 = ORIENTED_EDGE ( 'NONE', *, *, #237, .F. ) ;
#38 = DIRECTION ( 'NONE',  ( -1.224646799147353207E-16, -0.0000000000000000000, -1.000000000000000000 ) ) ;
#39 = CARTESIAN_POINT ( 'NONE',  ( -0.1560937499999999756, 0.0000000000000000000, 1.911597113044071690E-17 ) ) ;
#40 = CARTESIAN_POINT ( 'NONE',  ( 0.0000000000000000000, 0.0000000000000000000, 2.484999999999999432 ) ) ;
#41 = VERTEX_POINT ( 'NONE', #265 ) ;
#42 = STYLED_ITEM ( 'NONE', ( #173 ), #119 ) ;
#43 = SHAPE_DEFINITION_REPRESENTATION ( #182, #119 ) ;
#44 = VERTEX_POINT ( 'NONE', #147 ) ;
#45 = ORIENTED_EDGE ( 'NONE', *, *, #220, .F. ) ;
#46 = ORIENTED_EDGE ( 'NONE', *, *, #152, .F. ) ;
#47 = ADVANCED_FACE ( 'NONE', ( #83 ), #155, .T. ) ;
#48 = ORIENTED_EDGE ( 'NONE', *, *, #181, .F. ) ;
#49 = CARTESIAN_POINT ( 'NONE',  ( -0.1560937499999998923, 1.912553868355905422E-17, 0.8129999999999999449 ) ) ;
#50 = DIRECTION ( 'NONE',  ( -1.000000000000000000, 0.0000000000000000000, 1.224646799147353454E-16 ) ) ;
#51 = ADVANCED_FACE ( 'NONE', ( #28 ), #244, .T. ) ;
#52 = CARTESIAN_POINT ( 'NONE',  ( 0.0000000000000000000, 0.0000000000000000000, 2.500000000000000000 ) ) ;
#53 = LINE ( 'NONE', #274, #295 ) ;
#54 = FACE_OUTER_BOUND ( 'NONE', #270, .T. ) ;
#55 = VECTOR ( 'NONE', #38, 39.37007874015748143 ) ;
#56 = ORIENTED_EDGE ( 'NONE', *, *, #282, .T. ) ;
#57 = DIRECTION ( 'NONE',  ( 1.000000000000000000, 0.0000000000000000000, -0.0000000000000000000 ) ) ;
#58 = DIRECTION ( 'NONE',  ( 0.0000000000000000000, 0.0000000000000000000, -1.000000000000000000 ) ) ;
#59 = CIRCLE ( 'NONE', #207, 0.1560937499999999756 ) ;
#60 = DIRECTION ( 'NONE',  ( 1.000000000000000000, 0.0000000000000000000, 0.0000000000000000000 ) ) ;
#61 = EDGE_CURVE ( 'NONE', #67, #82, #109, .T. ) ;
#62 = PRODUCT ( 'Micro_GEM-312-4X', 'Micro_GEM-312-4X', '', ( #215 ) ) ;
#63 = ORIENTED_EDGE ( 'NONE', *, *, #296, .T. ) ;
#64 = EDGE_CURVE ( 'NONE', #82, #41, #89, .T. ) ;
#65 = VERTEX_POINT ( 'NONE', #157 ) ;
#66 = PRESENTATION_LAYER_ASSIGNMENT (  '', '', ( #42 ) ) ;
#67 = VERTEX_POINT ( 'NONE', #138 ) ;
#68 = CARTESIAN_POINT ( 'NONE',  ( 0.0000000000000000000, 0.0000000000000000000, 2.500000000000000000 ) ) ;
#69 = CARTESIAN_POINT ( 'NONE',  ( -0.1562500000000000000, 0.0000000000000000000, 2.500000000000000000 ) ) ;
#70 = AXIS2_PLACEMENT_3D ( 'NONE', #104, #288, #123 ) ;
#71 = DIRECTION ( 'NONE',  ( 0.1736481776669313859, 0.0000000000000000000, 0.9848077530122077983 ) ) ;
#72 = FACE_OUTER_BOUND ( 'NONE', #292, .T. ) ;
#73 = CARTESIAN_POINT ( 'NONE',  ( 9.967230535079632947E-17, 0.0000000000000000000, 0.8138861377843152889 ) ) ;
#74 = CARTESIAN_POINT ( 'NONE',  ( -0.1562500000000000000, 0.0000000000000000000, 2.484999999999999432 ) ) ;
#75 = MECHANICAL_DESIGN_GEOMETRIC_PRESENTATION_REPRESENTATION (  '', ( #42 ), #267 ) ;
#76 = DIRECTION ( 'NONE',  ( 1.000000000000000000, 0.0000000000000000000, 0.0000000000000000000 ) ) ;
#77 = DIRECTION ( 'NONE',  ( -1.224646799147353207E-16, -0.0000000000000000000, -1.000000000000000000 ) ) ;
#78 = CIRCLE ( 'NONE', #246, 0.1560937499999999756 ) ;
#79 = LINE ( 'NONE', #186, #251 ) ;
#80 = ORIENTED_EDGE ( 'NONE', *, *, #5, .F. ) ;
#81 = DIMENSIONAL_EXPONENTS ( 1.000000000000000000, 0.0000000000000000000, 0.0000000000000000000, 0.0000000000000000000, 0.0000000000000000000, 0.0000000000000000000, 0.0000000000000000000 ) ;
#82 = VERTEX_POINT ( 'NONE', #32 ) ;
#83 = FACE_OUTER_BOUND ( 'NONE', #143, .T. ) ;
#84 =( LENGTH_UNIT ( ) NAMED_UNIT ( * ) SI_UNIT ( $, .METRE. ) );
#85 = CONICAL_SURFACE ( 'NONE', #146, 0.1560937499999999756, 0.1745329251994338915 ) ;
#86 = ORIENTED_EDGE ( 'NONE', *, *, #240, .F. ) ;
#87 = SURFACE_STYLE_USAGE ( .BOTH. , #264 ) ;
#88 = ORIENTED_EDGE ( 'NONE', *, *, #61, .F. ) ;
#89 = LINE ( 'NONE', #266, #13 ) ;
#90 = EDGE_CURVE ( 'NONE', #216, #41, #29, .T. ) ;
#91 = DIRECTION ( 'NONE',  ( -1.224646799147353207E-16, -0.0000000000000000000, -1.000000000000000000 ) ) ;
#92 = VECTOR ( 'NONE', #77, 39.37007874015748143 ) ;
#93 =( CONVERSION_BASED_UNIT ( 'INCH', #3 ) LENGTH_UNIT ( ) NAMED_UNIT ( #269 ) );
#94 = DIRECTION ( 'NONE',  ( 0.0000000000000000000, 0.0000000000000000000, 1.000000000000000000 ) ) ;
#95 = UNCERTAINTY_MEASURE_WITH_UNIT (LENGTH_MEASURE( 1.000000000000000082E-05 ), #149, 'distance_accuracy_value', 'NONE');
#96 = APPLICATION_CONTEXT ( 'automotive_design' ) ;
#97 = DIRECTION ( 'NONE',  ( 1.000000000000000000, 0.0000000000000000000, 0.0000000000000000000 ) ) ;
#98 = AXIS2_PLACEMENT_3D ( 'NONE', #136, #91, #249 ) ;
#99 = FILL_AREA_STYLE ('',( #118 ) ) ;
#100 =( NAMED_UNIT ( * ) SI_UNIT ( $, .STERADIAN. ) SOLID_ANGLE_UNIT ( ) );
#101 = ORIENTED_EDGE ( 'NONE', *, *, #4, .F. ) ;
#102 = FILL_AREA_STYLE_COLOUR ( '', #126 ) ;
#103 = EDGE_LOOP ( 'NONE', ( #63, #297, #46, #80 ) ) ;
#104 = CARTESIAN_POINT ( 'NONE',  ( 2.341031285748743514E-33, 0.0000000000000000000, 1.911597113044071690E-17 ) ) ;
#105 = ORIENTED_EDGE ( 'NONE', *, *, #237, .T. ) ;
#106 = VECTOR ( 'NONE', #195, 39.37007874015748143 ) ;
#107 = AXIS2_PLACEMENT_3D ( 'NONE', #40, #120, #188 ) ;
#108 = ORIENTED_EDGE ( 'NONE', *, *, #220, .T. ) ;
#109 = LINE ( 'NONE', #171, #34 ) ;
#110 = DIRECTION ( 'NONE',  ( 0.0000000000000000000, 0.0000000000000000000, 1.000000000000000000 ) ) ;
#111 = CONICAL_SURFACE ( 'NONE', #35, 0.1560937499999999756, 0.1745329251994338915 ) ;
#112 = EDGE_LOOP ( 'NONE', ( #242, #219, #283, #154 ) ) ;
#113 = DIRECTION ( 'NONE',  ( -1.224646799147353207E-16, -0.0000000000000000000, -1.000000000000000000 ) ) ;
#114 = CARTESIAN_POINT ( 'NONE',  ( 9.967230535079632947E-17, 0.0000000000000000000, 0.8138861377843152889 ) ) ;
#115 = CYLINDRICAL_SURFACE ( 'NONE', #184, 0.1562500000000000000 ) ;
#116 = SURFACE_STYLE_FILL_AREA ( #99 ) ;
#117 = DIRECTION ( 'NONE',  ( 0.0000000000000000000, 0.0000000000000000000, -1.000000000000000000 ) ) ;
#118 = FILL_AREA_STYLE_COLOUR ( '', #21 ) ;
#119 = ADVANCED_BREP_SHAPE_REPRESENTATION ( 'Micro_GEM-312-4X', ( #231, #137 ), #256 ) ;
#120 = DIRECTION ( 'NONE',  ( 0.0000000000000000000, 0.0000000000000000000, -1.000000000000000000 ) ) ;
#121 = CARTESIAN_POINT ( 'NONE',  ( 0.1560937499999999756, 1.911597113044071690E-17, 0.0000000000000000000 ) ) ;
#122 = PRODUCT_DEFINITION_FORMATION_WITH_SPECIFIED_SOURCE ( 'ANY', '', #62, .NOT_KNOWN. ) ;
#123 = DIRECTION ( 'NONE',  ( -1.000000000000000000, 0.0000000000000000000, 1.224646799147353454E-16 ) ) ;
#124 = DIRECTION ( 'NONE',  ( -0.7071067811865410224, 0.0000000000000000000, -0.7071067811865539010 ) ) ;
#125 = EDGE_LOOP ( 'NONE', ( #88, #101, #105, #10 ) ) ;
#126 = COLOUR_RGB ( '',0.7921568627450980005, 0.8196078431372548767, 0.9333333333333333481 ) ;
#127 = LINE ( 'NONE', #69, #106 ) ;
#128 = ADVANCED_FACE ( 'NONE', ( #7 ), #134, .T. ) ;
#129 = ORIENTED_EDGE ( 'NONE', *, *, #4, .T. ) ;
#130 = LENGTH_MEASURE_WITH_UNIT ( LENGTH_MEASURE( 0.02539999999999999897 ), #84 );
#131 = EDGE_LOOP ( 'NONE', ( #187, #133, #153, #20 ) ) ;
#132 = AXIS2_PLACEMENT_3D ( 'NONE', #168, #15, #57 ) ;
#133 = ORIENTED_EDGE ( 'NONE', *, *, #240, .T. ) ;
#134 = CYLINDRICAL_SURFACE ( 'NONE', #27, 0.1560937499999999756 ) ;
#135 = CARTESIAN_POINT ( 'NONE',  ( 9.956378477067980482E-17, 0.0000000000000000000, 0.8129999999999999449 ) ) ;
#136 = CARTESIAN_POINT ( 'NONE',  ( 2.341031285748743514E-33, 0.0000000000000000000, 1.911597113044071690E-17 ) ) ;
#137 = AXIS2_PLACEMENT_3D ( 'NONE', #196, #23, #25 ) ;
#138 = CARTESIAN_POINT ( 'NONE',  ( 0.1412499999999994871, 1.821662113731684786E-17, 2.500000000000000000 ) ) ;
#139 = CARTESIAN_POINT ( 'NONE',  ( 0.0000000000000000000, 0.0000000000000000000, 0.0000000000000000000 ) ) ;
#140 = CARTESIAN_POINT ( 'NONE',  ( 0.0000000000000000000, 0.0000000000000000000, 2.500000000000000000 ) ) ;
#141 = VECTOR ( 'NONE', #71, 39.37007874015748143 ) ;
#142 = DIRECTION ( 'NONE',  ( 1.224646799147353207E-16, 0.0000000000000000000, 1.000000000000000000 ) ) ;
#143 = EDGE_LOOP ( 'NONE', ( #271, #221, #262, #37 ) ) ;
#144 = DIRECTION ( 'NONE',  ( 0.0000000000000000000, 0.0000000000000000000, 1.000000000000000000 ) ) ;
#145 =( NAMED_UNIT ( * ) PLANE_ANGLE_UNIT ( ) SI_UNIT ( $, .RADIAN. ) );
#146 = AXIS2_PLACEMENT_3D ( 'NONE', #210, #259, #76 ) ;
#147 = CARTESIAN_POINT ( 'NONE',  ( -0.1412499999999994871, 0.0000000000000000000, 2.500000000000000000 ) ) ;
#148 = AXIS2_PLACEMENT_3D ( 'NONE', #114, #252, #279 ) ;
#149 =( CONVERSION_BASED_UNIT ( 'INCH', #130 ) LENGTH_UNIT ( ) NAMED_UNIT ( #81 ) );
#150 = VERTEX_POINT ( 'NONE', #74 ) ;
#151 = PRODUCT_DEFINITION_CONTEXT ( 'detailed design', #96, 'design' ) ;
#152 = EDGE_CURVE ( 'NONE', #14, #41, #273, .T. ) ;
#153 = ORIENTED_EDGE ( 'NONE', *, *, #243, .F. ) ;
#154 = ORIENTED_EDGE ( 'NONE', *, *, #90, .F. ) ;
#155 = CONICAL_SURFACE ( 'NONE', #190, 0.1412499999999994871, 0.7853981633974391752 ) ;
#156 = PRESENTATION_LAYER_ASSIGNMENT (  '', '', ( #178 ) ) ;
#157 = CARTESIAN_POINT ( 'NONE',  ( -0.1560937499999999756, 0.0000000000000000000, 3.823194226088143379E-17 ) ) ;
#158 = DIRECTION ( 'NONE',  ( -0.1736481776669311916, 2.126576849575783316E-17, 0.9848077530122080203 ) ) ;
#159 = CARTESIAN_POINT ( 'NONE',  ( 9.956378477067980482E-17, 0.0000000000000000000, 0.8129999999999999449 ) ) ;
#160 = EDGE_CURVE ( 'NONE', #248, #65, #212, .T. ) ;
#161 = DIRECTION ( 'NONE',  ( -1.224646799147353207E-16, -0.0000000000000000000, -1.000000000000000000 ) ) ;
#162 = CONICAL_SURFACE ( 'NONE', #278, 0.1412499999999994871, 0.7853981633974391752 ) ;
#163 = DIRECTION ( 'NONE',  ( -1.224646799147353207E-16, -0.0000000000000000000, -1.000000000000000000 ) ) ;
#164 = CARTESIAN_POINT ( 'NONE',  ( 0.0000000000000000000, 0.0000000000000000000, 2.500000000000000000 ) ) ;
#165 = CIRCLE ( 'NONE', #205, 0.1412499999999994871 ) ;
#166 = ADVANCED_FACE ( 'NONE', ( #201 ), #115, .T. ) ;
#167 = AXIS2_PLACEMENT_3D ( 'NONE', #68, #245, #200 ) ;
#168 = CARTESIAN_POINT ( 'NONE',  ( 0.0000000000000000000, 0.0000000000000000000, 0.0000000000000000000 ) ) ;
#169 = ORIENTED_EDGE ( 'NONE', *, *, #90, .T. ) ;
#170 = CARTESIAN_POINT ( 'NONE',  ( 0.0000000000000000000, 0.0000000000000000000, 2.500000000000000000 ) ) ;
#171 = CARTESIAN_POINT ( 'NONE',  ( 0.1412499999999994871, 1.729813603795630110E-17, 2.500000000000000000 ) ) ;
#172 = CIRCLE ( 'NONE', #247, 0.1562500000000000000 ) ;
#173 = PRESENTATION_STYLE_ASSIGNMENT (( #87 ) ) ;
#174 = ORIENTED_EDGE ( 'NONE', *, *, #5, .T. ) ;
#175 =( NAMED_UNIT ( * ) PLANE_ANGLE_UNIT ( ) SI_UNIT ( $, .RADIAN. ) );
#176 = DIRECTION ( 'NONE',  ( -1.000000000000000000, 0.0000000000000000000, 0.0000000000000000000 ) ) ;
#177 = CARTESIAN_POINT ( 'NONE',  ( 9.956378477067980482E-17, 0.0000000000000000000, 0.8129999999999999449 ) ) ;
#178 = STYLED_ITEM ( 'NONE', ( #179 ), #231 ) ;
#179 = PRESENTATION_STYLE_ASSIGNMENT (( #254 ) ) ;
#180 =( NAMED_UNIT ( * ) PLANE_ANGLE_UNIT ( ) SI_UNIT ( $, .RADIAN. ) );
#181 = EDGE_CURVE ( 'NONE', #222, #14, #53, .T. ) ;
#182 = PRODUCT_DEFINITION_SHAPE ( 'NONE', 'NONE',  #208 ) ;
#183 = CARTESIAN_POINT ( 'NONE',  ( 0.0000000000000000000, 0.0000000000000000000, 0.0000000000000000000 ) ) ;
#184 = AXIS2_PLACEMENT_3D ( 'NONE', #164, #1, #9 ) ;
#185 = SURFACE_SIDE_STYLE ('',( #116 ) ) ;
#186 = CARTESIAN_POINT ( 'NONE',  ( -0.1412499999999994871, 0.0000000000000000000, 2.500000000000000000 ) ) ;
#187 = ORIENTED_EDGE ( 'NONE', *, *, #16, .T. ) ;
#188 = DIRECTION ( 'NONE',  ( 1.000000000000000000, 0.0000000000000000000, 0.0000000000000000000 ) ) ;
#189 = ADVANCED_FACE ( 'NONE', ( #72 ), #280, .T. ) ;
#190 = AXIS2_PLACEMENT_3D ( 'NONE', #218, #199, #176 ) ;
#191 = FILL_AREA_STYLE ('',( #102 ) ) ;
#192 =( CONVERSION_BASED_UNIT ( 'INCH', #17 ) LENGTH_UNIT ( ) NAMED_UNIT ( #193 ) );
#193 = DIMENSIONAL_EXPONENTS ( 1.000000000000000000, 0.0000000000000000000, 0.0000000000000000000, 0.0000000000000000000, 0.0000000000000000000, 0.0000000000000000000, 0.0000000000000000000 ) ;
#194 = CIRCLE ( 'NONE', #70, 0.1560937499999999756 ) ;
#195 = DIRECTION ( 'NONE',  ( -0.0000000000000000000, -0.0000000000000000000, -1.000000000000000000 ) ) ;
#196 = CARTESIAN_POINT ( 'NONE',  ( 0.0000000000000000000, 0.0000000000000000000, 0.0000000000000000000 ) ) ;
#197 = EDGE_LOOP ( 'NONE', ( #257, #56, #174, #45 ) ) ;
#198 = CARTESIAN_POINT ( 'NONE',  ( -0.1562499999999999167, 0.0000000000000000000, 0.8138861377843152889 ) ) ;
#199 = DIRECTION ( 'NONE',  ( 0.0000000000000000000, 0.0000000000000000000, -1.000000000000000000 ) ) ;
#200 = DIRECTION ( 'NONE',  ( -1.000000000000000000, 0.0000000000000000000, 0.0000000000000000000 ) ) ;
#201 = FACE_OUTER_BOUND ( 'NONE', #103, .T. ) ;
#202 = DIRECTION ( 'NONE',  ( -1.000000000000000000, 0.0000000000000000000, 0.0000000000000000000 ) ) ;
#203 = UNCERTAINTY_MEASURE_WITH_UNIT (LENGTH_MEASURE( 1.000000000000000082E-05 ), #93, 'distance_accuracy_value', 'NONE');
#204 = DIRECTION ( 'NONE',  ( 1.000000000000000000, 0.0000000000000000000, -0.0000000000000000000 ) ) ;
#205 = AXIS2_PLACEMENT_3D ( 'NONE', #170, #110, #26 ) ;
#206 = CARTESIAN_POINT ( 'NONE',  ( 0.1560937500000000866, 0.0000000000000000000, 0.8129999999999999449 ) ) ;
#207 = AXIS2_PLACEMENT_3D ( 'NONE', #159, #163, #202 ) ;
#208 = PRODUCT_DEFINITION ( 'UNKNOWN', '', #122, #151 ) ;
#209 = CARTESIAN_POINT ( 'NONE',  ( 0.0000000000000000000, 0.0000000000000000000, 2.484999999999999432 ) ) ;
#210 = CARTESIAN_POINT ( 'NONE',  ( 9.956378477067980482E-17, 0.0000000000000000000, 0.8129999999999999449 ) ) ;
#211 = AXIS2_PLACEMENT_3D ( 'NONE', #209, #58, #284 ) ;
#212 = CIRCLE ( 'NONE', #98, 0.1560937499999999756 ) ;
#213 = CARTESIAN_POINT ( 'NONE',  ( 0.1560937499999999756, 1.911597113044071690E-17, -1.911597113044071690E-17 ) ) ;
#214 = ADVANCED_FACE ( 'NONE', ( #226 ), #162, .T. ) ;
#215 = PRODUCT_CONTEXT ( 'NONE', #268, 'mechanical' ) ;
#216 = VERTEX_POINT ( 'NONE', #250 ) ;
#217 = AXIS2_PLACEMENT_3D ( 'NONE', #140, #144, #229 ) ;
#218 = CARTESIAN_POINT ( 'NONE',  ( 0.0000000000000000000, 0.0000000000000000000, 2.500000000000000000 ) ) ;
#219 = ORIENTED_EDGE ( 'NONE', *, *, #181, .T. ) ;
#220 = EDGE_CURVE ( 'NONE', #41, #14, #172, .T. ) ;
#221 = ORIENTED_EDGE ( 'NONE', *, *, #61, .T. ) ;
#222 = VERTEX_POINT ( 'NONE', #49 ) ;
#223 = DIRECTION ( 'NONE',  ( -1.000000000000000000, 0.0000000000000000000, 1.224646799147353454E-16 ) ) ;
#224 = EDGE_CURVE ( 'NONE', #216, #222, #59, .T. ) ;
#225 =( LENGTH_UNIT ( ) NAMED_UNIT ( * ) SI_UNIT ( $, .METRE. ) );
#226 = FACE_OUTER_BOUND ( 'NONE', #125, .T. ) ;
#227 = DIRECTION ( 'NONE',  ( -1.224646799147353207E-16, -0.0000000000000000000, -1.000000000000000000 ) ) ;
#228 = ADVANCED_FACE ( 'NONE', ( #31 ), #253, .T. ) ;
#229 = DIRECTION ( 'NONE',  ( 1.000000000000000000, 0.0000000000000000000, 0.0000000000000000000 ) ) ;
#230 = CIRCLE ( 'NONE', #217, 0.1412499999999994871 ) ;
#231 = MANIFOLD_SOLID_BREP ( 'Cut-Revolve1', #6 ) ;
#232 = ORIENTED_EDGE ( 'NONE', *, *, #224, .F. ) ;
#233 =( LENGTH_UNIT ( ) NAMED_UNIT ( * ) SI_UNIT ( $, .METRE. ) );
#234 = ADVANCED_FACE ( 'NONE', ( #236 ), #111, .T. ) ;
#235 = CIRCLE ( 'NONE', #107, 0.1562500000000000000 ) ;
#236 = FACE_OUTER_BOUND ( 'NONE', #112, .T. ) ;
#237 = EDGE_CURVE ( 'NONE', #44, #150, #79, .T. ) ;
#238 = EDGE_LOOP ( 'NONE', ( #293, #239 ) ) ;
#239 = ORIENTED_EDGE ( 'NONE', *, *, #160, .T. ) ;
#240 = EDGE_CURVE ( 'NONE', #216, #248, #255, .T. ) ;
#241 =( NAMED_UNIT ( * ) SI_UNIT ( $, .STERADIAN. ) SOLID_ANGLE_UNIT ( ) );
#242 = ORIENTED_EDGE ( 'NONE', *, *, #16, .F. ) ;
#243 = EDGE_CURVE ( 'NONE', #65, #248, #194, .T. ) ;
#244 = CYLINDRICAL_SURFACE ( 'NONE', #167, 0.1562500000000000000 ) ;
#245 = DIRECTION ( 'NONE',  ( -0.0000000000000000000, -0.0000000000000000000, -1.000000000000000000 ) ) ;
#246 = AXIS2_PLACEMENT_3D ( 'NONE', #177, #113, #291 ) ;
#247 = AXIS2_PLACEMENT_3D ( 'NONE', #73, #161, #97 ) ;
#248 = VERTEX_POINT ( 'NONE', #121 ) ;
#249 = DIRECTION ( 'NONE',  ( -1.000000000000000000, 0.0000000000000000000, 1.224646799147353454E-16 ) ) ;
#250 = CARTESIAN_POINT ( 'NONE',  ( 0.1560937500000000866, 0.0000000000000000000, 0.8129999999999999449 ) ) ;
#251 = VECTOR ( 'NONE', #124, 39.37007874015748854 ) ;
#252 = DIRECTION ( 'NONE',  ( -1.224646799147353207E-16, -0.0000000000000000000, -1.000000000000000000 ) ) ;
#253 = CYLINDRICAL_SURFACE ( 'NONE', #290, 0.1560937499999999756 ) ;
#254 = SURFACE_STYLE_USAGE ( .BOTH. , #185 ) ;
#255 = LINE ( 'NONE', #213, #55 ) ;
#256 =( GEOMETRIC_REPRESENTATION_CONTEXT ( 3 ) GLOBAL_UNCERTAINTY_ASSIGNED_CONTEXT ( ( #294 ) ) GLOBAL_UNIT_ASSIGNED_CONTEXT ( ( #192, #145, #100 ) ) REPRESENTATION_CONTEXT ( 'NONE', 'WORKASPACE' ) );
#257 = ORIENTED_EDGE ( 'NONE', *, *, #64, .F. ) ;
#258 = PLANE ( 'NONE',  #132 ) ;
#259 = DIRECTION ( 'NONE',  ( 1.224646799147353207E-16, 0.0000000000000000000, 1.000000000000000000 ) ) ;
#260 =( GEOMETRIC_REPRESENTATION_CONTEXT ( 3 ) GLOBAL_UNCERTAINTY_ASSIGNED_CONTEXT ( ( #203 ) ) GLOBAL_UNIT_ASSIGNED_CONTEXT ( ( #93, #180, #12 ) ) REPRESENTATION_CONTEXT ( 'NONE', 'WORKASPACE' ) );
#261 = ADVANCED_FACE ( 'NONE', ( #281 ), #258, .F. ) ;
#262 = ORIENTED_EDGE ( 'NONE', *, *, #296, .F. ) ;
#263 = EDGE_CURVE ( 'NONE', #67, #44, #230, .T. ) ;
#264 = SURFACE_SIDE_STYLE ('',( #286 ) ) ;
#265 = CARTESIAN_POINT ( 'NONE',  ( 0.1562500000000001110, 1.913510623667740388E-17, 0.8138861377843152889 ) ) ;
#266 = CARTESIAN_POINT ( 'NONE',  ( 0.1562500000000000000, 1.913510623667739463E-17, 2.500000000000000000 ) ) ;
#267 =( GEOMETRIC_REPRESENTATION_CONTEXT ( 3 ) GLOBAL_UNCERTAINTY_ASSIGNED_CONTEXT ( ( #95 ) ) GLOBAL_UNIT_ASSIGNED_CONTEXT ( ( #149, #175, #241 ) ) REPRESENTATION_CONTEXT ( 'NONE', 'WORKASPACE' ) );
#268 = APPLICATION_CONTEXT ( 'automotive_design' ) ;
#269 = DIMENSIONAL_EXPONENTS ( 1.000000000000000000, 0.0000000000000000000, 0.0000000000000000000, 0.0000000000000000000, 0.0000000000000000000, 0.0000000000000000000, 0.0000000000000000000 ) ;
#270 = EDGE_LOOP ( 'NONE', ( #48, #232, #169, #108 ) ) ;
#271 = ORIENTED_EDGE ( 'NONE', *, *, #263, .F. ) ;
#272 = DIRECTION ( 'NONE',  ( -0.0000000000000000000, -0.0000000000000000000, -1.000000000000000000 ) ) ;
#273 = CIRCLE ( 'NONE', #148, 0.1562500000000000000 ) ;
#274 = CARTESIAN_POINT ( 'NONE',  ( -0.1560937499999998923, 1.911597113044071690E-17, 0.8129999999999999449 ) ) ;
#275 = EDGE_CURVE ( 'NONE', #222, #65, #36, .T. ) ;
#276 = CARTESIAN_POINT ( 'NONE',  ( 0.0000000000000000000, 0.0000000000000000000, 2.500000000000000000 ) ) ;
#277 = DIRECTION ( 'NONE',  ( -1.224646799147353207E-16, -0.0000000000000000000, -1.000000000000000000 ) ) ;
#278 = AXIS2_PLACEMENT_3D ( 'NONE', #276, #117, #33 ) ;
#279 = DIRECTION ( 'NONE',  ( 1.000000000000000000, 0.0000000000000000000, 0.0000000000000000000 ) ) ;
#280 = PLANE ( 'NONE',  #2 ) ;
#281 = FACE_OUTER_BOUND ( 'NONE', #238, .T. ) ;
#282 = EDGE_CURVE ( 'NONE', #82, #150, #235, .T. ) ;
#283 = ORIENTED_EDGE ( 'NONE', *, *, #152, .T. ) ;
#284 = DIRECTION ( 'NONE',  ( 1.000000000000000000, 0.0000000000000000000, 0.0000000000000000000 ) ) ;
#285 = ORIENTED_EDGE ( 'NONE', *, *, #275, .T. ) ;
#286 = SURFACE_STYLE_FILL_AREA ( #191 ) ;
#287 = ADVANCED_FACE ( 'NONE', ( #54 ), #85, .T. ) ;
#288 = DIRECTION ( 'NONE',  ( -1.224646799147353207E-16, -0.0000000000000000000, -1.000000000000000000 ) ) ;
#289 = ORIENTED_EDGE ( 'NONE', *, *, #160, .F. ) ;
#290 = AXIS2_PLACEMENT_3D ( 'NONE', #139, #227, #50 ) ;
#291 = DIRECTION ( 'NONE',  ( -1.000000000000000000, 0.0000000000000000000, 0.0000000000000000000 ) ) ;
#292 = EDGE_LOOP ( 'NONE', ( #129, #22 ) ) ;
#293 = ORIENTED_EDGE ( 'NONE', *, *, #243, .T. ) ;
#294 = UNCERTAINTY_MEASURE_WITH_UNIT (LENGTH_MEASURE( 1.000000000000000082E-05 ), #192, 'distance_accuracy_value', 'NONE');
#295 = VECTOR ( 'NONE', #158, 39.37007874015747433 ) ;
#296 = EDGE_CURVE ( 'NONE', #150, #82, #8, .T. ) ;
#297 = ORIENTED_EDGE ( 'NONE', *, *, #64, .T. ) ;
#298 = PRODUCT_RELATED_PRODUCT_CATEGORY ( 'part', '', ( #62 ) ) ;
#299 = DIRECTION ( 'NONE',  ( 0.7071067811865410224, 8.659560562354852739E-17, -0.7071067811865539010 ) ) ;
ENDSEC;
END-ISO-10303-21;
