ISO-10303-21;
HEADER;
FILE_DESCRIPTION (( 'STEP AP203' ),
    '1' );
FILE_NAME ('Micro_RMEM-014-2X.STEP',
    '2021-09-22T18:36:33',
    ( '' ),
    ( '' ),
    'SwSTEP 2.0',
    'SolidWorks 2020',
    '' );
FILE_SCHEMA (( 'CONFIG_CONTROL_DESIGN' ));
ENDSEC;

DATA;
#1 = DIRECTION ( 'NONE',  ( -1.224646799147353207E-16, -0.0000000000000000000, -1.000000000000000000 ) ) ;
#2 = DIRECTION ( 'NONE',  ( -1.000000000000000000, 0.0000000000000000000, 0.0000000000000000000 ) ) ;
#3 = CIRCLE ( 'NONE', #196, 0.02753144100000001065 ) ;
#4 = EDGE_LOOP ( 'NONE', ( #178, #186, #326, #57 ) ) ;
#5 = DIRECTION ( 'NONE',  ( 0.0000000000000000000, 0.0000000000000000000, 1.000000000000000000 ) ) ;
#6 = CARTESIAN_POINT ( 'NONE',  ( -0.02753144100000000025, 5.301890391010560078E-18, 0.1653539999999999732 ) ) ;
#7 = CC_DESIGN_APPROVAL ( #164, ( #15 ) ) ;
#8 = CARTESIAN_POINT ( 'NONE',  ( 4.214413610673241973E-17, 0.0000000000000000000, 0.3441329870463450957 ) ) ;
#9 = EDGE_LOOP ( 'NONE', ( #160, #19, #281, #18 ) ) ;
#10 = CYLINDRICAL_SURFACE ( 'NONE', #120, 0.05905500000000001720 ) ;
#11 = ORIENTED_EDGE ( 'NONE', *, *, #72, .F. ) ;
#12 = APPROVAL_DATE_TIME ( #265, #220 ) ;
#13 = VECTOR ( 'NONE', #99, 39.37007874015748143 ) ;
#14 = ORGANIZATION ( 'UNSPECIFIED', 'UNSPECIFIED', '' ) ;
#15 = PRODUCT_DEFINITION ( 'UNKNOWN', '', #107, #123 ) ;
#16 = APPLICATION_PROTOCOL_DEFINITION ( 'international standard', 'config_control_design', 1994, #217 ) ;
#17 = COORDINATED_UNIVERSAL_TIME_OFFSET ( 5, 0, .BEHIND. ) ;
#18 = ORIENTED_EDGE ( 'NONE', *, *, #325, .F. ) ;
#19 = ORIENTED_EDGE ( 'NONE', *, *, #36, .T. ) ;
#20 = CYLINDRICAL_SURFACE ( 'NONE', #256, 0.02753144100000001759 ) ;
#21 = FACE_OUTER_BOUND ( 'NONE', #42, .T. ) ;
#22 = ADVANCED_FACE ( 'NONE', ( #125 ), #20, .T. ) ;
#23 = AXIS2_PLACEMENT_3D ( 'NONE', #54, #162, #206 ) ;
#24 = CARTESIAN_POINT ( 'NONE',  ( 0.0000000000000000000, 0.0000000000000000000, 1.496062999999999921 ) ) ;
#25 = CARTESIAN_POINT ( 'NONE',  ( 0.02753144100000001065, 3.371629109656422422E-18, -4.739000847409537175E-34 ) ) ;
#26 = CARTESIAN_POINT ( 'NONE',  ( 0.0000000000000000000, 0.0000000000000000000, 1.496062999999999921 ) ) ;
#27 = CARTESIAN_POINT ( 'NONE',  ( 0.02753144100000004188, 0.0000000000000000000, 0.1653539999999999732 ) ) ;
#28 = FACE_OUTER_BOUND ( 'NONE', #172, .T. ) ;
#29 = LINE ( 'NONE', #133, #226 ) ;
#30 = CC_DESIGN_PERSON_AND_ORGANIZATION_ASSIGNMENT ( #293, #213, ( #173 ) ) ;
#31 = VERTEX_POINT ( 'NONE', #230 ) ;
#32 = VECTOR ( 'NONE', #252, 39.37007874015747433 ) ;
#33 = DIRECTION ( 'NONE',  ( -0.0000000000000000000, -0.0000000000000000000, -1.000000000000000000 ) ) ;
#34 = ORIENTED_EDGE ( 'NONE', *, *, #116, .T. ) ;
#35 = CARTESIAN_POINT ( 'NONE',  ( -0.04405499999999974020, 0.0000000000000000000, 1.496062999999999921 ) ) ;
#36 = EDGE_CURVE ( 'NONE', #269, #31, #101, .T. ) ;
#37 = APPROVAL_STATUS ( 'not_yet_approved' ) ;
#38 = DATE_AND_TIME ( #266, #39 ) ;
#39 = LOCAL_TIME ( 14, 36, 33.00000000000000000, #17 ) ;
#40 = SECURITY_CLASSIFICATION_LEVEL ( 'unclassified' ) ;
#41 = DIRECTION ( 'NONE',  ( 1.000000000000000000, 0.0000000000000000000, 0.0000000000000000000 ) ) ;
#42 = EDGE_LOOP ( 'NONE', ( #246, #92, #318, #145 ) ) ;
#43 = DIRECTION ( 'NONE',  ( 0.0000000000000000000, 0.0000000000000000000, 1.000000000000000000 ) ) ;
#44 = ORIENTED_EDGE ( 'NONE', *, *, #51, .T. ) ;
#45 = CC_DESIGN_SECURITY_CLASSIFICATION ( #148, ( #107 ) ) ;
#46 = CARTESIAN_POINT ( 'NONE',  ( 0.05905500000000005884, 7.232151672364700045E-18, 0.3441329870463450957 ) ) ;
#47 = PERSON ( 'UNSPECIFIED', 'UNSPECIFIED', 'UNSPECIFIED', ('UNSPECIFIED'), ('UNSPECIFIED'), ('UNSPECIFIED') ) ;
#48 = ORIENTED_EDGE ( 'NONE', *, *, #82, .T. ) ;
#49 = CYLINDRICAL_SURFACE ( 'NONE', #134, 0.02753144100000001759 ) ;
#50 = DIRECTION ( 'NONE',  ( 1.000000000000000000, 0.0000000000000000000, 0.0000000000000000000 ) ) ;
#51 = EDGE_CURVE ( 'NONE', #118, #117, #301, .T. ) ;
#52 = DIRECTION ( 'NONE',  ( -1.224646799147353207E-16, -0.0000000000000000000, -1.000000000000000000 ) ) ;
#53 = DIRECTION ( 'NONE',  ( -0.7071067811865482389, 0.0000000000000000000, -0.7071067811865469066 ) ) ;
#54 = CARTESIAN_POINT ( 'NONE',  ( 0.0000000000000000000, 0.0000000000000000000, 1.481062999999999574 ) ) ;
#55 = FACE_OUTER_BOUND ( 'NONE', #222, .T. ) ;
#56 = ADVANCED_FACE ( 'NONE', ( #21 ), #100, .T. ) ;
#57 = ORIENTED_EDGE ( 'NONE', *, *, #82, .F. ) ;
#58 = CARTESIAN_POINT ( 'NONE',  ( 2.025002468262114287E-17, 0.0000000000000000000, 0.1653539999999999732 ) ) ;
#59 = VECTOR ( 'NONE', #183, 39.37007874015748143 ) ;
#60 = CARTESIAN_POINT ( 'NONE',  ( -0.04405499999999974020, 0.0000000000000000000, 1.496062999999999921 ) ) ;
#61 = CC_DESIGN_DATE_AND_TIME_ASSIGNMENT ( #115, #63, ( #148 ) ) ;
#62 = APPLICATION_PROTOCOL_DEFINITION ( 'international standard', 'config_control_design', 1994, #280 ) ;
#63 = DATE_TIME_ROLE ( 'classification_date' ) ;
#64 = APPROVAL_DATE_TIME ( #87, #164 ) ;
#65 = AXIS2_PLACEMENT_3D ( 'NONE', #8, #184, #289 ) ;
#66 = ORIENTED_EDGE ( 'NONE', *, *, #189, .T. ) ;
#67 = PERSON_AND_ORGANIZATION_ROLE ( 'creator' ) ;
#68 = ORIENTED_EDGE ( 'NONE', *, *, #189, .F. ) ;
#69 =( NAMED_UNIT ( * ) PLANE_ANGLE_UNIT ( ) SI_UNIT ( $, .RADIAN. ) );
#70 = CLOSED_SHELL ( 'NONE', ( #22, #204, #311, #146, #56, #142, #131, #79, #124, #224 ) ) ;
#71 = CARTESIAN_POINT ( 'NONE',  ( 0.0000000000000000000, 0.0000000000000000000, 0.0000000000000000000 ) ) ;
#72 = EDGE_CURVE ( 'NONE', #250, #117, #3, .T. ) ;
#73 = CARTESIAN_POINT ( 'NONE',  ( 0.0000000000000000000, 0.0000000000000000000, 1.496062999999999921 ) ) ;
#74 = DIRECTION ( 'NONE',  ( 0.0000000000000000000, 0.0000000000000000000, 1.000000000000000000 ) ) ;
#75 = DIRECTION ( 'NONE',  ( -1.224646799147353207E-16, -0.0000000000000000000, -1.000000000000000000 ) ) ;
#76 = AXIS2_PLACEMENT_3D ( 'NONE', #73, #176, #2 ) ;
#77 = DIRECTION ( 'NONE',  ( 0.0000000000000000000, 0.0000000000000000000, -1.000000000000000000 ) ) ;
#78 = FACE_OUTER_BOUND ( 'NONE', #218, .T. ) ;
#79 = ADVANCED_FACE ( 'NONE', ( #229 ), #283, .T. ) ;
#80 = DIRECTION ( 'NONE',  ( -1.000000000000000000, 0.0000000000000000000, 0.0000000000000000000 ) ) ;
#81 = AXIS2_PLACEMENT_3D ( 'NONE', #24, #74, #303 ) ;
#82 = EDGE_CURVE ( 'NONE', #117, #250, #307, .T. ) ;
#83 = DIRECTION ( 'NONE',  ( 1.000000000000000000, 0.0000000000000000000, 0.0000000000000000000 ) ) ;
#84 = DIRECTION ( 'NONE',  ( -1.000000000000000000, 0.0000000000000000000, 0.0000000000000000000 ) ) ;
#85 = FACE_OUTER_BOUND ( 'NONE', #9, .T. ) ;
#86 = EDGE_CURVE ( 'NONE', #269, #250, #121, .T. ) ;
#87 = DATE_AND_TIME ( #194, #302 ) ;
#88 = PERSON_AND_ORGANIZATION ( #47, #14 ) ;
#89 = PERSON_AND_ORGANIZATION ( #47, #14 ) ;
#90 = AXIS2_PLACEMENT_3D ( 'NONE', #177, #77, #50 ) ;
#91 = DATE_TIME_ROLE ( 'creation_date' ) ;
#92 = ORIENTED_EDGE ( 'NONE', *, *, #244, .T. ) ;
#93 = CARTESIAN_POINT ( 'NONE',  ( 0.0000000000000000000, 0.0000000000000000000, 0.0000000000000000000 ) ) ;
#94 = ORIENTED_EDGE ( 'NONE', *, *, #36, .F. ) ;
#95 = ORIENTED_EDGE ( 'NONE', *, *, #294, .F. ) ;
#96 = VECTOR ( 'NONE', #223, 39.37007874015748143 ) ;
#97 = DIRECTION ( 'NONE',  ( -1.000000000000000000, 0.0000000000000000000, 1.224646799147353207E-16 ) ) ;
#98 = AXIS2_PLACEMENT_3D ( 'NONE', #259, #106, #104 ) ;
#99 = DIRECTION ( 'NONE',  ( -1.224646799147353207E-16, -0.0000000000000000000, -1.000000000000000000 ) ) ;
#100 = CYLINDRICAL_SURFACE ( 'NONE', #114, 0.05905500000000001720 ) ;
#101 = LINE ( 'NONE', #251, #32 ) ;
#102 = CIRCLE ( 'NONE', #187, 0.02753144100000002106 ) ;
#103 =( LENGTH_UNIT ( ) NAMED_UNIT ( * ) SI_UNIT ( $, .METRE. ) );
#104 = DIRECTION ( 'NONE',  ( 1.000000000000000000, 0.0000000000000000000, -0.0000000000000000000 ) ) ;
#105 = CC_DESIGN_DATE_AND_TIME_ASSIGNMENT ( #215, #91, ( #15 ) ) ;
#106 = DIRECTION ( 'NONE',  ( 0.0000000000000000000, 0.0000000000000000000, 1.000000000000000000 ) ) ;
#107 = PRODUCT_DEFINITION_FORMATION_WITH_SPECIFIED_SOURCE ( 'ANY', '', #173, .NOT_KNOWN. ) ;
#108 = DIRECTION ( 'NONE',  ( -0.0000000000000000000, -0.0000000000000000000, -1.000000000000000000 ) ) ;
#109 = VERTEX_POINT ( 'NONE', #46 ) ;
#110 = EDGE_CURVE ( 'NONE', #297, #243, #191, .T. ) ;
#111 = CARTESIAN_POINT ( 'NONE',  ( 0.0000000000000000000, 0.0000000000000000000, 1.496062999999999921 ) ) ;
#112 = ORIENTED_EDGE ( 'NONE', *, *, #110, .T. ) ;
#113 =( NAMED_UNIT ( * ) SI_UNIT ( $, .STERADIAN. ) SOLID_ANGLE_UNIT ( ) );
#114 = AXIS2_PLACEMENT_3D ( 'NONE', #195, #199, #154 ) ;
#115 = DATE_AND_TIME ( #245, #153 ) ;
#116 = EDGE_CURVE ( 'NONE', #227, #260, #201, .T. ) ;
#117 = VERTEX_POINT ( 'NONE', #25 ) ;
#118 = VERTEX_POINT ( 'NONE', #327 ) ;
#119 = DIRECTION ( 'NONE',  ( -1.000000000000000000, 0.0000000000000000000, 1.224646799147353207E-16 ) ) ;
#120 = AXIS2_PLACEMENT_3D ( 'NONE', #111, #33, #132 ) ;
#121 = LINE ( 'NONE', #180, #96 ) ;
#122 = DIRECTION ( 'NONE',  ( -1.224646799147353207E-16, -0.0000000000000000000, -1.000000000000000000 ) ) ;
#123 = DESIGN_CONTEXT ( 'detailed design', #280, 'design' ) ;
#124 = ADVANCED_FACE ( 'NONE', ( #276 ), #49, .T. ) ;
#125 = FACE_OUTER_BOUND ( 'NONE', #149, .T. ) ;
#126 = DIRECTION ( 'NONE',  ( 0.0000000000000000000, 0.0000000000000000000, 1.000000000000000000 ) ) ;
#127 = AXIS2_PLACEMENT_3D ( 'NONE', #253, #75, #309 ) ;
#128 = AXIS2_PLACEMENT_3D ( 'NONE', #159, #210, #291 ) ;
#129 = AXIS2_PLACEMENT_3D ( 'NONE', #205, #5, #83 ) ;
#130 = LINE ( 'NONE', #60, #247 ) ;
#131 = ADVANCED_FACE ( 'NONE', ( #228 ), #219, .T. ) ;
#132 = DIRECTION ( 'NONE',  ( -1.000000000000000000, 0.0000000000000000000, 0.0000000000000000000 ) ) ;
#133 = CARTESIAN_POINT ( 'NONE',  ( -0.05905500000000001720, 0.0000000000000000000, 1.496062999999999921 ) ) ;
#134 = AXIS2_PLACEMENT_3D ( 'NONE', #152, #52, #97 ) ;
#135 = ORIENTED_EDGE ( 'NONE', *, *, #116, .F. ) ;
#136 = VECTOR ( 'NONE', #264, 39.37007874015748143 ) ;
#137 = DIRECTION ( 'NONE',  ( -1.224646799147353207E-16, -0.0000000000000000000, -1.000000000000000000 ) ) ;
#138 = EDGE_LOOP ( 'NONE', ( #68, #272, #238, #167 ) ) ;
#139 = PERSON_AND_ORGANIZATION ( #47, #14 ) ;
#140 = PRODUCT_DEFINITION_SHAPE ( 'NONE', 'NONE',  #15 ) ;
#141 = APPROVAL_DATE_TIME ( #38, #263 ) ;
#142 = ADVANCED_FACE ( 'NONE', ( #155 ), #254, .T. ) ;
#143 = ORIENTED_EDGE ( 'NONE', *, *, #170, .T. ) ;
#144 = PERSON_AND_ORGANIZATION ( #47, #14 ) ;
#145 = ORIENTED_EDGE ( 'NONE', *, *, #284, .F. ) ;
#146 = ADVANCED_FACE ( 'NONE', ( #28 ), #10, .T. ) ;
#147 = PERSON_AND_ORGANIZATION ( #47, #14 ) ;
#148 = SECURITY_CLASSIFICATION ( '', '', #40 ) ;
#149 = EDGE_LOOP ( 'NONE', ( #262, #44, #11, #288 ) ) ;
#150 = ORIENTED_EDGE ( 'NONE', *, *, #216, .T. ) ;
#151 = MANIFOLD_SOLID_BREP ( 'Cut-Revolve1', #70 ) ;
#152 = CARTESIAN_POINT ( 'NONE',  ( 0.0000000000000000000, 0.0000000000000000000, 0.0000000000000000000 ) ) ;
#153 = LOCAL_TIME ( 14, 36, 33.00000000000000000, #270 ) ;
#154 = DIRECTION ( 'NONE',  ( -1.000000000000000000, 0.0000000000000000000, 0.0000000000000000000 ) ) ;
#155 = FACE_OUTER_BOUND ( 'NONE', #322, .T. ) ;
#156 = CARTESIAN_POINT ( 'NONE',  ( 2.025002468262114287E-17, 0.0000000000000000000, 0.1653539999999999732 ) ) ;
#157 = CIRCLE ( 'NONE', #23, 0.05905500000000001720 ) ;
#158 = CARTESIAN_POINT ( 'NONE',  ( 0.04405499999999974020, 5.395181473643631161E-18, 1.496062999999999921 ) ) ;
#159 = CARTESIAN_POINT ( 'NONE',  ( 4.214413610673241973E-17, 0.0000000000000000000, 0.3441329870463450957 ) ) ;
#160 = ORIENTED_EDGE ( 'NONE', *, *, #279, .F. ) ;
#161 = AXIS2_PLACEMENT_3D ( 'NONE', #93, #43, #41 ) ;
#162 = DIRECTION ( 'NONE',  ( 0.0000000000000000000, 0.0000000000000000000, -1.000000000000000000 ) ) ;
#163 = COORDINATED_UNIVERSAL_TIME_OFFSET ( 5, 0, .BEHIND. ) ;
#164 = APPROVAL ( #190, 'UNSPECIFIED' ) ;
#165 = APPROVAL_ROLE ( '' ) ;
#166 = APPROVAL_ROLE ( '' ) ;
#167 = ORIENTED_EDGE ( 'NONE', *, *, #244, .F. ) ;
#168 = PERSON_AND_ORGANIZATION_ROLE ( 'classification_officer' ) ;
#169 = ORIENTED_EDGE ( 'NONE', *, *, #110, .F. ) ;
#170 = EDGE_CURVE ( 'NONE', #260, #109, #211, .T. ) ;
#171 = CALENDAR_DATE ( 2021, 22, 9 ) ;
#172 = EDGE_LOOP ( 'NONE', ( #34, #143, #248, #212 ) ) ;
#173 = PRODUCT ( 'Micro_RMEM-014-2X', 'Micro_RMEM-014-2X', '', ( #188 ) ) ;
#174 = CIRCLE ( 'NONE', #65, 0.05905500000000001720 ) ;
#175 = CARTESIAN_POINT ( 'NONE',  ( 2.025002468262114287E-17, 0.0000000000000000000, 0.1653539999999999732 ) ) ;
#176 = DIRECTION ( 'NONE',  ( 0.0000000000000000000, 0.0000000000000000000, -1.000000000000000000 ) ) ;
#177 = CARTESIAN_POINT ( 'NONE',  ( 0.0000000000000000000, 0.0000000000000000000, 1.481062999999999574 ) ) ;
#178 = ORIENTED_EDGE ( 'NONE', *, *, #51, .F. ) ;
#179 = APPROVAL_PERSON_ORGANIZATION ( #88, #263, #165 ) ;
#180 = CARTESIAN_POINT ( 'NONE',  ( -0.02753144100000001759, 0.0000000000000000000, 3.371629109656422807E-18 ) ) ;
#181 = CARTESIAN_POINT ( 'NONE',  ( -0.02753144100000001065, 0.0000000000000000000, 6.743258219312843302E-18 ) ) ;
#182 = CC_DESIGN_APPROVAL ( #220, ( #107 ) ) ;
#183 = DIRECTION ( 'NONE',  ( 0.7071067811865482389, 8.659560562354941486E-17, -0.7071067811865469066 ) ) ;
#184 = DIRECTION ( 'NONE',  ( -1.224646799147353207E-16, -0.0000000000000000000, -1.000000000000000000 ) ) ;
#185 = CARTESIAN_POINT ( 'NONE',  ( -0.05905500000000001720, 0.0000000000000000000, 1.481062999999999574 ) ) ;
#186 = ORIENTED_EDGE ( 'NONE', *, *, #294, .T. ) ;
#187 = AXIS2_PLACEMENT_3D ( 'NONE', #261, #137, #207 ) ;
#188 = MECHANICAL_CONTEXT ( 'NONE', #217, 'mechanical' ) ;
#189 = EDGE_CURVE ( 'NONE', #297, #260, #282, .T. ) ;
#190 = APPROVAL_STATUS ( 'not_yet_approved' ) ;
#191 = CIRCLE ( 'NONE', #81, 0.04405499999999974020 ) ;
#192 = CC_DESIGN_APPROVAL ( #263, ( #148 ) ) ;
#193 = PERSON_AND_ORGANIZATION ( #47, #14 ) ;
#194 = CALENDAR_DATE ( 2021, 22, 9 ) ;
#195 = CARTESIAN_POINT ( 'NONE',  ( 0.0000000000000000000, 0.0000000000000000000, 1.496062999999999921 ) ) ;
#196 = AXIS2_PLACEMENT_3D ( 'NONE', #197, #122, #119 ) ;
#197 = CARTESIAN_POINT ( 'NONE',  ( 4.129054797052776902E-34, 0.0000000000000000000, 3.371629109656421651E-18 ) ) ;
#198 = EDGE_CURVE ( 'NONE', #243, #227, #130, .T. ) ;
#199 = DIRECTION ( 'NONE',  ( -0.0000000000000000000, -0.0000000000000000000, -1.000000000000000000 ) ) ;
#200 = DIRECTION ( 'NONE',  ( 1.224646799147353207E-16, 0.0000000000000000000, 1.000000000000000000 ) ) ;
#201 = CIRCLE ( 'NONE', #90, 0.05905500000000001720 ) ;
#202 = CARTESIAN_POINT ( 'NONE',  ( 0.02753144100000001759, 3.371629109656422807E-18, -3.371629109656422807E-18 ) ) ;
#203 = CIRCLE ( 'NONE', #128, 0.05905500000000001720 ) ;
#204 = ADVANCED_FACE ( 'NONE', ( #85 ), #285, .T. ) ;
#205 = CARTESIAN_POINT ( 'NONE',  ( 0.0000000000000000000, 0.0000000000000000000, 1.496062999999999921 ) ) ;
#206 = DIRECTION ( 'NONE',  ( 1.000000000000000000, 0.0000000000000000000, 0.0000000000000000000 ) ) ;
#207 = DIRECTION ( 'NONE',  ( -1.000000000000000000, 0.0000000000000000000, 0.0000000000000000000 ) ) ;
#208 = APPROVAL_PERSON_ORGANIZATION ( #89, #164, #221 ) ;
#209 = CC_DESIGN_PERSON_AND_ORGANIZATION_ASSIGNMENT ( #239, #168, ( #148 ) ) ;
#210 = DIRECTION ( 'NONE',  ( -1.224646799147353207E-16, -0.0000000000000000000, -1.000000000000000000 ) ) ;
#211 = LINE ( 'NONE', #317, #267 ) ;
#212 = ORIENTED_EDGE ( 'NONE', *, *, #249, .F. ) ;
#213 = PERSON_AND_ORGANIZATION_ROLE ( 'design_owner' ) ;
#214 = APPROVAL_STATUS ( 'not_yet_approved' ) ;
#215 = DATE_AND_TIME ( #171, #324 ) ;
#216 = EDGE_CURVE ( 'NONE', #243, #297, #314, .T. ) ;
#217 = APPLICATION_CONTEXT ( 'configuration controlled 3d designs of mechanical parts and assemblies' ) ;
#218 = EDGE_LOOP ( 'NONE', ( #169, #66, #135, #278 ) ) ;
#219 = CONICAL_SURFACE ( 'NONE', #76, 0.04405499999999974020, 0.7853981633974491672 ) ;
#220 = APPROVAL ( #37, 'UNSPECIFIED' ) ;
#221 = APPROVAL_ROLE ( '' ) ;
#222 = EDGE_LOOP ( 'NONE', ( #306, #48 ) ) ;
#223 = DIRECTION ( 'NONE',  ( -1.224646799147353207E-16, -0.0000000000000000000, -1.000000000000000000 ) ) ;
#224 = ADVANCED_FACE ( 'NONE', ( #55 ), #287, .F. ) ;
#225 = AXIS2_PLACEMENT_3D ( 'NONE', #175, #200, #304 ) ;
#226 = VECTOR ( 'NONE', #316, 39.37007874015748143 ) ;
#227 = VERTEX_POINT ( 'NONE', #185 ) ;
#228 = FACE_OUTER_BOUND ( 'NONE', #138, .T. ) ;
#229 = FACE_OUTER_BOUND ( 'NONE', #275, .T. ) ;
#230 = CARTESIAN_POINT ( 'NONE',  ( -0.05905499999999996863, 0.0000000000000000000, 0.3441329870463450957 ) ) ;
#231 = AXIS2_PLACEMENT_3D ( 'NONE', #156, #232, #310 ) ;
#232 = DIRECTION ( 'NONE',  ( 1.224646799147353207E-16, 0.0000000000000000000, 1.000000000000000000 ) ) ;
#233 = EDGE_CURVE ( 'NONE', #31, #109, #203, .T. ) ;
#234 =( CONVERSION_BASED_UNIT ( 'INCH', #258 ) LENGTH_UNIT ( ) NAMED_UNIT ( #255 ) );
#235 = DIRECTION ( 'NONE',  ( -1.224646799147353207E-16, -0.0000000000000000000, -1.000000000000000000 ) ) ;
#236 = AXIS2_PLACEMENT_3D ( 'NONE', #237, #257, #80 ) ;
#237 = CARTESIAN_POINT ( 'NONE',  ( 0.0000000000000000000, 0.0000000000000000000, 1.496062999999999921 ) ) ;
#238 = ORIENTED_EDGE ( 'NONE', *, *, #198, .T. ) ;
#239 = PERSON_AND_ORGANIZATION ( #47, #14 ) ;
#240 = CONICAL_SURFACE ( 'NONE', #236, 0.04405499999999974020, 0.7853981633974491672 ) ;
#241 = SHAPE_DEFINITION_REPRESENTATION ( #140, #320 ) ;
#242 = CALENDAR_DATE ( 2021, 22, 9 ) ;
#243 = VERTEX_POINT ( 'NONE', #35 ) ;
#244 = EDGE_CURVE ( 'NONE', #260, #227, #157, .T. ) ;
#245 = CALENDAR_DATE ( 2021, 22, 9 ) ;
#246 = ORIENTED_EDGE ( 'NONE', *, *, #170, .F. ) ;
#247 = VECTOR ( 'NONE', #53, 39.37007874015748143 ) ;
#248 = ORIENTED_EDGE ( 'NONE', *, *, #233, .F. ) ;
#249 = EDGE_CURVE ( 'NONE', #227, #31, #29, .T. ) ;
#250 = VERTEX_POINT ( 'NONE', #181 ) ;
#251 = CARTESIAN_POINT ( 'NONE',  ( -0.02753144100000000025, 3.371629109656423577E-18, 0.1653539999999999732 ) ) ;
#252 = DIRECTION ( 'NONE',  ( -0.1736481776669312194, 2.126576849575783625E-17, 0.9848077530122080203 ) ) ;
#253 = CARTESIAN_POINT ( 'NONE',  ( 4.129054797052776902E-34, 0.0000000000000000000, 3.371629109656421651E-18 ) ) ;
#254 = PLANE ( 'NONE',  #323 ) ;
#255 = DIMENSIONAL_EXPONENTS ( 1.000000000000000000, 0.0000000000000000000, 0.0000000000000000000, 0.0000000000000000000, 0.0000000000000000000, 0.0000000000000000000, 0.0000000000000000000 ) ;
#256 = AXIS2_PLACEMENT_3D ( 'NONE', #71, #1, #328 ) ;
#257 = DIRECTION ( 'NONE',  ( 0.0000000000000000000, 0.0000000000000000000, -1.000000000000000000 ) ) ;
#258 = LENGTH_MEASURE_WITH_UNIT ( LENGTH_MEASURE( 0.02539999999999999897 ), #103 );
#259 = CARTESIAN_POINT ( 'NONE',  ( 0.0000000000000000000, 0.0000000000000000000, 0.0000000000000000000 ) ) ;
#260 = VERTEX_POINT ( 'NONE', #315 ) ;
#261 = CARTESIAN_POINT ( 'NONE',  ( 2.025002468262114287E-17, 0.0000000000000000000, 0.1653539999999999732 ) ) ;
#262 = ORIENTED_EDGE ( 'NONE', *, *, #279, .T. ) ;
#263 = APPROVAL ( #214, 'UNSPECIFIED' ) ;
#264 = DIRECTION ( 'NONE',  ( 0.1736481776669314137, 0.0000000000000000000, 0.9848077530122077983 ) ) ;
#265 = DATE_AND_TIME ( #242, #295 ) ;
#266 = CALENDAR_DATE ( 2021, 22, 9 ) ;
#267 = VECTOR ( 'NONE', #108, 39.37007874015748143 ) ;
#268 = PERSON_AND_ORGANIZATION_ROLE ( 'design_supplier' ) ;
#269 = VERTEX_POINT ( 'NONE', #6 ) ;
#270 = COORDINATED_UNIVERSAL_TIME_OFFSET ( 5, 0, .BEHIND. ) ;
#271 = ORIENTED_EDGE ( 'NONE', *, *, #325, .T. ) ;
#272 = ORIENTED_EDGE ( 'NONE', *, *, #216, .F. ) ;
#273 = CC_DESIGN_PERSON_AND_ORGANIZATION_ASSIGNMENT ( #144, #296, ( #15 ) ) ;
#274 = DIRECTION ( 'NONE',  ( 1.000000000000000000, 0.0000000000000000000, -0.0000000000000000000 ) ) ;
#275 = EDGE_LOOP ( 'NONE', ( #94, #95, #271, #299 ) ) ;
#276 = FACE_OUTER_BOUND ( 'NONE', #4, .T. ) ;
#277 = APPROVAL_PERSON_ORGANIZATION ( #147, #220, #166 ) ;
#278 = ORIENTED_EDGE ( 'NONE', *, *, #198, .F. ) ;
#279 = EDGE_CURVE ( 'NONE', #269, #118, #308, .T. ) ;
#280 = APPLICATION_CONTEXT ( 'configuration controlled 3d designs of mechanical parts and assemblies' ) ;
#281 = ORIENTED_EDGE ( 'NONE', *, *, #233, .T. ) ;
#282 = LINE ( 'NONE', #158, #59 ) ;
#283 = CONICAL_SURFACE ( 'NONE', #225, 0.02753144100000002106, 0.1745329251994339192 ) ;
#284 = EDGE_CURVE ( 'NONE', #109, #31, #174, .T. ) ;
#285 = CONICAL_SURFACE ( 'NONE', #231, 0.02753144100000002106, 0.1745329251994339192 ) ;
#286 = LINE ( 'NONE', #27, #136 ) ;
#287 = PLANE ( 'NONE',  #98 ) ;
#288 = ORIENTED_EDGE ( 'NONE', *, *, #86, .F. ) ;
#289 = DIRECTION ( 'NONE',  ( 1.000000000000000000, 0.0000000000000000000, 0.0000000000000000000 ) ) ;
#290 = CC_DESIGN_PERSON_AND_ORGANIZATION_ASSIGNMENT ( #139, #268, ( #107 ) ) ;
#291 = DIRECTION ( 'NONE',  ( 1.000000000000000000, 0.0000000000000000000, 0.0000000000000000000 ) ) ;
#292 = AXIS2_PLACEMENT_3D ( 'NONE', #58, #235, #84 ) ;
#293 = PERSON_AND_ORGANIZATION ( #47, #14 ) ;
#294 = EDGE_CURVE ( 'NONE', #118, #269, #102, .T. ) ;
#295 = LOCAL_TIME ( 14, 36, 33.00000000000000000, #163 ) ;
#296 = PERSON_AND_ORGANIZATION_ROLE ( 'creator' ) ;
#297 = VERTEX_POINT ( 'NONE', #312 ) ;
#298 = COORDINATED_UNIVERSAL_TIME_OFFSET ( 5, 0, .BEHIND. ) ;
#299 = ORIENTED_EDGE ( 'NONE', *, *, #284, .T. ) ;
#300 = CC_DESIGN_PERSON_AND_ORGANIZATION_ASSIGNMENT ( #193, #67, ( #107 ) ) ;
#301 = LINE ( 'NONE', #202, #13 ) ;
#302 = LOCAL_TIME ( 14, 36, 33.00000000000000000, #321 ) ;
#303 = DIRECTION ( 'NONE',  ( 1.000000000000000000, 0.0000000000000000000, 0.0000000000000000000 ) ) ;
#304 = DIRECTION ( 'NONE',  ( 1.000000000000000000, 0.0000000000000000000, 0.0000000000000000000 ) ) ;
#305 = PRODUCT_RELATED_PRODUCT_CATEGORY ( 'detail', '', ( #173 ) ) ;
#306 = ORIENTED_EDGE ( 'NONE', *, *, #72, .T. ) ;
#307 = CIRCLE ( 'NONE', #127, 0.02753144100000001065 ) ;
#308 = CIRCLE ( 'NONE', #292, 0.02753144100000002106 ) ;
#309 = DIRECTION ( 'NONE',  ( -1.000000000000000000, 0.0000000000000000000, 1.224646799147353207E-16 ) ) ;
#310 = DIRECTION ( 'NONE',  ( 1.000000000000000000, 0.0000000000000000000, 0.0000000000000000000 ) ) ;
#311 = ADVANCED_FACE ( 'NONE', ( #78 ), #240, .T. ) ;
#312 = CARTESIAN_POINT ( 'NONE',  ( 0.04405499999999974020, 6.313666573004163292E-18, 1.496062999999999921 ) ) ;
#313 = UNCERTAINTY_MEASURE_WITH_UNIT (LENGTH_MEASURE( 1.000000000000000082E-05 ), #234, 'distance_accuracy_value', 'NONE');
#314 = CIRCLE ( 'NONE', #129, 0.04405499999999974020 ) ;
#315 = CARTESIAN_POINT ( 'NONE',  ( 0.05905500000000001720, 7.232151672364695422E-18, 1.481062999999999574 ) ) ;
#316 = DIRECTION ( 'NONE',  ( -0.0000000000000000000, -0.0000000000000000000, -1.000000000000000000 ) ) ;
#317 = CARTESIAN_POINT ( 'NONE',  ( 0.05905500000000001720, 7.232151672364695422E-18, 1.496062999999999921 ) ) ;
#318 = ORIENTED_EDGE ( 'NONE', *, *, #249, .T. ) ;
#319 =( GEOMETRIC_REPRESENTATION_CONTEXT ( 3 ) GLOBAL_UNCERTAINTY_ASSIGNED_CONTEXT ( ( #313 ) ) GLOBAL_UNIT_ASSIGNED_CONTEXT ( ( #234, #69, #113 ) ) REPRESENTATION_CONTEXT ( 'NONE', 'WORKASPACE' ) );
#320 = ADVANCED_BREP_SHAPE_REPRESENTATION ( 'Micro_RMEM-014-2X', ( #151, #161 ), #319 ) ;
#321 = COORDINATED_UNIVERSAL_TIME_OFFSET ( 5, 0, .BEHIND. ) ;
#322 = EDGE_LOOP ( 'NONE', ( #150, #112 ) ) ;
#323 = AXIS2_PLACEMENT_3D ( 'NONE', #26, #126, #274 ) ;
#324 = LOCAL_TIME ( 14, 36, 33.00000000000000000, #298 ) ;
#325 = EDGE_CURVE ( 'NONE', #118, #109, #286, .T. ) ;
#326 = ORIENTED_EDGE ( 'NONE', *, *, #86, .T. ) ;
#327 = CARTESIAN_POINT ( 'NONE',  ( 0.02753144100000004188, 0.0000000000000000000, 0.1653539999999999732 ) ) ;
#328 = DIRECTION ( 'NONE',  ( -1.000000000000000000, 0.0000000000000000000, 1.224646799147353207E-16 ) ) ;
ENDSEC;
END-ISO-10303-21;
