ISO-10303-21;
HEADER;
FILE_DESCRIPTION (( 'STEP AP214' ),
    '1' );
FILE_NAME ('81894.STEP',
    '2023-06-23T03:45:34',
    ( '' ),
    ( '' ),
    'SwSTEP 2.0',
    'SolidWorks 2023',
    '' );
FILE_SCHEMA (( 'AUTOMOTIVE_DESIGN' ));
ENDSEC;

DATA;
#1 =( NAMED_UNIT ( * ) SI_UNIT ( $, .STERADIAN. ) SOLID_ANGLE_UNIT ( ) );
#2 = CARTESIAN_POINT ( 'NONE',  ( 0.1250000000000000278, 3.000000000000000444, 0.000000000000000000 ) ) ;
#3 = STYLED_ITEM ( 'NONE', ( #126 ), #127 ) ;
#4 = FACE_OUTER_BOUND ( 'NONE', #190, .T. ) ;
#5 = LENGTH_MEASURE_WITH_UNIT ( LENGTH_MEASURE( 0.02539999999999999897 ), #155 );
#6 = DIMENSIONAL_EXPONENTS ( 1.000000000000000000, 0.000000000000000000, 0.000000000000000000, 0.000000000000000000, 0.000000000000000000, 0.000000000000000000, 0.000000000000000000 ) ;
#7 = CARTESIAN_POINT ( 'NONE',  ( 0.000000000000000000, 1.000000000000000000, 0.000000000000000000 ) ) ;
#8 = AXIS2_PLACEMENT_3D ( 'NONE', #84, #268, #31 ) ;
#9 = CARTESIAN_POINT ( 'NONE',  ( 0.1250000000000000278, 1.000000000000000000, 1.530808498934191201E-17 ) ) ;
#10 = CARTESIAN_POINT ( 'NONE',  ( 2.449293598294705921E-16, 3.000000000000000444, 0.000000000000000000 ) ) ;
#11 = MANIFOLD_SOLID_BREP ( 'Revolve - Cutting Edge', #156 ) ;
#12 =( NAMED_UNIT ( * ) SI_UNIT ( $, .STERADIAN. ) SOLID_ANGLE_UNIT ( ) );
#13 = STYLED_ITEM ( 'NONE', ( #245 ), #85 ) ;
#14 = CARTESIAN_POINT ( 'NONE',  ( 9.373498641636610049E-34, 1.000000000000000000, 0.000000000000000000 ) ) ;
#15 = FACE_OUTER_BOUND ( 'NONE', #256, .T. ) ;
#16 = CARTESIAN_POINT ( 'NONE',  ( -0.1249999999999996808, 3.000000000000000444, 0.000000000000000000 ) ) ;
#17 = COLOUR_RGB ( '',1.000000000000000000, 0.000000000000000000, 0.000000000000000000 ) ;
#18 = ORIENTED_EDGE ( 'NONE', *, *, #110, .F. ) ;
#19 = SURFACE_SIDE_STYLE ('',( #280 ) ) ;
#20 = ORIENTED_EDGE ( 'NONE', *, *, #185, .T. ) ;
#21 = ORIENTED_EDGE ( 'NONE', *, *, #200, .T. ) ;
#22 = VECTOR ( 'NONE', #58, 39.37007874015748143 ) ;
#23 = PLANE ( 'NONE',  #8 ) ;
#24 = ORIENTED_EDGE ( 'NONE', *, *, #200, .F. ) ;
#25 = CARTESIAN_POINT ( 'NONE',  ( 0.000000000000000000, 0.000000000000000000, 0.000000000000000000 ) ) ;
#26 = ADVANCED_FACE ( 'NONE', ( #175 ), #253, .F. ) ;
#27 = SURFACE_STYLE_USAGE ( .BOTH. , #204 ) ;
#28 = AXIS2_PLACEMENT_3D ( 'NONE', #148, #254, #144 ) ;
#29 = DIMENSIONAL_EXPONENTS ( 1.000000000000000000, 0.000000000000000000, 0.000000000000000000, 0.000000000000000000, 0.000000000000000000, 0.000000000000000000, 0.000000000000000000 ) ;
#30 = CYLINDRICAL_SURFACE ( 'NONE', #97, 0.1250000000000000278 ) ;
#31 = DIRECTION ( 'NONE',  ( 0.000000000000000000, -0.000000000000000000, 1.000000000000000000 ) ) ;
#32 =( NAMED_UNIT ( * ) SI_UNIT ( $, .STERADIAN. ) SOLID_ANGLE_UNIT ( ) );
#33 =( GEOMETRIC_REPRESENTATION_CONTEXT ( 3 ) GLOBAL_UNCERTAINTY_ASSIGNED_CONTEXT ( ( #248 ) ) GLOBAL_UNIT_ASSIGNED_CONTEXT ( ( #150, #49, #117 ) ) REPRESENTATION_CONTEXT ( 'NONE', 'WORKASPACE' ) );
#34 = ADVANCED_FACE ( 'NONE', ( #304 ), #288, .T. ) ;
#35 = CARTESIAN_POINT ( 'NONE',  ( 0.000000000000000000, 0.000000000000000000, -0.1250000000000000278 ) ) ;
#36 = DIRECTION ( 'NONE',  ( 0.000000000000000000, 0.000000000000000000, -1.000000000000000000 ) ) ;
#37 = VERTEX_POINT ( 'NONE', #44 ) ;
#38 = AXIS2_PLACEMENT_3D ( 'NONE', #163, #162, #279 ) ;
#39 = PLANE ( 'NONE',  #38 ) ;
#40 = CARTESIAN_POINT ( 'NONE',  ( 0.000000000000000000, 0.000000000000000000, 0.000000000000000000 ) ) ;
#41 = DIRECTION ( 'NONE',  ( 1.224646799147352961E-16, 1.000000000000000000, -0.000000000000000000 ) ) ;
#42 = VERTEX_POINT ( 'NONE', #79 ) ;
#43 = VERTEX_POINT ( 'NONE', #261 ) ;
#44 = CARTESIAN_POINT ( 'NONE',  ( -0.1250000000000000278, 1.000000000000000000, 0.000000000000000000 ) ) ;
#45 = PRODUCT ( '81894', '81894', '', ( #170 ) ) ;
#46 = CARTESIAN_POINT ( 'NONE',  ( 0.000000000000000000, 1.000000000000000000, 0.000000000000000000 ) ) ;
#47 = DIRECTION ( 'NONE',  ( -1.000000000000000000, 0.000000000000000000, 0.000000000000000000 ) ) ;
#48 = ORIENTED_EDGE ( 'NONE', *, *, #281, .T. ) ;
#49 =( NAMED_UNIT ( * ) PLANE_ANGLE_UNIT ( ) SI_UNIT ( $, .RADIAN. ) );
#50 = DIRECTION ( 'NONE',  ( 1.000000000000000000, 0.000000000000000000, 0.000000000000000000 ) ) ;
#51 = EDGE_CURVE ( 'NONE', #71, #42, #181, .T. ) ;
#52 = DIRECTION ( 'NONE',  ( -1.000000000000000000, 0.000000000000000000, 0.000000000000000000 ) ) ;
#53 =( NAMED_UNIT ( * ) PLANE_ANGLE_UNIT ( ) SI_UNIT ( $, .RADIAN. ) );
#54 = DIMENSIONAL_EXPONENTS ( 1.000000000000000000, 0.000000000000000000, 0.000000000000000000, 0.000000000000000000, 0.000000000000000000, 0.000000000000000000, 0.000000000000000000 ) ;
#55 = UNCERTAINTY_MEASURE_WITH_UNIT (LENGTH_MEASURE( 1.000000000000000082E-05 ), #180, 'distance_accuracy_value', 'NONE');
#56 = MECHANICAL_DESIGN_GEOMETRIC_PRESENTATION_REPRESENTATION (  '', ( #305 ), #252 ) ;
#57 = AXIS2_PLACEMENT_3D ( 'NONE', #273, #232, #111 ) ;
#58 = DIRECTION ( 'NONE',  ( 1.224646799147352961E-16, 1.000000000000000000, -0.000000000000000000 ) ) ;
#59 = ORIENTED_EDGE ( 'NONE', *, *, #281, .F. ) ;
#60 = ORIENTED_EDGE ( 'NONE', *, *, #141, .T. ) ;
#61 = MECHANICAL_DESIGN_GEOMETRIC_PRESENTATION_REPRESENTATION (  '', ( #13 ), #140 ) ;
#62 = COLOUR_RGB ( '',1.000000000000000000, 0.000000000000000000, 0.000000000000000000 ) ;
#63 =( NAMED_UNIT ( * ) SI_UNIT ( $, .STERADIAN. ) SOLID_ANGLE_UNIT ( ) );
#64 = ADVANCED_BREP_SHAPE_REPRESENTATION ( '81894', ( #11, #225, #66 ), #33 ) ;
#65 = CARTESIAN_POINT ( 'NONE',  ( 2.449293598294705921E-16, 3.000000000000000444, 0.000000000000000000 ) ) ;
#66 = AXIS2_PLACEMENT_3D ( 'NONE', #25, #119, #50 ) ;
#67 = CARTESIAN_POINT ( 'NONE',  ( 0.1250000000000001388, 3.000000000000000444, 1.530808498934190276E-17 ) ) ;
#68 = APPLICATION_PROTOCOL_DEFINITION ( 'draft international standard', 'automotive_design', 1998, #72 ) ;
#69 = EDGE_CURVE ( 'NONE', #42, #71, #100, .T. ) ;
#70 = FILL_AREA_STYLE ('',( #309 ) ) ;
#71 = VERTEX_POINT ( 'NONE', #293 ) ;
#72 = APPLICATION_CONTEXT ( 'automotive_design' ) ;
#73 = SURFACE_STYLE_USAGE ( .BOTH. , #78 ) ;
#74 = ORIENTED_EDGE ( 'NONE', *, *, #164, .T. ) ;
#75 = VECTOR ( 'NONE', #224, 39.37007874015748143 ) ;
#76 = UNCERTAINTY_MEASURE_WITH_UNIT (LENGTH_MEASURE( 1.000000000000000082E-05 ), #188, 'distance_accuracy_value', 'NONE');
#77 = CIRCLE ( 'NONE', #57, 0.1250000000000000278 ) ;
#78 = SURFACE_SIDE_STYLE ('',( #287 ) ) ;
#79 = CARTESIAN_POINT ( 'NONE',  ( 0.1250000000000000278, 3.000000000000000444, 1.530808498934191201E-17 ) ) ;
#80 =( LENGTH_UNIT ( ) NAMED_UNIT ( * ) SI_UNIT ( $, .METRE. ) );
#81 = LENGTH_MEASURE_WITH_UNIT ( LENGTH_MEASURE( 0.02539999999999999897 ), #179 );
#82 = FACE_OUTER_BOUND ( 'NONE', #139, .T. ) ;
#83 = UNCERTAINTY_MEASURE_WITH_UNIT (LENGTH_MEASURE( 1.000000000000000082E-05 ), #142, 'distance_accuracy_value', 'NONE');
#84 = CARTESIAN_POINT ( 'NONE',  ( 0.000000000000000000, 1.000000000000000000, 0.000000000000000000 ) ) ;
#85 = ADVANCED_FACE ( 'NONE', ( #82 ), #30, .T. ) ;
#86 = PRODUCT_RELATED_PRODUCT_CATEGORY ( 'part', '', ( #45 ) ) ;
#87 = LENGTH_MEASURE_WITH_UNIT ( LENGTH_MEASURE( 0.02539999999999999897 ), #207 );
#88 = APPLICATION_CONTEXT ( 'automotive_design' ) ;
#89 = PRESENTATION_STYLE_ASSIGNMENT (( #295 ) ) ;
#90 = AXIS2_PLACEMENT_3D ( 'NONE', #195, #283, #52 ) ;
#91 = EDGE_CURVE ( 'NONE', #43, #213, #265, .T. ) ;
#92 = ORIENTED_EDGE ( 'NONE', *, *, #193, .T. ) ;
#93 = FILL_AREA_STYLE ('',( #138 ) ) ;
#94 =( NAMED_UNIT ( * ) PLANE_ANGLE_UNIT ( ) SI_UNIT ( $, .RADIAN. ) );
#95 = PRESENTATION_STYLE_ASSIGNMENT (( #114 ) ) ;
#96 = DIRECTION ( 'NONE',  ( 1.224646799147352961E-16, 1.000000000000000000, -0.000000000000000000 ) ) ;
#97 = AXIS2_PLACEMENT_3D ( 'NONE', #101, #264, #247 ) ;
#98 = ORIENTED_EDGE ( 'NONE', *, *, #106, .F. ) ;
#99 = DIRECTION ( 'NONE',  ( 1.000000000000000000, -1.224646799147352961E-16, 0.000000000000000000 ) ) ;
#100 = CIRCLE ( 'NONE', #90, 0.1249999999999997918 ) ;
#101 = CARTESIAN_POINT ( 'NONE',  ( 0.000000000000000000, 0.000000000000000000, 0.000000000000000000 ) ) ;
#102 = VECTOR ( 'NONE', #215, 39.37007874015748143 ) ;
#103 = DIRECTION ( 'NONE',  ( -0.000000000000000000, -1.000000000000000000, -0.000000000000000000 ) ) ;
#104 = LINE ( 'NONE', #35, #75 ) ;
#105 = DIRECTION ( 'NONE',  ( 1.224646799147352961E-16, 1.000000000000000000, -0.000000000000000000 ) ) ;
#106 = EDGE_CURVE ( 'NONE', #184, #43, #104, .T. ) ;
#107 = DIRECTION ( 'NONE',  ( -1.000000000000000000, 0.000000000000000000, 0.000000000000000000 ) ) ;
#108 = ORIENTED_EDGE ( 'NONE', *, *, #106, .T. ) ;
#109 = CYLINDRICAL_SURFACE ( 'NONE', #214, 0.1249999999999999167 ) ;
#110 = EDGE_CURVE ( 'NONE', #145, #184, #226, .T. ) ;
#111 = DIRECTION ( 'NONE',  ( 0.000000000000000000, 0.000000000000000000, -1.000000000000000000 ) ) ;
#112 =( NAMED_UNIT ( * ) PLANE_ANGLE_UNIT ( ) SI_UNIT ( $, .RADIAN. ) );
#113 = ORIENTED_EDGE ( 'NONE', *, *, #110, .T. ) ;
#114 = SURFACE_STYLE_USAGE ( .BOTH. , #19 ) ;
#115 = SURFACE_STYLE_USAGE ( .BOTH. , #216 ) ;
#116 = ORIENTED_EDGE ( 'NONE', *, *, #51, .T. ) ;
#117 =( NAMED_UNIT ( * ) SI_UNIT ( $, .STERADIAN. ) SOLID_ANGLE_UNIT ( ) );
#118 = FILL_AREA_STYLE ('',( #171 ) ) ;
#119 = DIRECTION ( 'NONE',  ( 0.000000000000000000, 0.000000000000000000, 1.000000000000000000 ) ) ;
#120 = LENGTH_MEASURE_WITH_UNIT ( LENGTH_MEASURE( 0.02539999999999999897 ), #210 );
#121 =( CONVERSION_BASED_UNIT ( 'INCH', #217 ) LENGTH_UNIT ( ) NAMED_UNIT ( #220 ) );
#122 = PRESENTATION_STYLE_ASSIGNMENT (( #115 ) ) ;
#123 = APPLICATION_PROTOCOL_DEFINITION ( 'draft international standard', 'automotive_design', 1998, #88 ) ;
#124 = CIRCLE ( 'NONE', #130, 0.1250000000000000278 ) ;
#125 =( LENGTH_UNIT ( ) NAMED_UNIT ( * ) SI_UNIT ( $, .METRE. ) );
#126 = PRESENTATION_STYLE_ASSIGNMENT (( #27 ) ) ;
#127 = ADVANCED_FACE ( 'NONE', ( #4 ), #263, .T. ) ;
#128 = FILL_AREA_STYLE_COLOUR ( '', #133 ) ;
#129 = AXIS2_PLACEMENT_3D ( 'NONE', #7, #103, #131 ) ;
#130 = AXIS2_PLACEMENT_3D ( 'NONE', #251, #41, #107 ) ;
#131 = DIRECTION ( 'NONE',  ( 0.000000000000000000, 0.000000000000000000, -1.000000000000000000 ) ) ;
#132 = DIRECTION ( 'NONE',  ( -0.000000000000000000, -1.000000000000000000, -0.000000000000000000 ) ) ;
#133 = COLOUR_RGB ( '',1.000000000000000000, 0.000000000000000000, 0.000000000000000000 ) ;
#134 = ORIENTED_EDGE ( 'NONE', *, *, #164, .F. ) ;
#135 = STYLED_ITEM ( 'NONE', ( #189 ), #225 ) ;
#136 = ADVANCED_FACE ( 'NONE', ( #186 ), #39, .T. ) ;
#137 = LINE ( 'NONE', #16, #22 ) ;
#138 = FILL_AREA_STYLE_COLOUR ( '', #62 ) ;
#139 = EDGE_LOOP ( 'NONE', ( #48, #92, #272, #98 ) ) ;
#140 =( GEOMETRIC_REPRESENTATION_CONTEXT ( 3 ) GLOBAL_UNCERTAINTY_ASSIGNED_CONTEXT ( ( #55 ) ) GLOBAL_UNIT_ASSIGNED_CONTEXT ( ( #180, #53, #32 ) ) REPRESENTATION_CONTEXT ( 'NONE', 'WORKASPACE' ) );
#141 = EDGE_CURVE ( 'NONE', #308, #37, #124, .T. ) ;
#142 =( CONVERSION_BASED_UNIT ( 'INCH', #120 ) LENGTH_UNIT ( ) NAMED_UNIT ( #267 ) );
#143 = ORIENTED_EDGE ( 'NONE', *, *, #91, .T. ) ;
#144 = DIRECTION ( 'NONE',  ( -1.000000000000000000, 0.000000000000000000, 0.000000000000000000 ) ) ;
#145 = VERTEX_POINT ( 'NONE', #229 ) ;
#146 = ORIENTED_EDGE ( 'NONE', *, *, #69, .F. ) ;
#147 = PRESENTATION_LAYER_ASSIGNMENT (  '', '', ( #277 ) ) ;
#148 = CARTESIAN_POINT ( 'NONE',  ( -3.032960542342103792E-32, 1.000000000000000000, 0.000000000000000000 ) ) ;
#149 = SURFACE_STYLE_FILL_AREA ( #118 ) ;
#150 =( CONVERSION_BASED_UNIT ( 'INCH', #257 ) LENGTH_UNIT ( ) NAMED_UNIT ( #54 ) );
#151 =( LENGTH_UNIT ( ) NAMED_UNIT ( * ) SI_UNIT ( $, .METRE. ) );
#152 = LENGTH_MEASURE_WITH_UNIT ( LENGTH_MEASURE( 0.02539999999999999897 ), #125 );
#153 = AXIS2_PLACEMENT_3D ( 'NONE', #165, #96, #47 ) ;
#154 = MECHANICAL_DESIGN_GEOMETRIC_PRESENTATION_REPRESENTATION (  '', ( #135 ), #271 ) ;
#155 =( LENGTH_UNIT ( ) NAMED_UNIT ( * ) SI_UNIT ( $, .METRE. ) );
#156 = CLOSED_SHELL ( 'NONE', ( #85, #303, #127, #136 ) ) ;
#157 = EDGE_CURVE ( 'NONE', #37, #71, #137, .T. ) ;
#158 = EDGE_LOOP ( 'NONE', ( #59, #18 ) ) ;
#159 = AXIS2_PLACEMENT_3D ( 'NONE', #228, #249, #221 ) ;
#160 = SURFACE_SIDE_STYLE ('',( #299 ) ) ;
#161 = AXIS2_PLACEMENT_3D ( 'NONE', #46, #239, #289 ) ;
#162 = DIRECTION ( 'NONE',  ( 0.000000000000000000, -1.000000000000000000, -0.000000000000000000 ) ) ;
#163 = CARTESIAN_POINT ( 'NONE',  ( 0.000000000000000000, 0.000000000000000000, 0.000000000000000000 ) ) ;
#164 = EDGE_CURVE ( 'NONE', #213, #43, #77, .T. ) ;
#165 = CARTESIAN_POINT ( 'NONE',  ( 2.449293598294705921E-16, 3.000000000000000444, 0.000000000000000000 ) ) ;
#166 = AXIS2_PLACEMENT_3D ( 'NONE', #2, #285, #99 ) ;
#167 = AXIS2_PLACEMENT_3D ( 'NONE', #14, #301, #206 ) ;
#168 = EDGE_LOOP ( 'NONE', ( #143, #74 ) ) ;
#169 = ORIENTED_EDGE ( 'NONE', *, *, #51, .F. ) ;
#170 = PRODUCT_CONTEXT ( 'NONE', #72, 'mechanical' ) ;
#171 = FILL_AREA_STYLE_COLOUR ( '', #294 ) ;
#172 = ADVANCED_FACE ( 'NONE', ( #233 ), #208, .F. ) ;
#173 = MECHANICAL_DESIGN_GEOMETRIC_PRESENTATION_REPRESENTATION (  '', ( #3 ), #259 ) ;
#174 = CARTESIAN_POINT ( 'NONE',  ( 0.000000000000000000, 1.000000000000000000, -0.1250000000000000278 ) ) ;
#175 = FACE_OUTER_BOUND ( 'NONE', #237, .T. ) ;
#176 = ADVANCED_FACE ( 'NONE', ( #15 ), #109, .T. ) ;
#177 = FILL_AREA_STYLE_COLOUR ( '', #17 ) ;
#178 = SURFACE_SIDE_STYLE ('',( #222 ) ) ;
#179 =( LENGTH_UNIT ( ) NAMED_UNIT ( * ) SI_UNIT ( $, .METRE. ) );
#180 =( CONVERSION_BASED_UNIT ( 'INCH', #81 ) LENGTH_UNIT ( ) NAMED_UNIT ( #6 ) );
#181 = CIRCLE ( 'NONE', #153, 0.1249999999999997918 ) ;
#182 =( GEOMETRIC_REPRESENTATION_CONTEXT ( 3 ) GLOBAL_UNCERTAINTY_ASSIGNED_CONTEXT ( ( #274 ) ) GLOBAL_UNIT_ASSIGNED_CONTEXT ( ( #223, #201, #203 ) ) REPRESENTATION_CONTEXT ( 'NONE', 'WORKASPACE' ) );
#183 =( NAMED_UNIT ( * ) PLANE_ANGLE_UNIT ( ) SI_UNIT ( $, .RADIAN. ) );
#184 = VERTEX_POINT ( 'NONE', #174 ) ;
#185 = EDGE_CURVE ( 'NONE', #308, #42, #194, .T. ) ;
#186 = FACE_OUTER_BOUND ( 'NONE', #168, .T. ) ;
#187 = PRESENTATION_LAYER_ASSIGNMENT (  '', '', ( #266 ) ) ;
#188 =( CONVERSION_BASED_UNIT ( 'INCH', #5 ) LENGTH_UNIT ( ) NAMED_UNIT ( #29 ) );
#189 = PRESENTATION_STYLE_ASSIGNMENT (( #73 ) ) ;
#190 = EDGE_LOOP ( 'NONE', ( #298, #113, #108, #134 ) ) ;
#191 = PRODUCT_DEFINITION_SHAPE ( 'NONE', 'NONE',  #270 ) ;
#192 = LINE ( 'NONE', #306, #307 ) ;
#193 = EDGE_CURVE ( 'NONE', #145, #213, #192, .T. ) ;
#194 = LINE ( 'NONE', #67, #102 ) ;
#195 = CARTESIAN_POINT ( 'NONE',  ( 2.449293598294705921E-16, 3.000000000000000444, 0.000000000000000000 ) ) ;
#196 = DIRECTION ( 'NONE',  ( -1.000000000000000000, 0.000000000000000000, 0.000000000000000000 ) ) ;
#197 = DIRECTION ( 'NONE',  ( 1.224646799147352961E-16, 1.000000000000000000, -0.000000000000000000 ) ) ;
#198 = COLOUR_RGB ( '',1.000000000000000000, 0.000000000000000000, 0.000000000000000000 ) ;
#199 = FILL_AREA_STYLE ('',( #177 ) ) ;
#200 = EDGE_CURVE ( 'NONE', #37, #308, #227, .T. ) ;
#201 =( NAMED_UNIT ( * ) PLANE_ANGLE_UNIT ( ) SI_UNIT ( $, .RADIAN. ) );
#202 = UNCERTAINTY_MEASURE_WITH_UNIT (LENGTH_MEASURE( 1.000000000000000082E-05 ), #121, 'distance_accuracy_value', 'NONE');
#203 =( NAMED_UNIT ( * ) SI_UNIT ( $, .STERADIAN. ) SOLID_ANGLE_UNIT ( ) );
#204 = SURFACE_SIDE_STYLE ('',( #243 ) ) ;
#205 = AXIS2_PLACEMENT_3D ( 'NONE', #40, #132, #36 ) ;
#206 = DIRECTION ( 'NONE',  ( -1.000000000000000000, 1.224646799147352961E-16, 0.000000000000000000 ) ) ;
#207 =( LENGTH_UNIT ( ) NAMED_UNIT ( * ) SI_UNIT ( $, .METRE. ) );
#208 = PLANE ( 'NONE',  #167 ) ;
#209 = PRODUCT_DEFINITION_FORMATION_WITH_SPECIFIED_SOURCE ( 'ANY', '', #45, .NOT_KNOWN. ) ;
#210 =( LENGTH_UNIT ( ) NAMED_UNIT ( * ) SI_UNIT ( $, .METRE. ) );
#211 = ORIENTED_EDGE ( 'NONE', *, *, #69, .T. ) ;
#212 =( NAMED_UNIT ( * ) SI_UNIT ( $, .STERADIAN. ) SOLID_ANGLE_UNIT ( ) );
#213 = VERTEX_POINT ( 'NONE', #284 ) ;
#214 = AXIS2_PLACEMENT_3D ( 'NONE', #10, #105, #196 ) ;
#215 = DIRECTION ( 'NONE',  ( 1.224646799147352961E-16, 1.000000000000000000, -0.000000000000000000 ) ) ;
#216 = SURFACE_SIDE_STYLE ('',( #149 ) ) ;
#217 = LENGTH_MEASURE_WITH_UNIT ( LENGTH_MEASURE( 0.02539999999999999897 ), #151 );
#218 = SHAPE_DEFINITION_REPRESENTATION ( #191, #64 ) ;
#219 = PRESENTATION_LAYER_ASSIGNMENT (  '', '', ( #135 ) ) ;
#220 = DIMENSIONAL_EXPONENTS ( 1.000000000000000000, 0.000000000000000000, 0.000000000000000000, 0.000000000000000000, 0.000000000000000000, 0.000000000000000000, 0.000000000000000000 ) ;
#221 = DIRECTION ( 'NONE',  ( 0.000000000000000000, 0.000000000000000000, -1.000000000000000000 ) ) ;
#222 = SURFACE_STYLE_FILL_AREA ( #246 ) ;
#223 =( CONVERSION_BASED_UNIT ( 'INCH', #152 ) LENGTH_UNIT ( ) NAMED_UNIT ( #262 ) );
#224 = DIRECTION ( 'NONE',  ( -0.000000000000000000, -1.000000000000000000, -0.000000000000000000 ) ) ;
#225 = MANIFOLD_SOLID_BREP ( 'Revolve - Tool Body (Straight Shanked)', #282 ) ;
#226 = CIRCLE ( 'NONE', #129, 0.1250000000000000278 ) ;
#227 = CIRCLE ( 'NONE', #28, 0.1250000000000000278 ) ;
#228 = CARTESIAN_POINT ( 'NONE',  ( 0.000000000000000000, 0.000000000000000000, 0.000000000000000000 ) ) ;
#229 = CARTESIAN_POINT ( 'NONE',  ( 1.530808498934191817E-17, 1.000000000000000000, 0.1250000000000000278 ) ) ;
#230 =( NAMED_UNIT ( * ) PLANE_ANGLE_UNIT ( ) SI_UNIT ( $, .RADIAN. ) );
#231 = ORIENTED_EDGE ( 'NONE', *, *, #185, .F. ) ;
#232 = DIRECTION ( 'NONE',  ( -0.000000000000000000, -1.000000000000000000, -0.000000000000000000 ) ) ;
#233 = FACE_OUTER_BOUND ( 'NONE', #242, .T. ) ;
#234 = FILL_AREA_STYLE_COLOUR ( '', #198 ) ;
#235 = AXIS2_PLACEMENT_3D ( 'NONE', #65, #197, #290 ) ;
#236 = MECHANICAL_DESIGN_GEOMETRIC_PRESENTATION_REPRESENTATION (  '', ( #266 ), #250 ) ;
#237 = EDGE_LOOP ( 'NONE', ( #116, #211 ) ) ;
#238 = ORIENTED_EDGE ( 'NONE', *, *, #157, .T. ) ;
#239 = DIRECTION ( 'NONE',  ( -0.000000000000000000, -1.000000000000000000, -0.000000000000000000 ) ) ;
#240 = EDGE_LOOP ( 'NONE', ( #21, #20, #169, #302 ) ) ;
#241 = ORIENTED_EDGE ( 'NONE', *, *, #141, .F. ) ;
#242 = EDGE_LOOP ( 'NONE', ( #24, #241 ) ) ;
#243 = SURFACE_STYLE_FILL_AREA ( #199 ) ;
#244 = CIRCLE ( 'NONE', #161, 0.1250000000000000278 ) ;
#245 = PRESENTATION_STYLE_ASSIGNMENT (( #269 ) ) ;
#246 = FILL_AREA_STYLE ('',( #128 ) ) ;
#247 = DIRECTION ( 'NONE',  ( 0.000000000000000000, 0.000000000000000000, -1.000000000000000000 ) ) ;
#248 = UNCERTAINTY_MEASURE_WITH_UNIT (LENGTH_MEASURE( 1.000000000000000082E-05 ), #150, 'distance_accuracy_value', 'NONE');
#249 = DIRECTION ( 'NONE',  ( -0.000000000000000000, -1.000000000000000000, -0.000000000000000000 ) ) ;
#250 =( GEOMETRIC_REPRESENTATION_CONTEXT ( 3 ) GLOBAL_UNCERTAINTY_ASSIGNED_CONTEXT ( ( #297 ) ) GLOBAL_UNIT_ASSIGNED_CONTEXT ( ( #275, #230, #12 ) ) REPRESENTATION_CONTEXT ( 'NONE', 'WORKASPACE' ) );
#251 = CARTESIAN_POINT ( 'NONE',  ( -3.032960542342103792E-32, 1.000000000000000000, 0.000000000000000000 ) ) ;
#252 =( GEOMETRIC_REPRESENTATION_CONTEXT ( 3 ) GLOBAL_UNCERTAINTY_ASSIGNED_CONTEXT ( ( #202 ) ) GLOBAL_UNIT_ASSIGNED_CONTEXT ( ( #121, #94, #212 ) ) REPRESENTATION_CONTEXT ( 'NONE', 'WORKASPACE' ) );
#253 = PLANE ( 'NONE',  #166 ) ;
#254 = DIRECTION ( 'NONE',  ( 1.224646799147352961E-16, 1.000000000000000000, -0.000000000000000000 ) ) ;
#255 = DIRECTION ( 'NONE',  ( -0.000000000000000000, -1.000000000000000000, -0.000000000000000000 ) ) ;
#256 = EDGE_LOOP ( 'NONE', ( #231, #60, #238, #146 ) ) ;
#257 = LENGTH_MEASURE_WITH_UNIT ( LENGTH_MEASURE( 0.02539999999999999897 ), #80 );
#258 = PRESENTATION_LAYER_ASSIGNMENT (  '', '', ( #13 ) ) ;
#259 =( GEOMETRIC_REPRESENTATION_CONTEXT ( 3 ) GLOBAL_UNCERTAINTY_ASSIGNED_CONTEXT ( ( #76 ) ) GLOBAL_UNIT_ASSIGNED_CONTEXT ( ( #188, #183, #63 ) ) REPRESENTATION_CONTEXT ( 'NONE', 'WORKASPACE' ) );
#260 = FACE_OUTER_BOUND ( 'NONE', #158, .T. ) ;
#261 = CARTESIAN_POINT ( 'NONE',  ( 0.000000000000000000, 0.000000000000000000, -0.1250000000000000278 ) ) ;
#262 = DIMENSIONAL_EXPONENTS ( 1.000000000000000000, 0.000000000000000000, 0.000000000000000000, 0.000000000000000000, 0.000000000000000000, 0.000000000000000000, 0.000000000000000000 ) ;
#263 = CYLINDRICAL_SURFACE ( 'NONE', #205, 0.1250000000000000278 ) ;
#264 = DIRECTION ( 'NONE',  ( -0.000000000000000000, -1.000000000000000000, -0.000000000000000000 ) ) ;
#265 = CIRCLE ( 'NONE', #159, 0.1250000000000000278 ) ;
#266 = STYLED_ITEM ( 'NONE', ( #89 ), #136 ) ;
#267 = DIMENSIONAL_EXPONENTS ( 1.000000000000000000, 0.000000000000000000, 0.000000000000000000, 0.000000000000000000, 0.000000000000000000, 0.000000000000000000, 0.000000000000000000 ) ;
#268 = DIRECTION ( 'NONE',  ( 0.000000000000000000, 1.000000000000000000, 0.000000000000000000 ) ) ;
#269 = SURFACE_STYLE_USAGE ( .BOTH. , #178 ) ;
#270 = PRODUCT_DEFINITION ( 'UNKNOWN', '', #209, #286 ) ;
#271 =( GEOMETRIC_REPRESENTATION_CONTEXT ( 3 ) GLOBAL_UNCERTAINTY_ASSIGNED_CONTEXT ( ( #83 ) ) GLOBAL_UNIT_ASSIGNED_CONTEXT ( ( #142, #112, #1 ) ) REPRESENTATION_CONTEXT ( 'NONE', 'WORKASPACE' ) );
#272 = ORIENTED_EDGE ( 'NONE', *, *, #91, .F. ) ;
#273 = CARTESIAN_POINT ( 'NONE',  ( 0.000000000000000000, 0.000000000000000000, 0.000000000000000000 ) ) ;
#274 = UNCERTAINTY_MEASURE_WITH_UNIT (LENGTH_MEASURE( 1.000000000000000082E-05 ), #223, 'distance_accuracy_value', 'NONE');
#275 =( CONVERSION_BASED_UNIT ( 'INCH', #87 ) LENGTH_UNIT ( ) NAMED_UNIT ( #292 ) );
#276 = PRESENTATION_LAYER_ASSIGNMENT (  '', '', ( #305 ) ) ;
#277 = STYLED_ITEM ( 'NONE', ( #95 ), #303 ) ;
#278 = FILL_AREA_STYLE ('',( #234 ) ) ;
#279 = DIRECTION ( 'NONE',  ( 0.000000000000000000, 0.000000000000000000, -1.000000000000000000 ) ) ;
#280 = SURFACE_STYLE_FILL_AREA ( #93 ) ;
#281 = EDGE_CURVE ( 'NONE', #184, #145, #244, .T. ) ;
#282 = CLOSED_SHELL ( 'NONE', ( #34, #172, #176, #26 ) ) ;
#283 = DIRECTION ( 'NONE',  ( 1.224646799147352961E-16, 1.000000000000000000, -0.000000000000000000 ) ) ;
#284 = CARTESIAN_POINT ( 'NONE',  ( 1.530808498934191817E-17, 0.000000000000000000, 0.1250000000000000278 ) ) ;
#285 = DIRECTION ( 'NONE',  ( -1.224646799147352961E-16, -1.000000000000000000, 0.000000000000000000 ) ) ;
#286 = PRODUCT_DEFINITION_CONTEXT ( 'detailed design', #88, 'design' ) ;
#287 = SURFACE_STYLE_FILL_AREA ( #70 ) ;
#288 = CYLINDRICAL_SURFACE ( 'NONE', #235, 0.1249999999999999167 ) ;
#289 = DIRECTION ( 'NONE',  ( 0.000000000000000000, 0.000000000000000000, -1.000000000000000000 ) ) ;
#290 = DIRECTION ( 'NONE',  ( -1.000000000000000000, 0.000000000000000000, 0.000000000000000000 ) ) ;
#291 = MECHANICAL_DESIGN_GEOMETRIC_PRESENTATION_REPRESENTATION (  '', ( #277 ), #182 ) ;
#292 = DIMENSIONAL_EXPONENTS ( 1.000000000000000000, 0.000000000000000000, 0.000000000000000000, 0.000000000000000000, 0.000000000000000000, 0.000000000000000000, 0.000000000000000000 ) ;
#293 = CARTESIAN_POINT ( 'NONE',  ( -0.1249999999999995559, 3.000000000000000444, 0.000000000000000000 ) ) ;
#294 = COLOUR_RGB ( '',0.7921568627450980005, 0.8196078431372548767, 0.9333333333333333481 ) ;
#295 = SURFACE_STYLE_USAGE ( .BOTH. , #160 ) ;
#296 = COLOUR_RGB ( '',0.7921568627450980005, 0.8196078431372548767, 0.9333333333333333481 ) ;
#297 = UNCERTAINTY_MEASURE_WITH_UNIT (LENGTH_MEASURE( 1.000000000000000082E-05 ), #275, 'distance_accuracy_value', 'NONE');
#298 = ORIENTED_EDGE ( 'NONE', *, *, #193, .F. ) ;
#299 = SURFACE_STYLE_FILL_AREA ( #278 ) ;
#300 = PRESENTATION_LAYER_ASSIGNMENT (  '', '', ( #3 ) ) ;
#301 = DIRECTION ( 'NONE',  ( 1.224646799147352961E-16, 1.000000000000000000, -0.000000000000000000 ) ) ;
#302 = ORIENTED_EDGE ( 'NONE', *, *, #157, .F. ) ;
#303 = ADVANCED_FACE ( 'NONE', ( #260 ), #23, .T. ) ;
#304 = FACE_OUTER_BOUND ( 'NONE', #240, .T. ) ;
#305 = STYLED_ITEM ( 'NONE', ( #122 ), #11 ) ;
#306 = CARTESIAN_POINT ( 'NONE',  ( 1.530808498934191817E-17, 0.000000000000000000, 0.1250000000000000278 ) ) ;
#307 = VECTOR ( 'NONE', #255, 39.37007874015748143 ) ;
#308 = VERTEX_POINT ( 'NONE', #9 ) ;
#309 = FILL_AREA_STYLE_COLOUR ( '', #296 ) ;
ENDSEC;
END-ISO-10303-21;
