ISO-10303-21;
HEADER;
FILE_DESCRIPTION (( 'STEP AP214' ),
    '1' );
FILE_NAME ('81675.STEP',
    '2023-06-30T22:30:30',
    ( '' ),
    ( '' ),
    'SwSTEP 2.0',
    'SolidWorks 2023',
    '' );
FILE_SCHEMA (( 'AUTOMOTIVE_DESIGN' ));
ENDSEC;

DATA;
#1 =( NAMED_UNIT ( * ) PLANE_ANGLE_UNIT ( ) SI_UNIT ( $, .RADIAN. ) );
#2 = VERTEX_POINT ( 'NONE', #300 ) ;
#3 = DIRECTION ( 'NONE',  ( 0.000000000000000000, 0.000000000000000000, -1.000000000000000000 ) ) ;
#4 = DIRECTION ( 'NONE',  ( 0.000000000000000000, 0.000000000000000000, -1.000000000000000000 ) ) ;
#5 =( LENGTH_UNIT ( ) NAMED_UNIT ( * ) SI_UNIT ( $, .METRE. ) );
#6 = DIRECTION ( 'NONE',  ( 0.000000000000000000, 0.000000000000000000, -1.000000000000000000 ) ) ;
#7 = EDGE_CURVE ( 'NONE', #81, #56, #279, .T. ) ;
#8 = PRESENTATION_STYLE_ASSIGNMENT (( #341 ) ) ;
#9 = PRODUCT ( '81675', '81675', '', ( #315 ) ) ;
#10 = DIRECTION ( 'NONE',  ( 1.224646799147353207E-16, -0.000000000000000000, 1.000000000000000000 ) ) ;
#11 = ORIENTED_EDGE ( 'NONE', *, *, #234, .F. ) ;
#12 = DIRECTION ( 'NONE',  ( -0.000000000000000000, -1.000000000000000000, -0.000000000000000000 ) ) ;
#13 = DIRECTION ( 'NONE',  ( 0.000000000000000000, 0.000000000000000000, -1.000000000000000000 ) ) ;
#14 = VECTOR ( 'NONE', #74, 39.37007874015748143 ) ;
#15 = ORIENTED_EDGE ( 'NONE', *, *, #234, .T. ) ;
#16 = EDGE_CURVE ( 'NONE', #48, #343, #111, .T. ) ;
#17 = PRODUCT_DEFINITION_CONTEXT ( 'detailed design', #245, 'design' ) ;
#18 = SURFACE_STYLE_USAGE ( .BOTH. , #136 ) ;
#19 = DIRECTION ( 'NONE',  ( -0.000000000000000000, -1.000000000000000000, -0.000000000000000000 ) ) ;
#20 = FILL_AREA_STYLE_COLOUR ( '', #272 ) ;
#21 = COLOUR_RGB ( '',0.7921568627450980005, 0.8196078431372548767, 0.9333333333333333481 ) ;
#22 = ADVANCED_FACE ( 'NONE', ( #298 ), #82, .F. ) ;
#23 = CIRCLE ( 'NONE', #231, 0.06249999999999992367 ) ;
#24 = CARTESIAN_POINT ( 'NONE',  ( -7.654042494670959086E-18, 0.06250000000000001388, 0.000000000000000000 ) ) ;
#25 = DIRECTION ( 'NONE',  ( 0.000000000000000000, 0.000000000000000000, 1.000000000000000000 ) ) ;
#26 = EDGE_CURVE ( 'NONE', #139, #97, #200, .T. ) ;
#27 =( NAMED_UNIT ( * ) PLANE_ANGLE_UNIT ( ) SI_UNIT ( $, .RADIAN. ) );
#28 = SURFACE_STYLE_FILL_AREA ( #168 ) ;
#29 = AXIS2_PLACEMENT_3D ( 'NONE', #301, #334, #130 ) ;
#30 = AXIS2_PLACEMENT_3D ( 'NONE', #95, #196, #232 ) ;
#31 = STYLED_ITEM ( 'NONE', ( #87 ), #371 ) ;
#32 = LENGTH_MEASURE_WITH_UNIT ( LENGTH_MEASURE( 0.02539999999999999897 ), #292 );
#33 =( NAMED_UNIT ( * ) SI_UNIT ( $, .STERADIAN. ) SOLID_ANGLE_UNIT ( ) );
#34 = ORIENTED_EDGE ( 'NONE', *, *, #339, .T. ) ;
#35 = LINE ( 'NONE', #169, #142 ) ;
#36 = MECHANICAL_DESIGN_GEOMETRIC_PRESENTATION_REPRESENTATION (  '', ( #291 ), #366 ) ;
#37 = SURFACE_STYLE_FILL_AREA ( #122 ) ;
#38 = ORIENTED_EDGE ( 'NONE', *, *, #317, .T. ) ;
#39 = CARTESIAN_POINT ( 'NONE',  ( 0.000000000000000000, 0.6250000000000000000, 0.000000000000000000 ) ) ;
#40 = ORIENTED_EDGE ( 'NONE', *, *, #91, .F. ) ;
#41 =( NAMED_UNIT ( * ) SI_UNIT ( $, .STERADIAN. ) SOLID_ANGLE_UNIT ( ) );
#42 = DIRECTION ( 'NONE',  ( -1.000000000000000000, 0.000000000000000000, 0.000000000000000000 ) ) ;
#43 = LENGTH_MEASURE_WITH_UNIT ( LENGTH_MEASURE( 0.02539999999999999897 ), #241 );
#44 = UNCERTAINTY_MEASURE_WITH_UNIT (LENGTH_MEASURE( 1.000000000000000082E-05 ), #337, 'distance_accuracy_value', 'NONE');
#45 = SURFACE_SIDE_STYLE ('',( #302 ) ) ;
#46 = ORIENTED_EDGE ( 'NONE', *, *, #16, .F. ) ;
#47 = CARTESIAN_POINT ( 'NONE',  ( 7.654042494670949841E-18, 0.6250000000000000000, 0.06249999999999992367 ) ) ;
#48 = VERTEX_POINT ( 'NONE', #330 ) ;
#49 = CARTESIAN_POINT ( 'NONE',  ( -7.654042494670959086E-18, 0.06250000000000001388, 0.000000000000000000 ) ) ;
#50 = VERTEX_POINT ( 'NONE', #128 ) ;
#51 = SURFACE_STYLE_USAGE ( .BOTH. , #309 ) ;
#52 = PRESENTATION_LAYER_ASSIGNMENT (  '', '', ( #31 ) ) ;
#53 = FILL_AREA_STYLE_COLOUR ( '', #328 ) ;
#54 = LENGTH_MEASURE_WITH_UNIT ( LENGTH_MEASURE( 0.02539999999999999897 ), #175 );
#55 = PRESENTATION_LAYER_ASSIGNMENT (  '', '', ( #221 ) ) ;
#56 = VERTEX_POINT ( 'NONE', #242 ) ;
#57 = DIRECTION ( 'NONE',  ( 0.000000000000000000, 0.000000000000000000, -1.000000000000000000 ) ) ;
#58 = ORIENTED_EDGE ( 'NONE', *, *, #26, .T. ) ;
#59 = VERTEX_POINT ( 'NONE', #47 ) ;
#60 = CARTESIAN_POINT ( 'NONE',  ( 1.683889348827610752E-16, 0.6250000000000000000, 0.000000000000000000 ) ) ;
#61 = CIRCLE ( 'NONE', #349, 0.06250000000000000000 ) ;
#62 = CIRCLE ( 'NONE', #68, 0.06249999999999997918 ) ;
#63 = ORIENTED_EDGE ( 'NONE', *, *, #207, .T. ) ;
#64 = EDGE_CURVE ( 'NONE', #48, #56, #61, .T. ) ;
#65 = ORIENTED_EDGE ( 'NONE', *, *, #91, .T. ) ;
#66 = CARTESIAN_POINT ( 'NONE',  ( 0.000000000000000000, 0.000000000000000000, 0.000000000000000000 ) ) ;
#67 = CYLINDRICAL_SURFACE ( 'NONE', #359, 0.06249999999999986122 ) ;
#68 = AXIS2_PLACEMENT_3D ( 'NONE', #80, #360, #217 ) ;
#69 = ORIENTED_EDGE ( 'NONE', *, *, #88, .F. ) ;
#70 = UNCERTAINTY_MEASURE_WITH_UNIT (LENGTH_MEASURE( 1.000000000000000082E-05 ), #348, 'distance_accuracy_value', 'NONE');
#71 = DIRECTION ( 'NONE',  ( 0.000000000000000000, 0.000000000000000000, -1.000000000000000000 ) ) ;
#72 = ORIENTED_EDGE ( 'NONE', *, *, #317, .F. ) ;
#73 = SURFACE_STYLE_USAGE ( .BOTH. , #148 ) ;
#74 = DIRECTION ( 'NONE',  ( -1.224646799147353207E-16, 1.000000000000000000, -0.000000000000000000 ) ) ;
#75 = DIRECTION ( 'NONE',  ( -1.000000000000000000, -1.224646799147353207E-16, 0.000000000000000000 ) ) ;
#76 =( GEOMETRIC_REPRESENTATION_CONTEXT ( 3 ) GLOBAL_UNCERTAINTY_ASSIGNED_CONTEXT ( ( #243 ) ) GLOBAL_UNIT_ASSIGNED_CONTEXT ( ( #314, #27, #254 ) ) REPRESENTATION_CONTEXT ( 'NONE', 'WORKASPACE' ) );
#77 =( CONVERSION_BASED_UNIT ( 'INCH', #54 ) LENGTH_UNIT ( ) NAMED_UNIT ( #364 ) );
#78 =( GEOMETRIC_REPRESENTATION_CONTEXT ( 3 ) GLOBAL_UNCERTAINTY_ASSIGNED_CONTEXT ( ( #70 ) ) GLOBAL_UNIT_ASSIGNED_CONTEXT ( ( #348, #141, #165 ) ) REPRESENTATION_CONTEXT ( 'NONE', 'WORKASPACE' ) );
#79 = EDGE_LOOP ( 'NONE', ( #235, #40 ) ) ;
#80 = CARTESIAN_POINT ( 'NONE',  ( -6.123233995736766036E-17, 2.500000000000000000, 0.000000000000000000 ) ) ;
#81 = VERTEX_POINT ( 'NONE', #184 ) ;
#82 = PLANE ( 'NONE',  #138 ) ;
#83 = DIRECTION ( 'NONE',  ( 1.224646799147353207E-16, -1.000000000000000000, 0.000000000000000000 ) ) ;
#84 = DIMENSIONAL_EXPONENTS ( 1.000000000000000000, 0.000000000000000000, 0.000000000000000000, 0.000000000000000000, 0.000000000000000000, 0.000000000000000000, 0.000000000000000000 ) ;
#85 = AXIS2_PLACEMENT_3D ( 'NONE', #39, #183, #4 ) ;
#86 = FILL_AREA_STYLE ('',( #226 ) ) ;
#87 = PRESENTATION_STYLE_ASSIGNMENT (( #313 ) ) ;
#88 = EDGE_CURVE ( 'NONE', #50, #210, #205, .T. ) ;
#89 = MECHANICAL_DESIGN_GEOMETRIC_PRESENTATION_REPRESENTATION (  '', ( #270 ), #296 ) ;
#90 = ORIENTED_EDGE ( 'NONE', *, *, #310, .F. ) ;
#91 = EDGE_CURVE ( 'NONE', #59, #2, #237, .T. ) ;
#92 = CLOSED_SHELL ( 'NONE', ( #96, #371, #133, #178, #157 ) ) ;
#93 = CIRCLE ( 'NONE', #189, 0.06249999999999997918 ) ;
#94 = DIRECTION ( 'NONE',  ( -0.000000000000000000, -1.000000000000000000, -0.000000000000000000 ) ) ;
#95 = CARTESIAN_POINT ( 'NONE',  ( -6.123233995736766036E-17, 2.500000000000000000, 0.000000000000000000 ) ) ;
#96 = ADVANCED_FACE ( 'NONE', ( #307 ), #336, .T. ) ;
#97 = VERTEX_POINT ( 'NONE', #271 ) ;
#98 = DIRECTION ( 'NONE',  ( 0.000000000000000000, 0.000000000000000000, -1.000000000000000000 ) ) ;
#99 = ORIENTED_EDGE ( 'NONE', *, *, #121, .F. ) ;
#100 = FILL_AREA_STYLE_COLOUR ( '', #319 ) ;
#101 = CARTESIAN_POINT ( 'NONE',  ( 1.683889348827610506E-16, 0.6250000000000000000, 0.000000000000000000 ) ) ;
#102 =( NAMED_UNIT ( * ) SI_UNIT ( $, .STERADIAN. ) SOLID_ANGLE_UNIT ( ) );
#103 = ORIENTED_EDGE ( 'NONE', *, *, #303, .T. ) ;
#104 = STYLED_ITEM ( 'NONE', ( #113 ), #133 ) ;
#105 = EDGE_CURVE ( 'NONE', #2, #59, #23, .T. ) ;
#106 = UNCERTAINTY_MEASURE_WITH_UNIT (LENGTH_MEASURE( 1.000000000000000082E-05 ), #233, 'distance_accuracy_value', 'NONE');
#107 = CARTESIAN_POINT ( 'NONE',  ( 0.000000000000000000, 0.06250000000000002776, 0.000000000000000000 ) ) ;
#108 = DIMENSIONAL_EXPONENTS ( 1.000000000000000000, 0.000000000000000000, 0.000000000000000000, 0.000000000000000000, 0.000000000000000000, 0.000000000000000000, 0.000000000000000000 ) ;
#109 = DIRECTION ( 'NONE',  ( 0.000000000000000000, 0.000000000000000000, 1.000000000000000000 ) ) ;
#110 = CYLINDRICAL_SURFACE ( 'NONE', #346, 0.06249999999999995143 ) ;
#111 = CIRCLE ( 'NONE', #116, 0.06249999999999997918 ) ;
#112 = LENGTH_MEASURE_WITH_UNIT ( LENGTH_MEASURE( 0.02539999999999999897 ), #365 );
#113 = PRESENTATION_STYLE_ASSIGNMENT (( #18 ) ) ;
#114 = APPLICATION_PROTOCOL_DEFINITION ( 'draft international standard', 'automotive_design', 1998, #245 ) ;
#115 = DIRECTION ( 'NONE',  ( 1.000000000000000000, 0.000000000000000000, 0.000000000000000000 ) ) ;
#116 = AXIS2_PLACEMENT_3D ( 'NONE', #107, #179, #98 ) ;
#117 = AXIS2_PLACEMENT_3D ( 'NONE', #230, #223, #218 ) ;
#118 = SHAPE_DEFINITION_REPRESENTATION ( #225, #267 ) ;
#119 = SURFACE_SIDE_STYLE ('',( #37 ) ) ;
#120 = CARTESIAN_POINT ( 'NONE',  ( 0.000000000000000000, 0.000000000000000000, -0.06249999999999995143 ) ) ;
#121 = EDGE_CURVE ( 'NONE', #210, #50, #62, .T. ) ;
#122 = FILL_AREA_STYLE ('',( #20 ) ) ;
#123 = CARTESIAN_POINT ( 'NONE',  ( 7.654042494670954463E-18, 0.06250000000000002776, 0.06249999999999997224 ) ) ;
#124 = CYLINDRICAL_SURFACE ( 'NONE', #30, 0.06249999999999986122 ) ;
#125 = CARTESIAN_POINT ( 'NONE',  ( 7.654042494670951382E-18, 0.000000000000000000, 0.06249999999999995143 ) ) ;
#126 = ORIENTED_EDGE ( 'NONE', *, *, #303, .F. ) ;
#127 =( CONVERSION_BASED_UNIT ( 'INCH', #204 ) LENGTH_UNIT ( ) NAMED_UNIT ( #340 ) );
#128 = CARTESIAN_POINT ( 'NONE',  ( -0.06250000000000004163, 2.500000000000000000, 0.000000000000000000 ) ) ;
#129 = DIRECTION ( 'NONE',  ( -1.224646799147353207E-16, 1.000000000000000000, -0.000000000000000000 ) ) ;
#130 = DIRECTION ( 'NONE',  ( -1.000000000000000000, 0.000000000000000000, 0.000000000000000000 ) ) ;
#131 = AXIS2_PLACEMENT_3D ( 'NONE', #308, #83, #320 ) ;
#132 = ADVANCED_FACE ( 'NONE', ( #338 ), #215, .F. ) ;
#133 = ADVANCED_FACE ( 'NONE', ( #253 ), #166, .T. ) ;
#134 = DIMENSIONAL_EXPONENTS ( 1.000000000000000000, 0.000000000000000000, 0.000000000000000000, 0.000000000000000000, 0.000000000000000000, 0.000000000000000000, 0.000000000000000000 ) ;
#135 = FILL_AREA_STYLE ('',( #100 ) ) ;
#136 = SURFACE_SIDE_STYLE ('',( #345 ) ) ;
#137 = DIRECTION ( 'NONE',  ( 0.000000000000000000, 0.000000000000000000, -1.000000000000000000 ) ) ;
#138 = AXIS2_PLACEMENT_3D ( 'NONE', #101, #305, #75 ) ;
#139 = VERTEX_POINT ( 'NONE', #161 ) ;
#140 =( LENGTH_UNIT ( ) NAMED_UNIT ( * ) SI_UNIT ( $, .METRE. ) );
#141 =( NAMED_UNIT ( * ) PLANE_ANGLE_UNIT ( ) SI_UNIT ( $, .RADIAN. ) );
#142 = VECTOR ( 'NONE', #144, 39.37007874015748143 ) ;
#143 =( NAMED_UNIT ( * ) SI_UNIT ( $, .STERADIAN. ) SOLID_ANGLE_UNIT ( ) );
#144 = DIRECTION ( 'NONE',  ( -1.224646799147353207E-16, 1.000000000000000000, -0.000000000000000000 ) ) ;
#145 = AXIS2_PLACEMENT_3D ( 'NONE', #149, #236, #71 ) ;
#146 = DIRECTION ( 'NONE',  ( -1.224646799147353207E-16, 1.000000000000000000, -0.000000000000000000 ) ) ;
#147 = CARTESIAN_POINT ( 'NONE',  ( 0.000000000000000000, 0.06250000000000002776, 0.000000000000000000 ) ) ;
#148 = SURFACE_SIDE_STYLE ('',( #240 ) ) ;
#149 = CARTESIAN_POINT ( 'NONE',  ( 0.000000000000000000, 0.06250000000000002776, 0.000000000000000000 ) ) ;
#150 =( NAMED_UNIT ( * ) SI_UNIT ( $, .STERADIAN. ) SOLID_ANGLE_UNIT ( ) );
#151 = ORIENTED_EDGE ( 'NONE', *, *, #26, .F. ) ;
#152 = MECHANICAL_DESIGN_GEOMETRIC_PRESENTATION_REPRESENTATION (  '', ( #221 ), #264 ) ;
#153 =( GEOMETRIC_REPRESENTATION_CONTEXT ( 3 ) GLOBAL_UNCERTAINTY_ASSIGNED_CONTEXT ( ( #352 ) ) GLOBAL_UNIT_ASSIGNED_CONTEXT ( ( #77, #154, #41 ) ) REPRESENTATION_CONTEXT ( 'NONE', 'WORKASPACE' ) );
#154 =( NAMED_UNIT ( * ) PLANE_ANGLE_UNIT ( ) SI_UNIT ( $, .RADIAN. ) );
#155 = FILL_AREA_STYLE_COLOUR ( '', #180 ) ;
#156 = DIRECTION ( 'NONE',  ( 1.000000000000000000, 0.000000000000000000, -1.224646799147353207E-16 ) ) ;
#157 = ADVANCED_FACE ( 'NONE', ( #222 ), #164, .T. ) ;
#158 = COLOUR_RGB ( '',0.7921568627450980005, 0.8196078431372548767, 0.9333333333333333481 ) ;
#159 = EDGE_LOOP ( 'NONE', ( #265, #58, #63, #99 ) ) ;
#160 = PRESENTATION_STYLE_ASSIGNMENT (( #51 ) ) ;
#161 = CARTESIAN_POINT ( 'NONE',  ( 0.06249999999999992367, 0.6250000000000000000, 7.654042494670946760E-18 ) ) ;
#162 = DIRECTION ( 'NONE',  ( 1.000000000000000000, 0.000000000000000000, 0.000000000000000000 ) ) ;
#163 = PRESENTATION_LAYER_ASSIGNMENT (  '', '', ( #206 ) ) ;
#164 = SPHERICAL_SURFACE ( 'NONE', #306, 0.06250000000000000000 ) ;
#165 =( NAMED_UNIT ( * ) SI_UNIT ( $, .STERADIAN. ) SOLID_ANGLE_UNIT ( ) );
#166 = PLANE ( 'NONE',  #117 ) ;
#167 = MANIFOLD_SOLID_BREP ( 'Revolve - Cutting Edge', #92 ) ;
#168 = FILL_AREA_STYLE ('',( #321 ) ) ;
#169 = CARTESIAN_POINT ( 'NONE',  ( -0.06249999999999992367, 2.500000000000000000, 0.000000000000000000 ) ) ;
#170 = SURFACE_STYLE_USAGE ( .BOTH. , #119 ) ;
#171 = UNCERTAINTY_MEASURE_WITH_UNIT (LENGTH_MEASURE( 1.000000000000000082E-05 ), #127, 'distance_accuracy_value', 'NONE');
#172 = CARTESIAN_POINT ( 'NONE',  ( -6.123233995736766036E-17, 2.500000000000000000, 0.000000000000000000 ) ) ;
#173 = MECHANICAL_DESIGN_GEOMETRIC_PRESENTATION_REPRESENTATION (  '', ( #104 ), #214 ) ;
#174 = PRODUCT_RELATED_PRODUCT_CATEGORY ( 'part', '', ( #9 ) ) ;
#175 =( LENGTH_UNIT ( ) NAMED_UNIT ( * ) SI_UNIT ( $, .METRE. ) );
#176 = EDGE_LOOP ( 'NONE', ( #331, #34, #72, #289, #11 ) ) ;
#177 = DIRECTION ( 'NONE',  ( 1.000000000000000000, 0.000000000000000000, 0.000000000000000000 ) ) ;
#178 = ADVANCED_FACE ( 'NONE', ( #295 ), #258, .T. ) ;
#179 = DIRECTION ( 'NONE',  ( -0.000000000000000000, -1.000000000000000000, -0.000000000000000000 ) ) ;
#180 = COLOUR_RGB ( '',1.000000000000000000, 0.000000000000000000, 0.000000000000000000 ) ;
#181 =( GEOMETRIC_REPRESENTATION_CONTEXT ( 3 ) GLOBAL_UNCERTAINTY_ASSIGNED_CONTEXT ( ( #106 ) ) GLOBAL_UNIT_ASSIGNED_CONTEXT ( ( #233, #1, #143 ) ) REPRESENTATION_CONTEXT ( 'NONE', 'WORKASPACE' ) );
#182 = DIRECTION ( 'NONE',  ( -0.000000000000000000, -1.000000000000000000, -0.000000000000000000 ) ) ;
#183 = DIRECTION ( 'NONE',  ( -0.000000000000000000, -1.000000000000000000, -0.000000000000000000 ) ) ;
#184 = CARTESIAN_POINT ( 'NONE',  ( 0.06249999999999997918, 0.06250000000000002776, 0.000000000000000000 ) ) ;
#185 = UNCERTAINTY_MEASURE_WITH_UNIT (LENGTH_MEASURE( 1.000000000000000082E-05 ), #193, 'distance_accuracy_value', 'NONE');
#186 = ORIENTED_EDGE ( 'NONE', *, *, #7, .T. ) ;
#187 = SURFACE_STYLE_FILL_AREA ( #347 ) ;
#188 = ORIENTED_EDGE ( 'NONE', *, *, #339, .F. ) ;
#189 = AXIS2_PLACEMENT_3D ( 'NONE', #147, #182, #327 ) ;
#190 = SURFACE_SIDE_STYLE ('',( #28 ) ) ;
#191 = LENGTH_MEASURE_WITH_UNIT ( LENGTH_MEASURE( 0.02539999999999999897 ), #198 );
#192 = PRODUCT_DEFINITION ( 'UNKNOWN', '', #246, #17 ) ;
#193 =( CONVERSION_BASED_UNIT ( 'INCH', #112 ) LENGTH_UNIT ( ) NAMED_UNIT ( #312 ) );
#194 = ORIENTED_EDGE ( 'NONE', *, *, #207, .F. ) ;
#195 = PRESENTATION_LAYER_ASSIGNMENT (  '', '', ( #291 ) ) ;
#196 = DIRECTION ( 'NONE',  ( -1.224646799147353207E-16, 1.000000000000000000, -0.000000000000000000 ) ) ;
#197 = EDGE_LOOP ( 'NONE', ( #126, #151 ) ) ;
#198 =( LENGTH_UNIT ( ) NAMED_UNIT ( * ) SI_UNIT ( $, .METRE. ) );
#199 = EDGE_LOOP ( 'NONE', ( #299, #282, #202, #186 ) ) ;
#200 = CIRCLE ( 'NONE', #29, 0.06249999999999975020 ) ;
#201 = CIRCLE ( 'NONE', #251, 0.06249999999999975020 ) ;
#202 = ORIENTED_EDGE ( 'NONE', *, *, #369, .T. ) ;
#203 = FACE_OUTER_BOUND ( 'NONE', #269, .T. ) ;
#204 = LENGTH_MEASURE_WITH_UNIT ( LENGTH_MEASURE( 0.02539999999999999897 ), #5 );
#205 = CIRCLE ( 'NONE', #256, 0.06249999999999997918 ) ;
#206 = STYLED_ITEM ( 'NONE', ( #370 ), #178 ) ;
#207 = EDGE_CURVE ( 'NONE', #97, #50, #35, .T. ) ;
#208 = ORIENTED_EDGE ( 'NONE', *, *, #7, .F. ) ;
#209 =( NAMED_UNIT ( * ) PLANE_ANGLE_UNIT ( ) SI_UNIT ( $, .RADIAN. ) );
#210 = VERTEX_POINT ( 'NONE', #261 ) ;
#211 = UNCERTAINTY_MEASURE_WITH_UNIT (LENGTH_MEASURE( 1.000000000000000082E-05 ), #293, 'distance_accuracy_value', 'NONE');
#212 = CARTESIAN_POINT ( 'NONE',  ( 0.06249999999999980571, 2.500000000000000000, 7.654042494670940597E-18 ) ) ;
#213 = CARTESIAN_POINT ( 'NONE',  ( -6.123233995736766036E-17, 2.500000000000000000, 0.000000000000000000 ) ) ;
#214 =( GEOMETRIC_REPRESENTATION_CONTEXT ( 3 ) GLOBAL_UNCERTAINTY_ASSIGNED_CONTEXT ( ( #185 ) ) GLOBAL_UNIT_ASSIGNED_CONTEXT ( ( #193, #249, #283 ) ) REPRESENTATION_CONTEXT ( 'NONE', 'WORKASPACE' ) );
#215 = PLANE ( 'NONE',  #131 ) ;
#216 = ORIENTED_EDGE ( 'NONE', *, *, #310, .T. ) ;
#217 = DIRECTION ( 'NONE',  ( -1.000000000000000000, 0.000000000000000000, 0.000000000000000000 ) ) ;
#218 = DIRECTION ( 'NONE',  ( 0.000000000000000000, -0.000000000000000000, 1.000000000000000000 ) ) ;
#219 = DIMENSIONAL_EXPONENTS ( 1.000000000000000000, 0.000000000000000000, 0.000000000000000000, 0.000000000000000000, 0.000000000000000000, 0.000000000000000000, 0.000000000000000000 ) ;
#220 = LINE ( 'NONE', #125, #361 ) ;
#221 = STYLED_ITEM ( 'NONE', ( #160 ), #167 ) ;
#222 = FACE_OUTER_BOUND ( 'NONE', #199, .T. ) ;
#223 = DIRECTION ( 'NONE',  ( 0.000000000000000000, 1.000000000000000000, 0.000000000000000000 ) ) ;
#224 = CARTESIAN_POINT ( 'NONE',  ( 0.000000000000000000, 0.000000000000000000, 0.000000000000000000 ) ) ;
#225 = PRODUCT_DEFINITION_SHAPE ( 'NONE', 'NONE',  #192 ) ;
#226 = FILL_AREA_STYLE_COLOUR ( '', #280 ) ;
#227 = APPLICATION_CONTEXT ( 'automotive_design' ) ;
#228 = AXIS2_PLACEMENT_3D ( 'NONE', #49, #362, #177 ) ;
#229 = AXIS2_PLACEMENT_3D ( 'NONE', #329, #357, #3 ) ;
#230 = CARTESIAN_POINT ( 'NONE',  ( 0.000000000000000000, 0.6250000000000000000, 0.000000000000000000 ) ) ;
#231 = AXIS2_PLACEMENT_3D ( 'NONE', #276, #12, #6 ) ;
#232 = DIRECTION ( 'NONE',  ( -1.000000000000000000, 0.000000000000000000, 0.000000000000000000 ) ) ;
#233 =( CONVERSION_BASED_UNIT ( 'INCH', #325 ) LENGTH_UNIT ( ) NAMED_UNIT ( #219 ) );
#234 = EDGE_CURVE ( 'NONE', #2, #343, #373, .T. ) ;
#235 = ORIENTED_EDGE ( 'NONE', *, *, #105, .F. ) ;
#236 = DIRECTION ( 'NONE',  ( -0.000000000000000000, -1.000000000000000000, -0.000000000000000000 ) ) ;
#237 = CIRCLE ( 'NONE', #85, 0.06249999999999992367 ) ;
#238 = PRESENTATION_LAYER_ASSIGNMENT (  '', '', ( #244 ) ) ;
#239 = EDGE_LOOP ( 'NONE', ( #188, #65, #15, #46, #90 ) ) ;
#240 = SURFACE_STYLE_FILL_AREA ( #356 ) ;
#241 =( LENGTH_UNIT ( ) NAMED_UNIT ( * ) SI_UNIT ( $, .METRE. ) );
#242 = CARTESIAN_POINT ( 'NONE',  ( -3.827021247335480313E-18, 1.707404996040164512E-17, 0.000000000000000000 ) ) ;
#243 = UNCERTAINTY_MEASURE_WITH_UNIT (LENGTH_MEASURE( 1.000000000000000082E-05 ), #314, 'distance_accuracy_value', 'NONE');
#244 = STYLED_ITEM ( 'NONE', ( #247 ), #157 ) ;
#245 = APPLICATION_CONTEXT ( 'automotive_design' ) ;
#246 = PRODUCT_DEFINITION_FORMATION_WITH_SPECIFIED_SOURCE ( 'ANY', '', #9, .NOT_KNOWN. ) ;
#247 = PRESENTATION_STYLE_ASSIGNMENT (( #344 ) ) ;
#248 = DIRECTION ( 'NONE',  ( -1.224646799147353207E-16, 1.000000000000000000, -0.000000000000000000 ) ) ;
#249 =( NAMED_UNIT ( * ) PLANE_ANGLE_UNIT ( ) SI_UNIT ( $, .RADIAN. ) );
#250 = CLOSED_SHELL ( 'NONE', ( #262, #22, #275, #132 ) ) ;
#251 = AXIS2_PLACEMENT_3D ( 'NONE', #60, #248, #363 ) ;
#252 = ORIENTED_EDGE ( 'NONE', *, *, #64, .T. ) ;
#253 = FACE_OUTER_BOUND ( 'NONE', #79, .T. ) ;
#254 =( NAMED_UNIT ( * ) SI_UNIT ( $, .STERADIAN. ) SOLID_ANGLE_UNIT ( ) );
#255 = EDGE_LOOP ( 'NONE', ( #216, #252, #208, #38 ) ) ;
#256 = AXIS2_PLACEMENT_3D ( 'NONE', #213, #129, #42 ) ;
#257 = AXIS2_PLACEMENT_3D ( 'NONE', #66, #94, #57 ) ;
#258 = CYLINDRICAL_SURFACE ( 'NONE', #257, 0.06249999999999995143 ) ;
#259 = ORIENTED_EDGE ( 'NONE', *, *, #121, .T. ) ;
#260 = VERTEX_POINT ( 'NONE', #123 ) ;
#261 = CARTESIAN_POINT ( 'NONE',  ( 0.06249999999999992367, 2.500000000000000000, 7.654042494670946760E-18 ) ) ;
#262 = ADVANCED_FACE ( 'NONE', ( #203 ), #124, .T. ) ;
#263 = DIRECTION ( 'NONE',  ( -0.000000000000000000, -1.000000000000000000, -0.000000000000000000 ) ) ;
#264 =( GEOMETRIC_REPRESENTATION_CONTEXT ( 3 ) GLOBAL_UNCERTAINTY_ASSIGNED_CONTEXT ( ( #211 ) ) GLOBAL_UNIT_ASSIGNED_CONTEXT ( ( #293, #266, #33 ) ) REPRESENTATION_CONTEXT ( 'NONE', 'WORKASPACE' ) );
#265 = ORIENTED_EDGE ( 'NONE', *, *, #332, .F. ) ;
#266 =( NAMED_UNIT ( * ) PLANE_ANGLE_UNIT ( ) SI_UNIT ( $, .RADIAN. ) );
#267 = ADVANCED_BREP_SHAPE_REPRESENTATION ( '81675', ( #167, #294, #281 ), #78 ) ;
#268 = PRESENTATION_STYLE_ASSIGNMENT (( #73 ) ) ;
#269 = EDGE_LOOP ( 'NONE', ( #103, #353, #69, #194 ) ) ;
#270 = STYLED_ITEM ( 'NONE', ( #268 ), #96 ) ;
#271 = CARTESIAN_POINT ( 'NONE',  ( -0.06249999999999958367, 0.6250000000000000000, 0.000000000000000000 ) ) ;
#272 = COLOUR_RGB ( '',1.000000000000000000, 0.000000000000000000, 0.000000000000000000 ) ;
#273 = DIRECTION ( 'NONE',  ( -0.000000000000000000, -1.000000000000000000, -0.000000000000000000 ) ) ;
#274 =( NAMED_UNIT ( * ) PLANE_ANGLE_UNIT ( ) SI_UNIT ( $, .RADIAN. ) );
#275 = ADVANCED_FACE ( 'NONE', ( #326 ), #67, .T. ) ;
#276 = CARTESIAN_POINT ( 'NONE',  ( 0.000000000000000000, 0.6250000000000000000, 0.000000000000000000 ) ) ;
#277 = CARTESIAN_POINT ( 'NONE',  ( -7.654042494670959086E-18, 0.06250000000000001388, 0.000000000000000000 ) ) ;
#278 = CARTESIAN_POINT ( 'NONE',  ( -7.654042494670959086E-18, 0.06250000000000001388, 0.000000000000000000 ) ) ;
#279 = CIRCLE ( 'NONE', #304, 0.06250000000000000000 ) ;
#280 = COLOUR_RGB ( '',1.000000000000000000, 0.000000000000000000, 0.000000000000000000 ) ;
#281 = AXIS2_PLACEMENT_3D ( 'NONE', #224, #25, #162 ) ;
#282 = ORIENTED_EDGE ( 'NONE', *, *, #16, .T. ) ;
#283 =( NAMED_UNIT ( * ) SI_UNIT ( $, .STERADIAN. ) SOLID_ANGLE_UNIT ( ) );
#284 = CARTESIAN_POINT ( 'NONE',  ( 0.000000000000000000, 0.000000000000000000, 0.000000000000000000 ) ) ;
#285 = DIMENSIONAL_EXPONENTS ( 1.000000000000000000, 0.000000000000000000, 0.000000000000000000, 0.000000000000000000, 0.000000000000000000, 0.000000000000000000, 0.000000000000000000 ) ;
#286 = MECHANICAL_DESIGN_GEOMETRIC_PRESENTATION_REPRESENTATION (  '', ( #244 ), #76 ) ;
#287 = LENGTH_MEASURE_WITH_UNIT ( LENGTH_MEASURE( 0.02539999999999999897 ), #140 );
#288 = SURFACE_SIDE_STYLE ('',( #342 ) ) ;
#289 = ORIENTED_EDGE ( 'NONE', *, *, #369, .F. ) ;
#290 = DIRECTION ( 'NONE',  ( -1.000000000000000000, 0.000000000000000000, 0.000000000000000000 ) ) ;
#291 = STYLED_ITEM ( 'NONE', ( #8 ), #294 ) ;
#292 =( LENGTH_UNIT ( ) NAMED_UNIT ( * ) SI_UNIT ( $, .METRE. ) );
#293 =( CONVERSION_BASED_UNIT ( 'INCH', #32 ) LENGTH_UNIT ( ) NAMED_UNIT ( #134 ) );
#294 = MANIFOLD_SOLID_BREP ( 'Revolve - Tool Body (Straight Shanked)', #250 ) ;
#295 = FACE_OUTER_BOUND ( 'NONE', #239, .T. ) ;
#296 =( GEOMETRIC_REPRESENTATION_CONTEXT ( 3 ) GLOBAL_UNCERTAINTY_ASSIGNED_CONTEXT ( ( #44 ) ) GLOBAL_UNIT_ASSIGNED_CONTEXT ( ( #337, #274, #150 ) ) REPRESENTATION_CONTEXT ( 'NONE', 'WORKASPACE' ) );
#297 = MECHANICAL_DESIGN_GEOMETRIC_PRESENTATION_REPRESENTATION (  '', ( #31 ), #153 ) ;
#298 = FACE_OUTER_BOUND ( 'NONE', #197, .T. ) ;
#299 = ORIENTED_EDGE ( 'NONE', *, *, #64, .F. ) ;
#300 = CARTESIAN_POINT ( 'NONE',  ( 0.000000000000000000, 0.6250000000000000000, -0.06249999999999992367 ) ) ;
#301 = CARTESIAN_POINT ( 'NONE',  ( 1.683889348827610752E-16, 0.6250000000000000000, 0.000000000000000000 ) ) ;
#302 = SURFACE_STYLE_FILL_AREA ( #135 ) ;
#303 = EDGE_CURVE ( 'NONE', #97, #139, #201, .T. ) ;
#304 = AXIS2_PLACEMENT_3D ( 'NONE', #277, #13, #367 ) ;
#305 = DIRECTION ( 'NONE',  ( -1.224646799147353207E-16, 1.000000000000000000, 0.000000000000000000 ) ) ;
#306 = AXIS2_PLACEMENT_3D ( 'NONE', #24, #109, #115 ) ;
#307 = FACE_OUTER_BOUND ( 'NONE', #255, .T. ) ;
#308 = CARTESIAN_POINT ( 'NONE',  ( 0.06249999999999992367, 2.500000000000000000, 0.000000000000000000 ) ) ;
#309 = SURFACE_SIDE_STYLE ('',( #187 ) ) ;
#310 = EDGE_CURVE ( 'NONE', #260, #48, #93, .T. ) ;
#311 = FILL_AREA_STYLE ('',( #53 ) ) ;
#312 = DIMENSIONAL_EXPONENTS ( 1.000000000000000000, 0.000000000000000000, 0.000000000000000000, 0.000000000000000000, 0.000000000000000000, 0.000000000000000000, 0.000000000000000000 ) ;
#313 = SURFACE_STYLE_USAGE ( .BOTH. , #45 ) ;
#314 =( CONVERSION_BASED_UNIT ( 'INCH', #287 ) LENGTH_UNIT ( ) NAMED_UNIT ( #108 ) );
#315 = PRODUCT_CONTEXT ( 'NONE', #227, 'mechanical' ) ;
#316 = EDGE_LOOP ( 'NONE', ( #358, #259 ) ) ;
#317 = EDGE_CURVE ( 'NONE', #81, #260, #350, .T. ) ;
#318 = MECHANICAL_DESIGN_GEOMETRIC_PRESENTATION_REPRESENTATION (  '', ( #206 ), #181 ) ;
#319 = COLOUR_RGB ( '',1.000000000000000000, 0.000000000000000000, 0.000000000000000000 ) ;
#320 = DIRECTION ( 'NONE',  ( 1.000000000000000000, 1.224646799147353207E-16, 0.000000000000000000 ) ) ;
#321 = FILL_AREA_STYLE_COLOUR ( '', #21 ) ;
#322 = PRESENTATION_LAYER_ASSIGNMENT (  '', '', ( #270 ) ) ;
#323 = PRESENTATION_LAYER_ASSIGNMENT (  '', '', ( #104 ) ) ;
#324 = CIRCLE ( 'NONE', #145, 0.06249999999999997918 ) ;
#325 = LENGTH_MEASURE_WITH_UNIT ( LENGTH_MEASURE( 0.02539999999999999897 ), #351 );
#326 = FACE_OUTER_BOUND ( 'NONE', #159, .T. ) ;
#327 = DIRECTION ( 'NONE',  ( 0.000000000000000000, 0.000000000000000000, -1.000000000000000000 ) ) ;
#328 = COLOUR_RGB ( '',1.000000000000000000, 0.000000000000000000, 0.000000000000000000 ) ;
#329 = CARTESIAN_POINT ( 'NONE',  ( 0.000000000000000000, 0.06250000000000002776, 0.000000000000000000 ) ) ;
#330 = CARTESIAN_POINT ( 'NONE',  ( -0.06250000000000000000, 0.06250000000000002776, 7.654042494670956004E-18 ) ) ;
#331 = ORIENTED_EDGE ( 'NONE', *, *, #105, .T. ) ;
#332 = EDGE_CURVE ( 'NONE', #139, #210, #333, .T. ) ;
#333 = LINE ( 'NONE', #212, #14 ) ;
#334 = DIRECTION ( 'NONE',  ( -1.224646799147353207E-16, 1.000000000000000000, -0.000000000000000000 ) ) ;
#335 = CARTESIAN_POINT ( 'NONE',  ( 0.000000000000000000, 0.06250000000000002776, -0.06249999999999997918 ) ) ;
#336 = SPHERICAL_SURFACE ( 'NONE', #228, 0.06250000000000000000 ) ;
#337 =( CONVERSION_BASED_UNIT ( 'INCH', #43 ) LENGTH_UNIT ( ) NAMED_UNIT ( #84 ) );
#338 = FACE_OUTER_BOUND ( 'NONE', #316, .T. ) ;
#339 = EDGE_CURVE ( 'NONE', #59, #260, #220, .T. ) ;
#340 = DIMENSIONAL_EXPONENTS ( 1.000000000000000000, 0.000000000000000000, 0.000000000000000000, 0.000000000000000000, 0.000000000000000000, 0.000000000000000000, 0.000000000000000000 ) ;
#341 = SURFACE_STYLE_USAGE ( .BOTH. , #190 ) ;
#342 = SURFACE_STYLE_FILL_AREA ( #311 ) ;
#343 = VERTEX_POINT ( 'NONE', #335 ) ;
#344 = SURFACE_STYLE_USAGE ( .BOTH. , #288 ) ;
#345 = SURFACE_STYLE_FILL_AREA ( #86 ) ;
#346 = AXIS2_PLACEMENT_3D ( 'NONE', #284, #19, #137 ) ;
#347 = FILL_AREA_STYLE ('',( #368 ) ) ;
#348 =( CONVERSION_BASED_UNIT ( 'INCH', #191 ) LENGTH_UNIT ( ) NAMED_UNIT ( #285 ) );
#349 = AXIS2_PLACEMENT_3D ( 'NONE', #278, #10, #156 ) ;
#350 = CIRCLE ( 'NONE', #229, 0.06249999999999997918 ) ;
#351 =( LENGTH_UNIT ( ) NAMED_UNIT ( * ) SI_UNIT ( $, .METRE. ) );
#352 = UNCERTAINTY_MEASURE_WITH_UNIT (LENGTH_MEASURE( 1.000000000000000082E-05 ), #77, 'distance_accuracy_value', 'NONE');
#353 = ORIENTED_EDGE ( 'NONE', *, *, #332, .T. ) ;
#354 = FACE_OUTER_BOUND ( 'NONE', #176, .T. ) ;
#355 = VECTOR ( 'NONE', #263, 39.37007874015748143 ) ;
#356 = FILL_AREA_STYLE ('',( #155 ) ) ;
#357 = DIRECTION ( 'NONE',  ( -0.000000000000000000, -1.000000000000000000, -0.000000000000000000 ) ) ;
#358 = ORIENTED_EDGE ( 'NONE', *, *, #88, .T. ) ;
#359 = AXIS2_PLACEMENT_3D ( 'NONE', #172, #146, #290 ) ;
#360 = DIRECTION ( 'NONE',  ( -1.224646799147353207E-16, 1.000000000000000000, -0.000000000000000000 ) ) ;
#361 = VECTOR ( 'NONE', #273, 39.37007874015748143 ) ;
#362 = DIRECTION ( 'NONE',  ( 0.000000000000000000, 0.000000000000000000, 1.000000000000000000 ) ) ;
#363 = DIRECTION ( 'NONE',  ( -1.000000000000000000, 0.000000000000000000, 0.000000000000000000 ) ) ;
#364 = DIMENSIONAL_EXPONENTS ( 1.000000000000000000, 0.000000000000000000, 0.000000000000000000, 0.000000000000000000, 0.000000000000000000, 0.000000000000000000, 0.000000000000000000 ) ;
#365 =( LENGTH_UNIT ( ) NAMED_UNIT ( * ) SI_UNIT ( $, .METRE. ) );
#366 =( GEOMETRIC_REPRESENTATION_CONTEXT ( 3 ) GLOBAL_UNCERTAINTY_ASSIGNED_CONTEXT ( ( #171 ) ) GLOBAL_UNIT_ASSIGNED_CONTEXT ( ( #127, #209, #102 ) ) REPRESENTATION_CONTEXT ( 'NONE', 'WORKASPACE' ) );
#367 = DIRECTION ( 'NONE',  ( -1.000000000000000000, 0.000000000000000000, 0.000000000000000000 ) ) ;
#368 = FILL_AREA_STYLE_COLOUR ( '', #158 ) ;
#369 = EDGE_CURVE ( 'NONE', #343, #81, #324, .T. ) ;
#370 = PRESENTATION_STYLE_ASSIGNMENT (( #170 ) ) ;
#371 = ADVANCED_FACE ( 'NONE', ( #354 ), #110, .T. ) ;
#372 = APPLICATION_PROTOCOL_DEFINITION ( 'draft international standard', 'automotive_design', 1998, #227 ) ;
#373 = LINE ( 'NONE', #120, #355 ) ;
ENDSEC;
END-ISO-10303-21;
