ISO-10303-21;
HEADER;
FILE_DESCRIPTION (( 'STEP AP214' ),
    '1' );
FILE_NAME ('59257.STEP',
    '2023-06-22T22:18:38',
    ( '' ),
    ( '' ),
    'SwSTEP 2.0',
    'SolidWorks 2023',
    '' );
FILE_SCHEMA (( 'AUTOMOTIVE_DESIGN' ));
ENDSEC;

DATA;
#1 = DIRECTION ( 'NONE',  ( 0.000000000000000000, 1.000000000000000000, 0.000000000000000000 ) ) ;
#2 = AXIS2_PLACEMENT_3D ( 'NONE', #124, #38, #128 ) ;
#3 = ADVANCED_FACE ( 'NONE', ( #295 ), #223, .F. ) ;
#4 = LENGTH_MEASURE_WITH_UNIT ( LENGTH_MEASURE( 0.02539999999999999897 ), #25 );
#5 =( CONVERSION_BASED_UNIT ( 'INCH', #227 ) LENGTH_UNIT ( ) NAMED_UNIT ( #298 ) );
#6 = FILL_AREA_STYLE ('',( #52 ) ) ;
#7 = AXIS2_PLACEMENT_3D ( 'NONE', #186, #19, #209 ) ;
#8 = STYLED_ITEM ( 'NONE', ( #156 ), #205 ) ;
#9 = LINE ( 'NONE', #97, #51 ) ;
#10 = PRESENTATION_STYLE_ASSIGNMENT (( #48 ) ) ;
#11 = DIRECTION ( 'NONE',  ( -3.061616997868386099E-17, 1.000000000000000000, -0.000000000000000000 ) ) ;
#12 = DIRECTION ( 'NONE',  ( 1.000000000000000000, 3.061616997868386099E-17, 0.000000000000000000 ) ) ;
#13 = STYLED_ITEM ( 'NONE', ( #172 ), #246 ) ;
#14 = DIMENSIONAL_EXPONENTS ( 1.000000000000000000, 0.000000000000000000, 0.000000000000000000, 0.000000000000000000, 0.000000000000000000, 0.000000000000000000, 0.000000000000000000 ) ;
#15 = FILL_AREA_STYLE ('',( #80 ) ) ;
#16 = EDGE_CURVE ( 'NONE', #220, #100, #54, .T. ) ;
#17 = CIRCLE ( 'NONE', #129, 0.1562500000000000278 ) ;
#18 = DIRECTION ( 'NONE',  ( 0.000000000000000000, 0.000000000000000000, -1.000000000000000000 ) ) ;
#19 = DIRECTION ( 'NONE',  ( 0.000000000000000000, -1.000000000000000000, -0.000000000000000000 ) ) ;
#20 = CYLINDRICAL_SURFACE ( 'NONE', #189, 0.1562500000000000833 ) ;
#21 = CARTESIAN_POINT ( 'NONE',  ( 1.913510623667739463E-17, 0.000000000000000000, 0.1562500000000000000 ) ) ;
#22 = EDGE_CURVE ( 'NONE', #154, #181, #224, .T. ) ;
#23 = SURFACE_STYLE_USAGE ( .BOTH. , #309 ) ;
#24 = AXIS2_PLACEMENT_3D ( 'NONE', #170, #93, #284 ) ;
#25 =( LENGTH_UNIT ( ) NAMED_UNIT ( * ) SI_UNIT ( $, .METRE. ) );
#26 =( CONVERSION_BASED_UNIT ( 'INCH', #214 ) LENGTH_UNIT ( ) NAMED_UNIT ( #83 ) );
#27 = SURFACE_STYLE_USAGE ( .BOTH. , #110 ) ;
#28 = APPLICATION_PROTOCOL_DEFINITION ( 'draft international standard', 'automotive_design', 1998, #285 ) ;
#29 = EDGE_CURVE ( 'NONE', #33, #220, #17, .T. ) ;
#30 = SURFACE_STYLE_FILL_AREA ( #283 ) ;
#31 = PRESENTATION_LAYER_ASSIGNMENT (  '', '', ( #133 ) ) ;
#32 = DIRECTION ( 'NONE',  ( 0.000000000000000000, 0.000000000000000000, -1.000000000000000000 ) ) ;
#33 = VERTEX_POINT ( 'NONE', #149 ) ;
#34 =( GEOMETRIC_REPRESENTATION_CONTEXT ( 3 ) GLOBAL_UNCERTAINTY_ASSIGNED_CONTEXT ( ( #231 ) ) GLOBAL_UNIT_ASSIGNED_CONTEXT ( ( #5, #200, #127 ) ) REPRESENTATION_CONTEXT ( 'NONE', 'WORKASPACE' ) );
#35 = ORIENTED_EDGE ( 'NONE', *, *, #141, .T. ) ;
#36 = EDGE_LOOP ( 'NONE', ( #273, #120, #78, #251 ) ) ;
#37 = EDGE_CURVE ( 'NONE', #219, #154, #196, .T. ) ;
#38 = DIRECTION ( 'NONE',  ( -3.061616997868386099E-17, 1.000000000000000000, -0.000000000000000000 ) ) ;
#39 = MECHANICAL_DESIGN_GEOMETRIC_PRESENTATION_REPRESENTATION (  '', ( #133 ), #34 ) ;
#40 = DIRECTION ( 'NONE',  ( -0.000000000000000000, -1.000000000000000000, -0.000000000000000000 ) ) ;
#41 = DIRECTION ( 'NONE',  ( -3.061616997868386099E-17, 1.000000000000000000, -0.000000000000000000 ) ) ;
#42 =( CONVERSION_BASED_UNIT ( 'INCH', #161 ) LENGTH_UNIT ( ) NAMED_UNIT ( #296 ) );
#43 = CIRCLE ( 'NONE', #113, 0.1562500000000000000 ) ;
#44 = DIRECTION ( 'NONE',  ( 0.000000000000000000, 0.000000000000000000, -1.000000000000000000 ) ) ;
#45 = AXIS2_PLACEMENT_3D ( 'NONE', #212, #140, #32 ) ;
#46 =( LENGTH_UNIT ( ) NAMED_UNIT ( * ) SI_UNIT ( $, .METRE. ) );
#47 =( LENGTH_UNIT ( ) NAMED_UNIT ( * ) SI_UNIT ( $, .METRE. ) );
#48 = SURFACE_STYLE_USAGE ( .BOTH. , #118 ) ;
#49 = CARTESIAN_POINT ( 'NONE',  ( -6.123233995736772199E-17, 3.000000000000000444, 0.000000000000000000 ) ) ;
#50 = ORIENTED_EDGE ( 'NONE', *, *, #16, .F. ) ;
#51 = VECTOR ( 'NONE', #198, 39.37007874015748143 ) ;
#52 = FILL_AREA_STYLE_COLOUR ( '', #96 ) ;
#53 = ADVANCED_FACE ( 'NONE', ( #248 ), #173, .T. ) ;
#54 = LINE ( 'NONE', #56, #169 ) ;
#55 = APPLICATION_CONTEXT ( 'automotive_design' ) ;
#56 = CARTESIAN_POINT ( 'NONE',  ( 1.913510623667739463E-17, 0.000000000000000000, 0.1562500000000000000 ) ) ;
#57 = PRODUCT_DEFINITION_FORMATION_WITH_SPECIFIED_SOURCE ( 'ANY', '', #288, .NOT_KNOWN. ) ;
#58 = SURFACE_SIDE_STYLE ('',( #190 ) ) ;
#59 = UNCERTAINTY_MEASURE_WITH_UNIT (LENGTH_MEASURE( 1.000000000000000082E-05 ), #26, 'distance_accuracy_value', 'NONE');
#60 = SURFACE_STYLE_FILL_AREA ( #282 ) ;
#61 = CARTESIAN_POINT ( 'NONE',  ( 0.1562500000000000278, 3.000000000000000444, 1.913510623667740388E-17 ) ) ;
#62 = CIRCLE ( 'NONE', #166, 0.1562500000000000278 ) ;
#63 = FACE_OUTER_BOUND ( 'NONE', #207, .T. ) ;
#64 =( NAMED_UNIT ( * ) PLANE_ANGLE_UNIT ( ) SI_UNIT ( $, .RADIAN. ) );
#65 =( LENGTH_UNIT ( ) NAMED_UNIT ( * ) SI_UNIT ( $, .METRE. ) );
#66 = FILL_AREA_STYLE_COLOUR ( '', #213 ) ;
#67 = VECTOR ( 'NONE', #11, 39.37007874015748143 ) ;
#68 = EDGE_CURVE ( 'NONE', #33, #153, #9, .T. ) ;
#69 = DIRECTION ( 'NONE',  ( -0.000000000000000000, -1.000000000000000000, -0.000000000000000000 ) ) ;
#70 =( NAMED_UNIT ( * ) PLANE_ANGLE_UNIT ( ) SI_UNIT ( $, .RADIAN. ) );
#71 = MECHANICAL_DESIGN_GEOMETRIC_PRESENTATION_REPRESENTATION (  '', ( #183 ), #136 ) ;
#72 = VECTOR ( 'NONE', #228, 39.37007874015748143 ) ;
#73 = ORIENTED_EDGE ( 'NONE', *, *, #104, .F. ) ;
#74 = ORIENTED_EDGE ( 'NONE', *, *, #22, .T. ) ;
#75 =( LENGTH_UNIT ( ) NAMED_UNIT ( * ) SI_UNIT ( $, .METRE. ) );
#76 = ADVANCED_FACE ( 'NONE', ( #208 ), #278, .F. ) ;
#77 = AXIS2_PLACEMENT_3D ( 'NONE', #252, #131, #12 ) ;
#78 = ORIENTED_EDGE ( 'NONE', *, *, #22, .F. ) ;
#79 = FACE_OUTER_BOUND ( 'NONE', #201, .T. ) ;
#80 = FILL_AREA_STYLE_COLOUR ( '', #137 ) ;
#81 = DIMENSIONAL_EXPONENTS ( 1.000000000000000000, 0.000000000000000000, 0.000000000000000000, 0.000000000000000000, 0.000000000000000000, 0.000000000000000000, 0.000000000000000000 ) ;
#82 = DIRECTION ( 'NONE',  ( -3.061616997868386099E-17, 1.000000000000000000, -0.000000000000000000 ) ) ;
#83 = DIMENSIONAL_EXPONENTS ( 1.000000000000000000, 0.000000000000000000, 0.000000000000000000, 0.000000000000000000, 0.000000000000000000, 0.000000000000000000, 0.000000000000000000 ) ;
#84 = SURFACE_STYLE_USAGE ( .BOTH. , #58 ) ;
#85 = PRODUCT_DEFINITION_CONTEXT ( 'detailed design', #55, 'design' ) ;
#86 = CARTESIAN_POINT ( 'NONE',  ( 0.000000000000000000, 0.000000000000000000, -0.1562500000000000000 ) ) ;
#87 = DIRECTION ( 'NONE',  ( 0.000000000000000000, 0.000000000000000000, -1.000000000000000000 ) ) ;
#88 = CARTESIAN_POINT ( 'NONE',  ( -6.123233995736772199E-17, 3.000000000000000444, 0.000000000000000000 ) ) ;
#89 = PRESENTATION_STYLE_ASSIGNMENT (( #23 ) ) ;
#90 = DIRECTION ( 'NONE',  ( 1.000000000000000000, 0.000000000000000000, 0.000000000000000000 ) ) ;
#91 = AXIS2_PLACEMENT_3D ( 'NONE', #257, #182, #109 ) ;
#92 = PRODUCT_CONTEXT ( 'NONE', #285, 'mechanical' ) ;
#93 = DIRECTION ( 'NONE',  ( -0.000000000000000000, -1.000000000000000000, -0.000000000000000000 ) ) ;
#94 =( CONVERSION_BASED_UNIT ( 'INCH', #244 ) LENGTH_UNIT ( ) NAMED_UNIT ( #14 ) );
#95 = AXIS2_PLACEMENT_3D ( 'NONE', #277, #164, #44 ) ;
#96 = COLOUR_RGB ( '',0.7921568627450980005, 0.8196078431372548767, 0.9333333333333333481 ) ;
#97 = CARTESIAN_POINT ( 'NONE',  ( 0.000000000000000000, 0.000000000000000000, -0.1562500000000000000 ) ) ;
#98 = SURFACE_SIDE_STYLE ('',( #123 ) ) ;
#99 = EDGE_LOOP ( 'NONE', ( #221, #174, #206, #179 ) ) ;
#100 = VERTEX_POINT ( 'NONE', #21 ) ;
#101 = COLOUR_RGB ( '',1.000000000000000000, 0.000000000000000000, 0.000000000000000000 ) ;
#102 =( GEOMETRIC_REPRESENTATION_CONTEXT ( 3 ) GLOBAL_UNCERTAINTY_ASSIGNED_CONTEXT ( ( #302 ) ) GLOBAL_UNIT_ASSIGNED_CONTEXT ( ( #259, #112, #165 ) ) REPRESENTATION_CONTEXT ( 'NONE', 'WORKASPACE' ) );
#103 = ORIENTED_EDGE ( 'NONE', *, *, #122, .F. ) ;
#104 = EDGE_CURVE ( 'NONE', #219, #152, #271, .T. ) ;
#105 = CARTESIAN_POINT ( 'NONE',  ( 7.582401355855259480E-33, 1.000000000000000000, 0.000000000000000000 ) ) ;
#106 = CARTESIAN_POINT ( 'NONE',  ( -0.1562500000000001665, 3.000000000000000444, 0.000000000000000000 ) ) ;
#107 = EDGE_CURVE ( 'NONE', #152, #219, #62, .T. ) ;
#108 = CARTESIAN_POINT ( 'NONE',  ( 0.000000000000000000, 0.000000000000000000, 0.000000000000000000 ) ) ;
#109 = DIRECTION ( 'NONE',  ( -1.000000000000000000, -3.061616997868386099E-17, 0.000000000000000000 ) ) ;
#110 = SURFACE_SIDE_STYLE ('',( #30 ) ) ;
#111 = STYLED_ITEM ( 'NONE', ( #114 ), #236 ) ;
#112 =( NAMED_UNIT ( * ) PLANE_ANGLE_UNIT ( ) SI_UNIT ( $, .RADIAN. ) );
#113 = AXIS2_PLACEMENT_3D ( 'NONE', #108, #305, #18 ) ;
#114 = PRESENTATION_STYLE_ASSIGNMENT (( #27 ) ) ;
#115 =( GEOMETRIC_REPRESENTATION_CONTEXT ( 3 ) GLOBAL_UNCERTAINTY_ASSIGNED_CONTEXT ( ( #59 ) ) GLOBAL_UNIT_ASSIGNED_CONTEXT ( ( #26, #191, #243 ) ) REPRESENTATION_CONTEXT ( 'NONE', 'WORKASPACE' ) );
#116 = CARTESIAN_POINT ( 'NONE',  ( -0.1562500000000000278, 1.000000000000000000, 0.000000000000000000 ) ) ;
#117 = PRODUCT_DEFINITION ( 'UNKNOWN', '', #57, #85 ) ;
#118 = SURFACE_SIDE_STYLE ('',( #176 ) ) ;
#119 = UNCERTAINTY_MEASURE_WITH_UNIT (LENGTH_MEASURE( 1.000000000000000082E-05 ), #249, 'distance_accuracy_value', 'NONE');
#120 = ORIENTED_EDGE ( 'NONE', *, *, #261, .T. ) ;
#121 =( GEOMETRIC_REPRESENTATION_CONTEXT ( 3 ) GLOBAL_UNCERTAINTY_ASSIGNED_CONTEXT ( ( #160 ) ) GLOBAL_UNIT_ASSIGNED_CONTEXT ( ( #94, #70, #247 ) ) REPRESENTATION_CONTEXT ( 'NONE', 'WORKASPACE' ) );
#122 = EDGE_CURVE ( 'NONE', #100, #153, #280, .T. ) ;
#123 = SURFACE_STYLE_FILL_AREA ( #6 ) ;
#124 = CARTESIAN_POINT ( 'NONE',  ( -6.123233995736772199E-17, 3.000000000000000444, 0.000000000000000000 ) ) ;
#125 = UNCERTAINTY_MEASURE_WITH_UNIT (LENGTH_MEASURE( 1.000000000000000082E-05 ), #42, 'distance_accuracy_value', 'NONE');
#126 = ORIENTED_EDGE ( 'NONE', *, *, #222, .T. ) ;
#127 =( NAMED_UNIT ( * ) SI_UNIT ( $, .STERADIAN. ) SOLID_ANGLE_UNIT ( ) );
#128 = DIRECTION ( 'NONE',  ( -1.000000000000000000, 0.000000000000000000, 0.000000000000000000 ) ) ;
#129 = AXIS2_PLACEMENT_3D ( 'NONE', #253, #40, #226 ) ;
#130 = MECHANICAL_DESIGN_GEOMETRIC_PRESENTATION_REPRESENTATION (  '', ( #111 ), #102 ) ;
#131 = DIRECTION ( 'NONE',  ( 3.061616997868386099E-17, -1.000000000000000000, 0.000000000000000000 ) ) ;
#132 = SURFACE_STYLE_USAGE ( .BOTH. , #254 ) ;
#133 = STYLED_ITEM ( 'NONE', ( #89 ), #232 ) ;
#134 = DIRECTION ( 'NONE',  ( -1.000000000000000000, 0.000000000000000000, 0.000000000000000000 ) ) ;
#135 = DIRECTION ( 'NONE',  ( -3.061616997868386099E-17, 1.000000000000000000, -0.000000000000000000 ) ) ;
#136 =( GEOMETRIC_REPRESENTATION_CONTEXT ( 3 ) GLOBAL_UNCERTAINTY_ASSIGNED_CONTEXT ( ( #125 ) ) GLOBAL_UNIT_ASSIGNED_CONTEXT ( ( #42, #185, #234 ) ) REPRESENTATION_CONTEXT ( 'NONE', 'WORKASPACE' ) );
#137 = COLOUR_RGB ( '',1.000000000000000000, 0.000000000000000000, 0.000000000000000000 ) ;
#138 = ADVANCED_BREP_SHAPE_REPRESENTATION ( '59257', ( #238, #246, #290 ), #178 ) ;
#139 = SHAPE_DEFINITION_REPRESENTATION ( #199, #138 ) ;
#140 = DIRECTION ( 'NONE',  ( -0.000000000000000000, -1.000000000000000000, -0.000000000000000000 ) ) ;
#141 = EDGE_CURVE ( 'NONE', #181, #154, #265, .T. ) ;
#142 = MECHANICAL_DESIGN_GEOMETRIC_PRESENTATION_REPRESENTATION (  '', ( #13 ), #286 ) ;
#143 = APPLICATION_PROTOCOL_DEFINITION ( 'draft international standard', 'automotive_design', 1998, #55 ) ;
#144 = FILL_AREA_STYLE_COLOUR ( '', #294 ) ;
#145 = ORIENTED_EDGE ( 'NONE', *, *, #68, .F. ) ;
#146 = DIRECTION ( 'NONE',  ( -3.061616997868386099E-17, 1.000000000000000000, -0.000000000000000000 ) ) ;
#147 = EDGE_CURVE ( 'NONE', #153, #100, #43, .T. ) ;
#148 = DIMENSIONAL_EXPONENTS ( 1.000000000000000000, 0.000000000000000000, 0.000000000000000000, 0.000000000000000000, 0.000000000000000000, 0.000000000000000000, 0.000000000000000000 ) ;
#149 = CARTESIAN_POINT ( 'NONE',  ( 0.000000000000000000, 1.000000000000000000, -0.1562500000000000278 ) ) ;
#150 = LENGTH_MEASURE_WITH_UNIT ( LENGTH_MEASURE( 0.02539999999999999897 ), #75 );
#151 = EDGE_LOOP ( 'NONE', ( #73, #203 ) ) ;
#152 = VERTEX_POINT ( 'NONE', #258 ) ;
#153 = VERTEX_POINT ( 'NONE', #86 ) ;
#154 = VERTEX_POINT ( 'NONE', #106 ) ;
#155 = EDGE_LOOP ( 'NONE', ( #50, #126, #217, #103 ) ) ;
#156 = PRESENTATION_STYLE_ASSIGNMENT (( #84 ) ) ;
#157 = LENGTH_MEASURE_WITH_UNIT ( LENGTH_MEASURE( 0.02539999999999999897 ), #46 );
#158 = PRESENTATION_STYLE_ASSIGNMENT (( #132 ) ) ;
#159 =( NAMED_UNIT ( * ) SI_UNIT ( $, .STERADIAN. ) SOLID_ANGLE_UNIT ( ) );
#160 = UNCERTAINTY_MEASURE_WITH_UNIT (LENGTH_MEASURE( 1.000000000000000082E-05 ), #94, 'distance_accuracy_value', 'NONE');
#161 = LENGTH_MEASURE_WITH_UNIT ( LENGTH_MEASURE( 0.02539999999999999897 ), #65 );
#162 = MECHANICAL_DESIGN_GEOMETRIC_PRESENTATION_REPRESENTATION (  '', ( #8 ), #115 ) ;
#163 =( NAMED_UNIT ( * ) PLANE_ANGLE_UNIT ( ) SI_UNIT ( $, .RADIAN. ) );
#164 = DIRECTION ( 'NONE',  ( -0.000000000000000000, -1.000000000000000000, -0.000000000000000000 ) ) ;
#165 =( NAMED_UNIT ( * ) SI_UNIT ( $, .STERADIAN. ) SOLID_ANGLE_UNIT ( ) );
#166 = AXIS2_PLACEMENT_3D ( 'NONE', #105, #135, #303 ) ;
#167 = AXIS2_PLACEMENT_3D ( 'NONE', #187, #1, #264 ) ;
#168 = FILL_AREA_STYLE ('',( #144 ) ) ;
#169 = VECTOR ( 'NONE', #269, 39.37007874015748143 ) ;
#170 = CARTESIAN_POINT ( 'NONE',  ( 0.000000000000000000, 1.000000000000000000, 0.000000000000000000 ) ) ;
#171 = ORIENTED_EDGE ( 'NONE', *, *, #29, .T. ) ;
#172 = PRESENTATION_STYLE_ASSIGNMENT (( #268 ) ) ;
#173 = CYLINDRICAL_SURFACE ( 'NONE', #275, 0.1562500000000000833 ) ;
#174 = ORIENTED_EDGE ( 'NONE', *, *, #107, .T. ) ;
#175 = DIMENSIONAL_EXPONENTS ( 1.000000000000000000, 0.000000000000000000, 0.000000000000000000, 0.000000000000000000, 0.000000000000000000, 0.000000000000000000, 0.000000000000000000 ) ;
#176 = SURFACE_STYLE_FILL_AREA ( #235 ) ;
#177 = AXIS2_PLACEMENT_3D ( 'NONE', #256, #82, #134 ) ;
#178 =( GEOMETRIC_REPRESENTATION_CONTEXT ( 3 ) GLOBAL_UNCERTAINTY_ASSIGNED_CONTEXT ( ( #202 ) ) GLOBAL_UNIT_ASSIGNED_CONTEXT ( ( #255, #64, #308 ) ) REPRESENTATION_CONTEXT ( 'NONE', 'WORKASPACE' ) );
#179 = ORIENTED_EDGE ( 'NONE', *, *, #141, .F. ) ;
#180 = ORIENTED_EDGE ( 'NONE', *, *, #147, .T. ) ;
#181 = VERTEX_POINT ( 'NONE', #61 ) ;
#182 = DIRECTION ( 'NONE',  ( -3.061616997868386099E-17, 1.000000000000000000, 0.000000000000000000 ) ) ;
#183 = STYLED_ITEM ( 'NONE', ( #158 ), #188 ) ;
#184 = PRESENTATION_LAYER_ASSIGNMENT (  '', '', ( #8 ) ) ;
#185 =( NAMED_UNIT ( * ) PLANE_ANGLE_UNIT ( ) SI_UNIT ( $, .RADIAN. ) );
#186 = CARTESIAN_POINT ( 'NONE',  ( 0.000000000000000000, 0.000000000000000000, 0.000000000000000000 ) ) ;
#187 = CARTESIAN_POINT ( 'NONE',  ( 0.000000000000000000, 1.000000000000000000, 0.000000000000000000 ) ) ;
#188 = ADVANCED_FACE ( 'NONE', ( #63 ), #300, .T. ) ;
#189 = AXIS2_PLACEMENT_3D ( 'NONE', #88, #301, #304 ) ;
#190 = SURFACE_STYLE_FILL_AREA ( #15 ) ;
#191 =( NAMED_UNIT ( * ) PLANE_ANGLE_UNIT ( ) SI_UNIT ( $, .RADIAN. ) );
#192 = CYLINDRICAL_SURFACE ( 'NONE', #272, 0.1562500000000000000 ) ;
#193 = CARTESIAN_POINT ( 'NONE',  ( 0.000000000000000000, 0.000000000000000000, 0.000000000000000000 ) ) ;
#194 = ORIENTED_EDGE ( 'NONE', *, *, #222, .F. ) ;
#195 = PRESENTATION_LAYER_ASSIGNMENT (  '', '', ( #281 ) ) ;
#196 = LINE ( 'NONE', #291, #67 ) ;
#197 =( LENGTH_UNIT ( ) NAMED_UNIT ( * ) SI_UNIT ( $, .METRE. ) );
#198 = DIRECTION ( 'NONE',  ( -0.000000000000000000, -1.000000000000000000, -0.000000000000000000 ) ) ;
#199 = PRODUCT_DEFINITION_SHAPE ( 'NONE', 'NONE',  #117 ) ;
#200 =( NAMED_UNIT ( * ) PLANE_ANGLE_UNIT ( ) SI_UNIT ( $, .RADIAN. ) );
#201 = EDGE_LOOP ( 'NONE', ( #171, #274, #292, #145 ) ) ;
#202 = UNCERTAINTY_MEASURE_WITH_UNIT (LENGTH_MEASURE( 1.000000000000000082E-05 ), #255, 'distance_accuracy_value', 'NONE');
#203 = ORIENTED_EDGE ( 'NONE', *, *, #107, .F. ) ;
#204 = AXIS2_PLACEMENT_3D ( 'NONE', #229, #41, #210 ) ;
#205 = ADVANCED_FACE ( 'NONE', ( #79 ), #276, .T. ) ;
#206 = ORIENTED_EDGE ( 'NONE', *, *, #37, .T. ) ;
#207 = EDGE_LOOP ( 'NONE', ( #180, #225 ) ) ;
#208 = FACE_OUTER_BOUND ( 'NONE', #151, .T. ) ;
#209 = DIRECTION ( 'NONE',  ( 0.000000000000000000, 0.000000000000000000, -1.000000000000000000 ) ) ;
#210 = DIRECTION ( 'NONE',  ( -1.000000000000000000, 0.000000000000000000, 0.000000000000000000 ) ) ;
#211 = CIRCLE ( 'NONE', #24, 0.1562500000000000278 ) ;
#212 = CARTESIAN_POINT ( 'NONE',  ( 0.000000000000000000, 0.000000000000000000, 0.000000000000000000 ) ) ;
#213 = COLOUR_RGB ( '',0.7921568627450980005, 0.8196078431372548767, 0.9333333333333333481 ) ;
#214 = LENGTH_MEASURE_WITH_UNIT ( LENGTH_MEASURE( 0.02539999999999999897 ), #47 );
#215 = SURFACE_STYLE_FILL_AREA ( #168 ) ;
#216 = LINE ( 'NONE', #307, #72 ) ;
#217 = ORIENTED_EDGE ( 'NONE', *, *, #68, .T. ) ;
#218 = MECHANICAL_DESIGN_GEOMETRIC_PRESENTATION_REPRESENTATION (  '', ( #281 ), #121 ) ;
#219 = VERTEX_POINT ( 'NONE', #116 ) ;
#220 = VERTEX_POINT ( 'NONE', #240 ) ;
#221 = ORIENTED_EDGE ( 'NONE', *, *, #261, .F. ) ;
#222 = EDGE_CURVE ( 'NONE', #220, #33, #211, .T. ) ;
#223 = PLANE ( 'NONE',  #77 ) ;
#224 = CIRCLE ( 'NONE', #2, 0.1562500000000001110 ) ;
#225 = ORIENTED_EDGE ( 'NONE', *, *, #122, .T. ) ;
#226 = DIRECTION ( 'NONE',  ( 0.000000000000000000, 0.000000000000000000, -1.000000000000000000 ) ) ;
#227 = LENGTH_MEASURE_WITH_UNIT ( LENGTH_MEASURE( 0.02539999999999999897 ), #263 );
#228 = DIRECTION ( 'NONE',  ( -3.061616997868386099E-17, 1.000000000000000000, -0.000000000000000000 ) ) ;
#229 = CARTESIAN_POINT ( 'NONE',  ( 7.582401355855259480E-33, 1.000000000000000000, 0.000000000000000000 ) ) ;
#230 = FACE_OUTER_BOUND ( 'NONE', #36, .T. ) ;
#231 = UNCERTAINTY_MEASURE_WITH_UNIT (LENGTH_MEASURE( 1.000000000000000082E-05 ), #5, 'distance_accuracy_value', 'NONE');
#232 = ADVANCED_FACE ( 'NONE', ( #260 ), #241, .T. ) ;
#233 = CARTESIAN_POINT ( 'NONE',  ( 0.000000000000000000, 0.000000000000000000, 0.000000000000000000 ) ) ;
#234 =( NAMED_UNIT ( * ) SI_UNIT ( $, .STERADIAN. ) SOLID_ANGLE_UNIT ( ) );
#235 = FILL_AREA_STYLE ('',( #66 ) ) ;
#236 = ADVANCED_FACE ( 'NONE', ( #239 ), #192, .T. ) ;
#237 = DIRECTION ( 'NONE',  ( 0.000000000000000000, 0.000000000000000000, 1.000000000000000000 ) ) ;
#238 = MANIFOLD_SOLID_BREP ( 'Revolve - Cutting Edge', #242 ) ;
#239 = FACE_OUTER_BOUND ( 'NONE', #155, .T. ) ;
#240 = CARTESIAN_POINT ( 'NONE',  ( 1.913510623667739771E-17, 1.000000000000000000, 0.1562500000000000278 ) ) ;
#241 = PLANE ( 'NONE',  #167 ) ;
#242 = CLOSED_SHELL ( 'NONE', ( #205, #232, #236, #188 ) ) ;
#243 =( NAMED_UNIT ( * ) SI_UNIT ( $, .STERADIAN. ) SOLID_ANGLE_UNIT ( ) );
#244 = LENGTH_MEASURE_WITH_UNIT ( LENGTH_MEASURE( 0.02539999999999999897 ), #197 );
#245 = DIRECTION ( 'NONE',  ( -1.000000000000000000, 0.000000000000000000, 0.000000000000000000 ) ) ;
#246 = MANIFOLD_SOLID_BREP ( 'Revolve - Tool Body (Straight Shanked)', #306 ) ;
#247 =( NAMED_UNIT ( * ) SI_UNIT ( $, .STERADIAN. ) SOLID_ANGLE_UNIT ( ) );
#248 = FACE_OUTER_BOUND ( 'NONE', #99, .T. ) ;
#249 =( CONVERSION_BASED_UNIT ( 'INCH', #150 ) LENGTH_UNIT ( ) NAMED_UNIT ( #148 ) );
#250 = EDGE_LOOP ( 'NONE', ( #74, #35 ) ) ;
#251 = ORIENTED_EDGE ( 'NONE', *, *, #37, .F. ) ;
#252 = CARTESIAN_POINT ( 'NONE',  ( 0.1562500000000000278, 3.000000000000000444, 0.000000000000000000 ) ) ;
#253 = CARTESIAN_POINT ( 'NONE',  ( 0.000000000000000000, 1.000000000000000000, 0.000000000000000000 ) ) ;
#254 = SURFACE_SIDE_STYLE ('',( #60 ) ) ;
#255 =( CONVERSION_BASED_UNIT ( 'INCH', #157 ) LENGTH_UNIT ( ) NAMED_UNIT ( #175 ) );
#256 = CARTESIAN_POINT ( 'NONE',  ( -6.123233995736772199E-17, 3.000000000000000444, 0.000000000000000000 ) ) ;
#257 = CARTESIAN_POINT ( 'NONE',  ( 7.323045813778617637E-35, 1.000000000000000000, 0.000000000000000000 ) ) ;
#258 = CARTESIAN_POINT ( 'NONE',  ( 0.1562500000000000278, 1.000000000000000000, 1.913510623667740388E-17 ) ) ;
#259 =( CONVERSION_BASED_UNIT ( 'INCH', #4 ) LENGTH_UNIT ( ) NAMED_UNIT ( #81 ) );
#260 = FACE_OUTER_BOUND ( 'NONE', #267, .T. ) ;
#261 = EDGE_CURVE ( 'NONE', #152, #181, #216, .T. ) ;
#262 = COLOUR_RGB ( '',1.000000000000000000, 0.000000000000000000, 0.000000000000000000 ) ;
#263 =( LENGTH_UNIT ( ) NAMED_UNIT ( * ) SI_UNIT ( $, .METRE. ) );
#264 = DIRECTION ( 'NONE',  ( 0.000000000000000000, -0.000000000000000000, 1.000000000000000000 ) ) ;
#265 = CIRCLE ( 'NONE', #177, 0.1562500000000001110 ) ;
#266 = PRESENTATION_LAYER_ASSIGNMENT (  '', '', ( #111 ) ) ;
#267 = EDGE_LOOP ( 'NONE', ( #293, #194 ) ) ;
#268 = SURFACE_STYLE_USAGE ( .BOTH. , #98 ) ;
#269 = DIRECTION ( 'NONE',  ( -0.000000000000000000, -1.000000000000000000, -0.000000000000000000 ) ) ;
#270 = PRODUCT_RELATED_PRODUCT_CATEGORY ( 'part', '', ( #288 ) ) ;
#271 = CIRCLE ( 'NONE', #204, 0.1562500000000000278 ) ;
#272 = AXIS2_PLACEMENT_3D ( 'NONE', #233, #69, #87 ) ;
#273 = ORIENTED_EDGE ( 'NONE', *, *, #104, .T. ) ;
#274 = ORIENTED_EDGE ( 'NONE', *, *, #16, .T. ) ;
#275 = AXIS2_PLACEMENT_3D ( 'NONE', #49, #146, #245 ) ;
#276 = CYLINDRICAL_SURFACE ( 'NONE', #45, 0.1562500000000000000 ) ;
#277 = CARTESIAN_POINT ( 'NONE',  ( 0.000000000000000000, 0.000000000000000000, 0.000000000000000000 ) ) ;
#278 = PLANE ( 'NONE',  #91 ) ;
#279 = PRESENTATION_LAYER_ASSIGNMENT (  '', '', ( #183 ) ) ;
#280 = CIRCLE ( 'NONE', #95, 0.1562500000000000000 ) ;
#281 = STYLED_ITEM ( 'NONE', ( #10 ), #238 ) ;
#282 = FILL_AREA_STYLE ('',( #297 ) ) ;
#283 = FILL_AREA_STYLE ('',( #287 ) ) ;
#284 = DIRECTION ( 'NONE',  ( 0.000000000000000000, 0.000000000000000000, -1.000000000000000000 ) ) ;
#285 = APPLICATION_CONTEXT ( 'automotive_design' ) ;
#286 =( GEOMETRIC_REPRESENTATION_CONTEXT ( 3 ) GLOBAL_UNCERTAINTY_ASSIGNED_CONTEXT ( ( #119 ) ) GLOBAL_UNIT_ASSIGNED_CONTEXT ( ( #249, #163, #159 ) ) REPRESENTATION_CONTEXT ( 'NONE', 'WORKASPACE' ) );
#287 = FILL_AREA_STYLE_COLOUR ( '', #262 ) ;
#288 = PRODUCT ( '59257', '59257', '', ( #92 ) ) ;
#289 = ADVANCED_FACE ( 'NONE', ( #230 ), #20, .T. ) ;
#290 = AXIS2_PLACEMENT_3D ( 'NONE', #193, #237, #90 ) ;
#291 = CARTESIAN_POINT ( 'NONE',  ( -0.1562500000000001388, 3.000000000000000444, 0.000000000000000000 ) ) ;
#292 = ORIENTED_EDGE ( 'NONE', *, *, #147, .F. ) ;
#293 = ORIENTED_EDGE ( 'NONE', *, *, #29, .F. ) ;
#294 = COLOUR_RGB ( '',1.000000000000000000, 0.000000000000000000, 0.000000000000000000 ) ;
#295 = FACE_OUTER_BOUND ( 'NONE', #250, .T. ) ;
#296 = DIMENSIONAL_EXPONENTS ( 1.000000000000000000, 0.000000000000000000, 0.000000000000000000, 0.000000000000000000, 0.000000000000000000, 0.000000000000000000, 0.000000000000000000 ) ;
#297 = FILL_AREA_STYLE_COLOUR ( '', #101 ) ;
#298 = DIMENSIONAL_EXPONENTS ( 1.000000000000000000, 0.000000000000000000, 0.000000000000000000, 0.000000000000000000, 0.000000000000000000, 0.000000000000000000, 0.000000000000000000 ) ;
#299 = PRESENTATION_LAYER_ASSIGNMENT (  '', '', ( #13 ) ) ;
#300 = PLANE ( 'NONE',  #7 ) ;
#301 = DIRECTION ( 'NONE',  ( -3.061616997868386099E-17, 1.000000000000000000, -0.000000000000000000 ) ) ;
#302 = UNCERTAINTY_MEASURE_WITH_UNIT (LENGTH_MEASURE( 1.000000000000000082E-05 ), #259, 'distance_accuracy_value', 'NONE');
#303 = DIRECTION ( 'NONE',  ( -1.000000000000000000, 0.000000000000000000, 0.000000000000000000 ) ) ;
#304 = DIRECTION ( 'NONE',  ( -1.000000000000000000, 0.000000000000000000, 0.000000000000000000 ) ) ;
#305 = DIRECTION ( 'NONE',  ( -0.000000000000000000, -1.000000000000000000, -0.000000000000000000 ) ) ;
#306 = CLOSED_SHELL ( 'NONE', ( #289, #76, #53, #3 ) ) ;
#307 = CARTESIAN_POINT ( 'NONE',  ( 0.1562500000000000000, 3.000000000000000444, 1.913510623667740080E-17 ) ) ;
#308 =( NAMED_UNIT ( * ) SI_UNIT ( $, .STERADIAN. ) SOLID_ANGLE_UNIT ( ) );
#309 = SURFACE_SIDE_STYLE ('',( #215 ) ) ;
ENDSEC;
END-ISO-10303-21;
