ISO-10303-21;
HEADER;
FILE_DESCRIPTION (( 'STEP AP214' ),
    '1' );
FILE_NAME ('Micro_KC-375-1125-125X.STEP',
    '2021-09-03T19:31:46',
    ( '' ),
    ( '' ),
    'SwSTEP 2.0',
    'SolidWorks 2020',
    '' );
FILE_SCHEMA (( 'AUTOMOTIVE_DESIGN' ));
ENDSEC;

DATA;
#1 = AXIS2_PLACEMENT_3D ( 'NONE', #64, #262, #175 ) ;
#2 = COLOUR_RGB ( '',0.7921568627450980005, 0.8196078431372548767, 0.9333333333333333481 ) ;
#3 = CARTESIAN_POINT ( 'NONE',  ( 0.0000000000000000000, 0.0000000000000000000, 0.0000000000000000000 ) ) ;
#4 = EDGE_CURVE ( 'NONE', #22, #46, #111, .T. ) ;
#5 = DIRECTION ( 'NONE',  ( 1.000000000000000000, 0.0000000000000000000, 0.0000000000000000000 ) ) ;
#6 = CIRCLE ( 'NONE', #87, 0.09500000000000015377 ) ;
#7 = DIRECTION ( 'NONE',  ( 0.0000000000000000000, 0.0000000000000000000, -1.000000000000000000 ) ) ;
#8 = DIRECTION ( 'NONE',  ( -0.0000000000000000000, -0.0000000000000000000, -1.000000000000000000 ) ) ;
#9 = ORIENTED_EDGE ( 'NONE', *, *, #321, .T. ) ;
#10 = CARTESIAN_POINT ( 'NONE',  ( 0.0000000000000000000, 0.0000000000000000000, 2.500000000000000000 ) ) ;
#11 = CARTESIAN_POINT ( 'NONE',  ( -0.1724999999999995981, 0.0000000000000000000, 2.500000000000000000 ) ) ;
#12 = AXIS2_PLACEMENT_3D ( 'NONE', #33, #325, #93 ) ;
#13 = CIRCLE ( 'NONE', #348, 0.09500000000000001499 ) ;
#14 = CARTESIAN_POINT ( 'NONE',  ( -0.09500000000000015377, 1.163414459189987285E-17, 1.125000000000000222 ) ) ;
#15 = EDGE_LOOP ( 'NONE', ( #254, #372, #16, #101 ) ) ;
#16 = ORIENTED_EDGE ( 'NONE', *, *, #4, .T. ) ;
#17 = DIRECTION ( 'NONE',  ( -1.000000000000000000, 0.0000000000000000000, 0.0000000000000000000 ) ) ;
#18 = SURFACE_STYLE_FILL_AREA ( #172 ) ;
#19 = AXIS2_PLACEMENT_3D ( 'NONE', #224, #330, #110 ) ;
#20 = DIRECTION ( 'NONE',  ( -0.7071067811865489050, 8.659560562354950115E-17, 0.7071067811865461294 ) ) ;
#21 = EDGE_LOOP ( 'NONE', ( #160, #225, #197, #68 ) ) ;
#22 = VERTEX_POINT ( 'NONE', #223 ) ;
#23 = EDGE_LOOP ( 'NONE', ( #217, #199, #171, #312 ) ) ;
#24 = PRODUCT_DEFINITION_FORMATION_WITH_SPECIFIED_SOURCE ( 'ANY', '', #38, .NOT_KNOWN. ) ;
#25 = DIRECTION ( 'NONE',  ( 0.0000000000000000000, 0.0000000000000000000, 1.000000000000000000 ) ) ;
#26 = FACE_OUTER_BOUND ( 'NONE', #15, .T. ) ;
#27 = APPLICATION_CONTEXT ( 'automotive_design' ) ;
#28 = EDGE_CURVE ( 'NONE', #145, #193, #136, .T. ) ;
#29 = FACE_OUTER_BOUND ( 'NONE', #75, .T. ) ;
#30 = AXIS2_PLACEMENT_3D ( 'NONE', #61, #231, #346 ) ;
#31 = CARTESIAN_POINT ( 'NONE',  ( 0.0000000000000000000, 0.0000000000000000000, 0.0000000000000000000 ) ) ;
#32 = DIRECTION ( 'NONE',  ( -1.000000000000000000, 0.0000000000000000000, 0.0000000000000000000 ) ) ;
#33 = CARTESIAN_POINT ( 'NONE',  ( 0.0000000000000000000, 0.0000000000000000000, 0.0000000000000000000 ) ) ;
#34 = ORIENTED_EDGE ( 'NONE', *, *, #124, .F. ) ;
#35 = CARTESIAN_POINT ( 'NONE',  ( 0.0000000000000000000, 0.0000000000000000000, 1.125000000000000222 ) ) ;
#36 = EDGE_CURVE ( 'NONE', #252, #249, #375, .T. ) ;
#37 = CARTESIAN_POINT ( 'NONE',  ( 0.0000000000000000000, 0.0000000000000000000, 2.500000000000000000 ) ) ;
#38 = PRODUCT ( 'Micro_KC-375-1125-125X', 'Micro_KC-375-1125-125X', '', ( #261 ) ) ;
#39 = DIRECTION ( 'NONE',  ( -1.000000000000000000, 0.0000000000000000000, 0.0000000000000000000 ) ) ;
#40 = ORIENTED_EDGE ( 'NONE', *, *, #321, .F. ) ;
#41 = DIRECTION ( 'NONE',  ( -0.0000000000000000000, -0.0000000000000000000, -1.000000000000000000 ) ) ;
#42 = ORIENTED_EDGE ( 'NONE', *, *, #36, .F. ) ;
#43 = AXIS2_PLACEMENT_3D ( 'NONE', #232, #315, #121 ) ;
#44 = CONICAL_SURFACE ( 'NONE', #119, 0.1724999999999995981, 0.7853981633974357335 ) ;
#45 =( LENGTH_UNIT ( ) NAMED_UNIT ( * ) SI_UNIT ( $, .METRE. ) );
#46 = VERTEX_POINT ( 'NONE', #303 ) ;
#47 = MANIFOLD_SOLID_BREP ( 'Cut-Revolve1', #147 ) ;
#48 = CARTESIAN_POINT ( 'NONE',  ( 0.0000000000000000000, 0.0000000000000000000, 2.500000000000000000 ) ) ;
#49 = ORIENTED_EDGE ( 'NONE', *, *, #95, .T. ) ;
#50 = DIRECTION ( 'NONE',  ( 0.0000000000000000000, 0.0000000000000000000, 1.000000000000000000 ) ) ;
#51 = VERTEX_POINT ( 'NONE', #59 ) ;
#52 = AXIS2_PLACEMENT_3D ( 'NONE', #115, #313, #349 ) ;
#53 = STYLED_ITEM ( 'NONE', ( #337 ), #203 ) ;
#54 = PLANE ( 'NONE',  #186 ) ;
#55 = VERTEX_POINT ( 'NONE', #317 ) ;
#56 = ORIENTED_EDGE ( 'NONE', *, *, #370, .T. ) ;
#57 = FACE_OUTER_BOUND ( 'NONE', #21, .T. ) ;
#58 =( NAMED_UNIT ( * ) PLANE_ANGLE_UNIT ( ) SI_UNIT ( $, .RADIAN. ) );
#59 = CARTESIAN_POINT ( 'NONE',  ( -0.1875000000000000278, 0.0000000000000000000, 0.0000000000000000000 ) ) ;
#60 = ADVANCED_FACE ( 'NONE', ( #63 ), #166, .T. ) ;
#61 = CARTESIAN_POINT ( 'NONE',  ( 0.0000000000000000000, 0.0000000000000000000, 0.1250000000000000000 ) ) ;
#62 = ADVANCED_FACE ( 'NONE', ( #26 ), #179, .T. ) ;
#63 = FACE_OUTER_BOUND ( 'NONE', #329, .T. ) ;
#64 = CARTESIAN_POINT ( 'NONE',  ( 0.0000000000000000000, 0.0000000000000000000, 2.500000000000000000 ) ) ;
#65 = DIRECTION ( 'NONE',  ( -1.000000000000000000, 0.0000000000000000000, 0.0000000000000000000 ) ) ;
#66 = ADVANCED_FACE ( 'NONE', ( #29 ), #181, .F. ) ;
#67 = DIRECTION ( 'NONE',  ( 1.000000000000000000, 0.0000000000000000000, 0.0000000000000000000 ) ) ;
#68 = ORIENTED_EDGE ( 'NONE', *, *, #211, .F. ) ;
#69 = EDGE_CURVE ( 'NONE', #145, #79, #6, .T. ) ;
#70 = DIRECTION ( 'NONE',  ( -1.000000000000000000, 0.0000000000000000000, 0.0000000000000000000 ) ) ;
#71 = AXIS2_PLACEMENT_3D ( 'NONE', #10, #219, #17 ) ;
#72 = ADVANCED_FACE ( 'NONE', ( #57 ), #155, .T. ) ;
#73 = DIRECTION ( 'NONE',  ( -0.0000000000000000000, -0.0000000000000000000, -1.000000000000000000 ) ) ;
#74 = DIRECTION ( 'NONE',  ( -0.0000000000000000000, -0.0000000000000000000, -1.000000000000000000 ) ) ;
#75 = EDGE_LOOP ( 'NONE', ( #105, #169 ) ) ;
#76 = PRESENTATION_LAYER_ASSIGNMENT (  '', '', ( #306 ) ) ;
#77 = ORIENTED_EDGE ( 'NONE', *, *, #235, .F. ) ;
#78 = FILL_AREA_STYLE_COLOUR ( '', #2 ) ;
#79 = VERTEX_POINT ( 'NONE', #200 ) ;
#80 = ORIENTED_EDGE ( 'NONE', *, *, #242, .F. ) ;
#81 = PRODUCT_DEFINITION ( 'UNKNOWN', '', #24, #161 ) ;
#82 = LINE ( 'NONE', #140, #267 ) ;
#83 = EDGE_LOOP ( 'NONE', ( #324, #99 ) ) ;
#84 = CARTESIAN_POINT ( 'NONE',  ( 0.1875000000000000278, 2.296212748401287726E-17, 2.500000000000000000 ) ) ;
#85 = CARTESIAN_POINT ( 'NONE',  ( 0.1875000000000000555, 0.0000000000000000000, 0.1250000000000000000 ) ) ;
#86 = CARTESIAN_POINT ( 'NONE',  ( 0.0000000000000000000, 0.0000000000000000000, 2.484999999999999432 ) ) ;
#87 = AXIS2_PLACEMENT_3D ( 'NONE', #291, #260, #32 ) ;
#88 = AXIS2_PLACEMENT_3D ( 'NONE', #37, #7, #70 ) ;
#89 = DIRECTION ( 'NONE',  ( 0.0000000000000000000, 0.0000000000000000000, -1.000000000000000000 ) ) ;
#90 = DIMENSIONAL_EXPONENTS ( 1.000000000000000000, 0.0000000000000000000, 0.0000000000000000000, 0.0000000000000000000, 0.0000000000000000000, 0.0000000000000000000, 0.0000000000000000000 ) ;
#91 = PRESENTATION_STYLE_ASSIGNMENT (( #226 ) ) ;
#92 = AXIS2_PLACEMENT_3D ( 'NONE', #135, #170, #164 ) ;
#93 = DIRECTION ( 'NONE',  ( 1.000000000000000000, 0.0000000000000000000, 0.0000000000000000000 ) ) ;
#94 = CARTESIAN_POINT ( 'NONE',  ( 0.1875000000000000278, 2.296212748401287726E-17, 2.484999999999999432 ) ) ;
#95 = EDGE_CURVE ( 'NONE', #282, #248, #280, .T. ) ;
#96 = LINE ( 'NONE', #11, #376 ) ;
#97 = DIMENSIONAL_EXPONENTS ( 1.000000000000000000, 0.0000000000000000000, 0.0000000000000000000, 0.0000000000000000000, 0.0000000000000000000, 0.0000000000000000000, 0.0000000000000000000 ) ;
#98 = CARTESIAN_POINT ( 'NONE',  ( 0.0000000000000000000, 0.0000000000000000000, 0.1250000000000000278 ) ) ;
#99 = ORIENTED_EDGE ( 'NONE', *, *, #247, .T. ) ;
#100 = CARTESIAN_POINT ( 'NONE',  ( 0.0000000000000000000, 0.0000000000000000000, 1.217499999999999583 ) ) ;
#101 = ORIENTED_EDGE ( 'NONE', *, *, #108, .F. ) ;
#102 = DIMENSIONAL_EXPONENTS ( 1.000000000000000000, 0.0000000000000000000, 0.0000000000000000000, 0.0000000000000000000, 0.0000000000000000000, 0.0000000000000000000, 0.0000000000000000000 ) ;
#103 = UNCERTAINTY_MEASURE_WITH_UNIT (LENGTH_MEASURE( 1.000000000000000082E-05 ), #342, 'distance_accuracy_value', 'NONE');
#104 = LINE ( 'NONE', #142, #234 ) ;
#105 = ORIENTED_EDGE ( 'NONE', *, *, #373, .F. ) ;
#106 = CONICAL_SURFACE ( 'NONE', #290, 0.09500000000000015377, 0.7853981633974502774 ) ;
#107 = ORIENTED_EDGE ( 'NONE', *, *, #256, .F. ) ;
#108 = EDGE_CURVE ( 'NONE', #193, #46, #332, .T. ) ;
#109 = APPLICATION_CONTEXT ( 'automotive_design' ) ;
#110 = DIRECTION ( 'NONE',  ( -1.000000000000000000, 0.0000000000000000000, 0.0000000000000000000 ) ) ;
#111 = LINE ( 'NONE', #138, #326 ) ;
#112 = LINE ( 'NONE', #14, #134 ) ;
#113 = ORIENTED_EDGE ( 'NONE', *, *, #28, .F. ) ;
#114 = AXIS2_PLACEMENT_3D ( 'NONE', #3, #377, #288 ) ;
#115 = CARTESIAN_POINT ( 'NONE',  ( 0.0000000000000000000, 0.0000000000000000000, 1.125000000000000222 ) ) ;
#116 = DIRECTION ( 'NONE',  ( 1.000000000000000000, 0.0000000000000000000, -0.0000000000000000000 ) ) ;
#117 = SHAPE_DEFINITION_REPRESENTATION ( #357, #203 ) ;
#118 = DIRECTION ( 'NONE',  ( 1.000000000000000000, 0.0000000000000000000, -0.0000000000000000000 ) ) ;
#119 = AXIS2_PLACEMENT_3D ( 'NONE', #283, #281, #302 ) ;
#120 =( CONVERSION_BASED_UNIT ( 'INCH', #178 ) LENGTH_UNIT ( ) NAMED_UNIT ( #102 ) );
#121 = DIRECTION ( 'NONE',  ( 1.000000000000000000, 0.0000000000000000000, 0.0000000000000000000 ) ) ;
#122 = CARTESIAN_POINT ( 'NONE',  ( 0.0000000000000000000, 0.0000000000000000000, 1.125000000000000222 ) ) ;
#123 = MECHANICAL_DESIGN_GEOMETRIC_PRESENTATION_REPRESENTATION (  '', ( #306 ), #263 ) ;
#124 = EDGE_CURVE ( 'NONE', #79, #145, #212, .T. ) ;
#125 = DIRECTION ( 'NONE',  ( -0.0000000000000000000, -0.0000000000000000000, -1.000000000000000000 ) ) ;
#126 = ORIENTED_EDGE ( 'NONE', *, *, #274, .F. ) ;
#127 = CARTESIAN_POINT ( 'NONE',  ( 0.09500000000000015377, 0.0000000000000000000, 1.125000000000000222 ) ) ;
#128 = ADVANCED_FACE ( 'NONE', ( #230, #344 ), #173, .T. ) ;
#129 = ORIENTED_EDGE ( 'NONE', *, *, #144, .F. ) ;
#130 = FACE_OUTER_BOUND ( 'NONE', #165, .T. ) ;
#131 = EDGE_LOOP ( 'NONE', ( #266, #269, #184, #284 ) ) ;
#132 = EDGE_CURVE ( 'NONE', #55, #252, #196, .T. ) ;
#133 = DIRECTION ( 'NONE',  ( -0.7071067811865385799, 0.0000000000000000000, -0.7071067811865563435 ) ) ;
#134 = VECTOR ( 'NONE', #20, 39.37007874015748143 ) ;
#135 = CARTESIAN_POINT ( 'NONE',  ( 0.0000000000000000000, 0.0000000000000000000, 0.0000000000000000000 ) ) ;
#136 = LINE ( 'NONE', #255, #233 ) ;
#137 = CARTESIAN_POINT ( 'NONE',  ( -0.09500000000000001499, 0.0000000000000000000, 0.1250000000000000278 ) ) ;
#138 = CARTESIAN_POINT ( 'NONE',  ( -0.1875000000000000278, 0.0000000000000000000, 2.500000000000000000 ) ) ;
#139 = AXIS2_PLACEMENT_3D ( 'NONE', #241, #187, #5 ) ;
#140 = CARTESIAN_POINT ( 'NONE',  ( 0.1724999999999995981, 2.112515728529179297E-17, 2.500000000000000000 ) ) ;
#141 = ORIENTED_EDGE ( 'NONE', *, *, #151, .F. ) ;
#142 = CARTESIAN_POINT ( 'NONE',  ( -0.1875000000000000278, 0.0000000000000000000, 2.500000000000000000 ) ) ;
#143 = DIRECTION ( 'NONE',  ( -0.0000000000000000000, -0.0000000000000000000, -1.000000000000000000 ) ) ;
#144 = EDGE_CURVE ( 'NONE', #296, #22, #341, .T. ) ;
#145 = VERTEX_POINT ( 'NONE', #127 ) ;
#146 = AXIS2_PLACEMENT_3D ( 'NONE', #364, #246, #67 ) ;
#147 = CLOSED_SHELL ( 'NONE', ( #340, #72, #176, #218, #309, #62, #336, #378, #271, #60, #128, #66, #311 ) ) ;
#148 = AXIS2_PLACEMENT_3D ( 'NONE', #204, #316, #314 ) ;
#149 = DIRECTION ( 'NONE',  ( -0.0000000000000000000, -0.0000000000000000000, -1.000000000000000000 ) ) ;
#150 = CARTESIAN_POINT ( 'NONE',  ( 0.0000000000000000000, 0.0000000000000000000, 2.500000000000000000 ) ) ;
#151 = EDGE_CURVE ( 'NONE', #22, #296, #221, .T. ) ;
#152 = CARTESIAN_POINT ( 'NONE',  ( 0.0000000000000000000, 0.0000000000000000000, 0.0000000000000000000 ) ) ;
#153 =( NAMED_UNIT ( * ) SI_UNIT ( $, .STERADIAN. ) SOLID_ANGLE_UNIT ( ) );
#154 = LENGTH_MEASURE_WITH_UNIT ( LENGTH_MEASURE( 0.02539999999999999897 ), #201 );
#155 = CYLINDRICAL_SURFACE ( 'NONE', #114, 0.09500000000000008438 ) ;
#156 = EDGE_CURVE ( 'NONE', #249, #51, #289, .T. ) ;
#157 = CARTESIAN_POINT ( 'NONE',  ( 0.1875000000000000278, 2.296212748401287726E-17, 2.500000000000000000 ) ) ;
#158 = CARTESIAN_POINT ( 'NONE',  ( -0.1724999999999995981, 0.0000000000000000000, 2.500000000000000000 ) ) ;
#159 = DIRECTION ( 'NONE',  ( -0.0000000000000000000, -0.0000000000000000000, -1.000000000000000000 ) ) ;
#160 = ORIENTED_EDGE ( 'NONE', *, *, #124, .T. ) ;
#161 = PRODUCT_DEFINITION_CONTEXT ( 'detailed design', #109, 'design' ) ;
#162 = CARTESIAN_POINT ( 'NONE',  ( 0.1875000000000000555, 2.296212748401288034E-17, 0.1250000000000000000 ) ) ;
#163 = VECTOR ( 'NONE', #73, 39.37007874015748143 ) ;
#164 = DIRECTION ( 'NONE',  ( 1.000000000000000000, 0.0000000000000000000, 0.0000000000000000000 ) ) ;
#165 = EDGE_LOOP ( 'NONE', ( #34, #194, #277, #113 ) ) ;
#166 = CYLINDRICAL_SURFACE ( 'NONE', #347, 0.09500000000000008438 ) ;
#167 = FILL_AREA_STYLE ('',( #78 ) ) ;
#168 = EDGE_CURVE ( 'NONE', #46, #193, #257, .T. ) ;
#169 = ORIENTED_EDGE ( 'NONE', *, *, #156, .F. ) ;
#170 = DIRECTION ( 'NONE',  ( 0.0000000000000000000, 0.0000000000000000000, 1.000000000000000000 ) ) ;
#171 = ORIENTED_EDGE ( 'NONE', *, *, #156, .T. ) ;
#172 = FILL_AREA_STYLE ('',( #279 ) ) ;
#173 = PLANE ( 'NONE',  #361 ) ;
#174 = VECTOR ( 'NONE', #74, 39.37007874015748143 ) ;
#175 = DIRECTION ( 'NONE',  ( -1.000000000000000000, 0.0000000000000000000, 0.0000000000000000000 ) ) ;
#176 = ADVANCED_FACE ( 'NONE', ( #130 ), #298, .T. ) ;
#177 = DIRECTION ( 'NONE',  ( 1.000000000000000000, 0.0000000000000000000, 0.0000000000000000000 ) ) ;
#178 = LENGTH_MEASURE_WITH_UNIT ( LENGTH_MEASURE( 0.02539999999999999897 ), #368 );
#179 = CYLINDRICAL_SURFACE ( 'NONE', #1, 0.1875000000000000278 ) ;
#180 = CIRCLE ( 'NONE', #139, 0.1724999999999995981 ) ;
#181 = PLANE ( 'NONE',  #239 ) ;
#182 = EDGE_CURVE ( 'NONE', #296, #193, #328, .T. ) ;
#183 = DIRECTION ( 'NONE',  ( 1.000000000000000000, 0.0000000000000000000, 0.0000000000000000000 ) ) ;
#184 = ORIENTED_EDGE ( 'NONE', *, *, #168, .F. ) ;
#185 = ORIENTED_EDGE ( 'NONE', *, *, #211, .T. ) ;
#186 = AXIS2_PLACEMENT_3D ( 'NONE', #48, #50, #253 ) ;
#187 = DIRECTION ( 'NONE',  ( 0.0000000000000000000, 0.0000000000000000000, 1.000000000000000000 ) ) ;
#188 = CARTESIAN_POINT ( 'NONE',  ( 0.09500000000000008438, 1.163414459189986514E-17, 0.0000000000000000000 ) ) ;
#189 = DIRECTION ( 'NONE',  ( 1.000000000000000000, 0.0000000000000000000, 0.0000000000000000000 ) ) ;
#190 =( GEOMETRIC_REPRESENTATION_CONTEXT ( 3 ) GLOBAL_UNCERTAINTY_ASSIGNED_CONTEXT ( ( #103 ) ) GLOBAL_UNIT_ASSIGNED_CONTEXT ( ( #342, #334, #227 ) ) REPRESENTATION_CONTEXT ( 'NONE', 'WORKASPACE' ) );
#191 = ORIENTED_EDGE ( 'NONE', *, *, #69, .T. ) ;
#192 = DIRECTION ( 'NONE',  ( 0.7071067811865385799, 8.659560562354823157E-17, -0.7071067811865563435 ) ) ;
#193 = VERTEX_POINT ( 'NONE', #265 ) ;
#194 = ORIENTED_EDGE ( 'NONE', *, *, #362, .T. ) ;
#195 = FACE_OUTER_BOUND ( 'NONE', #339, .T. ) ;
#196 = CIRCLE ( 'NONE', #30, 0.1875000000000000555 ) ;
#197 = ORIENTED_EDGE ( 'NONE', *, *, #286, .F. ) ;
#198 = DIRECTION ( 'NONE',  ( -0.0000000000000000000, -0.0000000000000000000, -1.000000000000000000 ) ) ;
#199 = ORIENTED_EDGE ( 'NONE', *, *, #36, .T. ) ;
#200 = CARTESIAN_POINT ( 'NONE',  ( -0.09500000000000015377, 1.729813603795637505E-17, 1.125000000000000222 ) ) ;
#201 =( LENGTH_UNIT ( ) NAMED_UNIT ( * ) SI_UNIT ( $, .METRE. ) );
#202 = MECHANICAL_DESIGN_GEOMETRIC_PRESENTATION_REPRESENTATION (  '', ( #53 ), #299 ) ;
#203 = ADVANCED_BREP_SHAPE_REPRESENTATION ( 'Micro_KC-375-1125-125X', ( #47, #148 ), #190 ) ;
#204 = CARTESIAN_POINT ( 'NONE',  ( 0.0000000000000000000, 0.0000000000000000000, 0.0000000000000000000 ) ) ;
#205 =( NAMED_UNIT ( * ) SI_UNIT ( $, .STERADIAN. ) SOLID_ANGLE_UNIT ( ) );
#206 = AXIS2_PLACEMENT_3D ( 'NONE', #150, #350, #379 ) ;
#207 = FACE_OUTER_BOUND ( 'NONE', #131, .T. ) ;
#208 = CYLINDRICAL_SURFACE ( 'NONE', #222, 0.1875000000000000278 ) ;
#209 = ORIENTED_EDGE ( 'NONE', *, *, #362, .F. ) ;
#210 = CARTESIAN_POINT ( 'NONE',  ( 0.1724999999999995981, 2.204364238465233357E-17, 2.500000000000000000 ) ) ;
#211 = EDGE_CURVE ( 'NONE', #79, #365, #353, .T. ) ;
#212 = CIRCLE ( 'NONE', #52, 0.09500000000000015377 ) ;
#213 = CONICAL_SURFACE ( 'NONE', #88, 0.1724999999999995981, 0.7853981633974357335 ) ;
#214 = CARTESIAN_POINT ( 'NONE',  ( 0.09500000000000001499, 1.163414459189986206E-17, 0.1250000000000000278 ) ) ;
#215 = EDGE_LOOP ( 'NONE', ( #209, #366, #293, #220 ) ) ;
#216 = DIRECTION ( 'NONE',  ( 0.0000000000000000000, 0.0000000000000000000, 1.000000000000000000 ) ) ;
#217 = ORIENTED_EDGE ( 'NONE', *, *, #132, .T. ) ;
#218 = ADVANCED_FACE ( 'NONE', ( #297 ), #213, .T. ) ;
#219 = DIRECTION ( 'NONE',  ( -0.0000000000000000000, -0.0000000000000000000, -1.000000000000000000 ) ) ;
#220 = ORIENTED_EDGE ( 'NONE', *, *, #108, .T. ) ;
#221 = CIRCLE ( 'NONE', #146, 0.1875000000000000278 ) ;
#222 = AXIS2_PLACEMENT_3D ( 'NONE', #320, #270, #65 ) ;
#223 = CARTESIAN_POINT ( 'NONE',  ( -0.1875000000000000278, 0.0000000000000000000, 2.484999999999999432 ) ) ;
#224 = CARTESIAN_POINT ( 'NONE',  ( 0.0000000000000000000, 0.0000000000000000000, 2.500000000000000000 ) ) ;
#225 = ORIENTED_EDGE ( 'NONE', *, *, #235, .T. ) ;
#226 = SURFACE_STYLE_USAGE ( .BOTH. , #369 ) ;
#227 =( NAMED_UNIT ( * ) SI_UNIT ( $, .STERADIAN. ) SOLID_ANGLE_UNIT ( ) );
#228 = DIRECTION ( 'NONE',  ( -0.0000000000000000000, -0.0000000000000000000, -1.000000000000000000 ) ) ;
#229 = AXIS2_PLACEMENT_3D ( 'NONE', #360, #125, #264 ) ;
#230 = FACE_BOUND ( 'NONE', #83, .T. ) ;
#231 = DIRECTION ( 'NONE',  ( -0.0000000000000000000, -0.0000000000000000000, -1.000000000000000000 ) ) ;
#232 = CARTESIAN_POINT ( 'NONE',  ( 0.0000000000000000000, 0.0000000000000000000, 1.217499999999999583 ) ) ;
#233 = VECTOR ( 'NONE', #335, 39.37007874015748143 ) ;
#234 = VECTOR ( 'NONE', #198, 39.37007874015748143 ) ;
#235 = EDGE_CURVE ( 'NONE', #145, #301, #327, .T. ) ;
#236 = DIRECTION ( 'NONE',  ( 0.0000000000000000000, 0.0000000000000000000, 1.000000000000000000 ) ) ;
#237 =( CONVERSION_BASED_UNIT ( 'INCH', #154 ) LENGTH_UNIT ( ) NAMED_UNIT ( #97 ) );
#238 = DIRECTION ( 'NONE',  ( -1.000000000000000000, 0.0000000000000000000, 0.0000000000000000000 ) ) ;
#239 = AXIS2_PLACEMENT_3D ( 'NONE', #152, #236, #118 ) ;
#240 = CARTESIAN_POINT ( 'NONE',  ( 0.1875000000000000278, 2.296212748401287726E-17, 0.0000000000000000000 ) ) ;
#241 = CARTESIAN_POINT ( 'NONE',  ( 0.0000000000000000000, 0.0000000000000000000, 2.500000000000000000 ) ) ;
#242 = EDGE_CURVE ( 'NONE', #252, #55, #294, .T. ) ;
#243 = ORIENTED_EDGE ( 'NONE', *, *, #373, .T. ) ;
#244 = DIRECTION ( 'NONE',  ( -0.0000000000000000000, -0.0000000000000000000, -1.000000000000000000 ) ) ;
#245 = AXIS2_PLACEMENT_3D ( 'NONE', #86, #89, #177 ) ;
#246 = DIRECTION ( 'NONE',  ( 0.0000000000000000000, 0.0000000000000000000, -1.000000000000000000 ) ) ;
#247 = EDGE_CURVE ( 'NONE', #301, #365, #363, .T. ) ;
#248 = VERTEX_POINT ( 'NONE', #158 ) ;
#249 = VERTEX_POINT ( 'NONE', #240 ) ;
#250 = COLOUR_RGB ( '',0.7921568627450980005, 0.8196078431372548767, 0.9333333333333333481 ) ;
#251 = SURFACE_STYLE_USAGE ( .BOTH. , #278 ) ;
#252 = VERTEX_POINT ( 'NONE', #162 ) ;
#253 = DIRECTION ( 'NONE',  ( 1.000000000000000000, 0.0000000000000000000, -0.0000000000000000000 ) ) ;
#254 = ORIENTED_EDGE ( 'NONE', *, *, #182, .F. ) ;
#255 = CARTESIAN_POINT ( 'NONE',  ( 0.09500000000000015377, 0.0000000000000000000, 1.125000000000000222 ) ) ;
#256 = EDGE_CURVE ( 'NONE', #248, #282, #180, .T. ) ;
#257 = CIRCLE ( 'NONE', #319, 0.1875000000000000278 ) ;
#258 = ORIENTED_EDGE ( 'NONE', *, *, #274, .T. ) ;
#259 = AXIS2_PLACEMENT_3D ( 'NONE', #98, #8, #39 ) ;
#260 = DIRECTION ( 'NONE',  ( -0.0000000000000000000, -0.0000000000000000000, -1.000000000000000000 ) ) ;
#261 = PRODUCT_CONTEXT ( 'NONE', #27, 'mechanical' ) ;
#262 = DIRECTION ( 'NONE',  ( -0.0000000000000000000, -0.0000000000000000000, -1.000000000000000000 ) ) ;
#263 =( GEOMETRIC_REPRESENTATION_CONTEXT ( 3 ) GLOBAL_UNCERTAINTY_ASSIGNED_CONTEXT ( ( #304 ) ) GLOBAL_UNIT_ASSIGNED_CONTEXT ( ( #237, #287, #205 ) ) REPRESENTATION_CONTEXT ( 'NONE', 'WORKASPACE' ) );
#264 = DIRECTION ( 'NONE',  ( -1.000000000000000000, 0.0000000000000000000, 0.0000000000000000000 ) ) ;
#265 = CARTESIAN_POINT ( 'NONE',  ( 0.1875000000000000278, 2.296212748401287726E-17, 1.217499999999999583 ) ) ;
#266 = ORIENTED_EDGE ( 'NONE', *, *, #151, .T. ) ;
#267 = VECTOR ( 'NONE', #192, 39.37007874015748854 ) ;
#268 = CARTESIAN_POINT ( 'NONE',  ( -0.09500000000000008438, 0.0000000000000000000, 0.0000000000000000000 ) ) ;
#269 = ORIENTED_EDGE ( 'NONE', *, *, #182, .T. ) ;
#270 = DIRECTION ( 'NONE',  ( -0.0000000000000000000, -0.0000000000000000000, -1.000000000000000000 ) ) ;
#271 = ADVANCED_FACE ( 'NONE', ( #358 ), #106, .T. ) ;
#272 = ORIENTED_EDGE ( 'NONE', *, *, #256, .T. ) ;
#273 = DIRECTION ( 'NONE',  ( 1.000000000000000000, 0.0000000000000000000, 0.0000000000000000000 ) ) ;
#274 = EDGE_CURVE ( 'NONE', #248, #22, #96, .T. ) ;
#275 = ORIENTED_EDGE ( 'NONE', *, *, #242, .T. ) ;
#276 = APPLICATION_PROTOCOL_DEFINITION ( 'draft international standard', 'automotive_design', 1998, #27 ) ;
#277 = ORIENTED_EDGE ( 'NONE', *, *, #168, .T. ) ;
#278 = SURFACE_SIDE_STYLE ('',( #338 ) ) ;
#279 = FILL_AREA_STYLE_COLOUR ( '', #250 ) ;
#280 = CIRCLE ( 'NONE', #206, 0.1724999999999995981 ) ;
#281 = DIRECTION ( 'NONE',  ( 0.0000000000000000000, 0.0000000000000000000, -1.000000000000000000 ) ) ;
#282 = VERTEX_POINT ( 'NONE', #210 ) ;
#283 = CARTESIAN_POINT ( 'NONE',  ( 0.0000000000000000000, 0.0000000000000000000, 2.500000000000000000 ) ) ;
#284 = ORIENTED_EDGE ( 'NONE', *, *, #4, .F. ) ;
#285 = ORIENTED_EDGE ( 'NONE', *, *, #247, .F. ) ;
#286 = EDGE_CURVE ( 'NONE', #365, #301, #13, .T. ) ;
#287 =( NAMED_UNIT ( * ) PLANE_ANGLE_UNIT ( ) SI_UNIT ( $, .RADIAN. ) );
#288 = DIRECTION ( 'NONE',  ( -1.000000000000000000, 0.0000000000000000000, 0.0000000000000000000 ) ) ;
#289 = CIRCLE ( 'NONE', #12, 0.1875000000000000278 ) ;
#290 = AXIS2_PLACEMENT_3D ( 'NONE', #122, #356, #273 ) ;
#291 = CARTESIAN_POINT ( 'NONE',  ( 0.0000000000000000000, 0.0000000000000000000, 1.125000000000000222 ) ) ;
#292 = FACE_OUTER_BOUND ( 'NONE', #331, .T. ) ;
#293 = ORIENTED_EDGE ( 'NONE', *, *, #28, .T. ) ;
#294 = CIRCLE ( 'NONE', #229, 0.1875000000000000555 ) ;
#295 = CARTESIAN_POINT ( 'NONE',  ( 0.0000000000000000000, 0.0000000000000000000, 0.1250000000000000278 ) ) ;
#296 = VERTEX_POINT ( 'NONE', #94 ) ;
#297 = FACE_OUTER_BOUND ( 'NONE', #310, .T. ) ;
#298 = CONICAL_SURFACE ( 'NONE', #352, 0.09500000000000015377, 0.7853981633974502774 ) ;
#299 =( GEOMETRIC_REPRESENTATION_CONTEXT ( 3 ) GLOBAL_UNCERTAINTY_ASSIGNED_CONTEXT ( ( #367 ) ) GLOBAL_UNIT_ASSIGNED_CONTEXT ( ( #120, #58, #153 ) ) REPRESENTATION_CONTEXT ( 'NONE', 'WORKASPACE' ) );
#300 = FACE_OUTER_BOUND ( 'NONE', #322, .T. ) ;
#301 = VERTEX_POINT ( 'NONE', #214 ) ;
#302 = DIRECTION ( 'NONE',  ( -1.000000000000000000, 0.0000000000000000000, 0.0000000000000000000 ) ) ;
#303 = CARTESIAN_POINT ( 'NONE',  ( -0.1875000000000000278, 0.0000000000000000000, 1.217499999999999583 ) ) ;
#304 = UNCERTAINTY_MEASURE_WITH_UNIT (LENGTH_MEASURE( 1.000000000000000082E-05 ), #237, 'distance_accuracy_value', 'NONE');
#305 = ORIENTED_EDGE ( 'NONE', *, *, #95, .F. ) ;
#306 = STYLED_ITEM ( 'NONE', ( #91 ), #47 ) ;
#307 = VECTOR ( 'NONE', #41, 39.37007874015748143 ) ;
#308 = CYLINDRICAL_SURFACE ( 'NONE', #19, 0.1875000000000000278 ) ;
#309 = ADVANCED_FACE ( 'NONE', ( #207 ), #208, .T. ) ;
#310 = EDGE_LOOP ( 'NONE', ( #305, #9, #141, #126 ) ) ;
#311 = ADVANCED_FACE ( 'NONE', ( #292 ), #323, .T. ) ;
#312 = ORIENTED_EDGE ( 'NONE', *, *, #370, .F. ) ;
#313 = DIRECTION ( 'NONE',  ( -0.0000000000000000000, -0.0000000000000000000, -1.000000000000000000 ) ) ;
#314 = DIRECTION ( 'NONE',  ( 1.000000000000000000, 0.0000000000000000000, 0.0000000000000000000 ) ) ;
#315 = DIRECTION ( 'NONE',  ( -0.0000000000000000000, -0.0000000000000000000, -1.000000000000000000 ) ) ;
#316 = DIRECTION ( 'NONE',  ( 0.0000000000000000000, 0.0000000000000000000, 1.000000000000000000 ) ) ;
#317 = CARTESIAN_POINT ( 'NONE',  ( -0.1875000000000000555, 0.0000000000000000000, 0.1250000000000000000 ) ) ;
#318 = DIRECTION ( 'NONE',  ( -1.000000000000000000, 0.0000000000000000000, 0.0000000000000000000 ) ) ;
#319 = AXIS2_PLACEMENT_3D ( 'NONE', #100, #244, #189 ) ;
#320 = CARTESIAN_POINT ( 'NONE',  ( 0.0000000000000000000, 0.0000000000000000000, 2.500000000000000000 ) ) ;
#321 = EDGE_CURVE ( 'NONE', #282, #296, #82, .T. ) ;
#322 = EDGE_LOOP ( 'NONE', ( #40, #107, #258, #129 ) ) ;
#323 = CYLINDRICAL_SURFACE ( 'NONE', #71, 0.1875000000000000278 ) ;
#324 = ORIENTED_EDGE ( 'NONE', *, *, #286, .T. ) ;
#325 = DIRECTION ( 'NONE',  ( 0.0000000000000000000, 0.0000000000000000000, 1.000000000000000000 ) ) ;
#326 = VECTOR ( 'NONE', #143, 39.37007874015748143 ) ;
#327 = LINE ( 'NONE', #188, #307 ) ;
#328 = LINE ( 'NONE', #157, #163 ) ;
#329 = EDGE_LOOP ( 'NONE', ( #77, #191, #185, #285 ) ) ;
#330 = DIRECTION ( 'NONE',  ( -0.0000000000000000000, -0.0000000000000000000, -1.000000000000000000 ) ) ;
#331 = EDGE_LOOP ( 'NONE', ( #42, #275, #56, #243 ) ) ;
#332 = CIRCLE ( 'NONE', #43, 0.1875000000000000278 ) ;
#333 = PRESENTATION_LAYER_ASSIGNMENT (  '', '', ( #53 ) ) ;
#334 =( NAMED_UNIT ( * ) PLANE_ANGLE_UNIT ( ) SI_UNIT ( $, .RADIAN. ) );
#335 = DIRECTION ( 'NONE',  ( 0.7071067811865489050, 0.0000000000000000000, 0.7071067811865461294 ) ) ;
#336 = ADVANCED_FACE ( 'NONE', ( #195 ), #54, .T. ) ;
#337 = PRESENTATION_STYLE_ASSIGNMENT (( #251 ) ) ;
#338 = SURFACE_STYLE_FILL_AREA ( #167 ) ;
#339 = EDGE_LOOP ( 'NONE', ( #272, #49 ) ) ;
#340 = ADVANCED_FACE ( 'NONE', ( #374 ), #308, .T. ) ;
#341 = CIRCLE ( 'NONE', #245, 0.1875000000000000278 ) ;
#342 =( CONVERSION_BASED_UNIT ( 'INCH', #371 ) LENGTH_UNIT ( ) NAMED_UNIT ( #90 ) );
#343 = ORIENTED_EDGE ( 'NONE', *, *, #132, .F. ) ;
#344 = FACE_OUTER_BOUND ( 'NONE', #359, .T. ) ;
#345 = APPLICATION_PROTOCOL_DEFINITION ( 'draft international standard', 'automotive_design', 1998, #109 ) ;
#346 = DIRECTION ( 'NONE',  ( -1.000000000000000000, 0.0000000000000000000, 0.0000000000000000000 ) ) ;
#347 = AXIS2_PLACEMENT_3D ( 'NONE', #31, #149, #318 ) ;
#348 = AXIS2_PLACEMENT_3D ( 'NONE', #295, #159, #238 ) ;
#349 = DIRECTION ( 'NONE',  ( -1.000000000000000000, 0.0000000000000000000, 0.0000000000000000000 ) ) ;
#350 = DIRECTION ( 'NONE',  ( 0.0000000000000000000, 0.0000000000000000000, 1.000000000000000000 ) ) ;
#351 = PRODUCT_RELATED_PRODUCT_CATEGORY ( 'part', '', ( #38 ) ) ;
#352 = AXIS2_PLACEMENT_3D ( 'NONE', #35, #216, #183 ) ;
#353 = LINE ( 'NONE', #268, #174 ) ;
#354 = VECTOR ( 'NONE', #228, 39.37007874015748143 ) ;
#355 = CIRCLE ( 'NONE', #92, 0.1875000000000000278 ) ;
#356 = DIRECTION ( 'NONE',  ( 0.0000000000000000000, 0.0000000000000000000, 1.000000000000000000 ) ) ;
#357 = PRODUCT_DEFINITION_SHAPE ( 'NONE', 'NONE',  #81 ) ;
#358 = FACE_OUTER_BOUND ( 'NONE', #215, .T. ) ;
#359 = EDGE_LOOP ( 'NONE', ( #343, #80 ) ) ;
#360 = CARTESIAN_POINT ( 'NONE',  ( 0.0000000000000000000, 0.0000000000000000000, 0.1250000000000000000 ) ) ;
#361 = AXIS2_PLACEMENT_3D ( 'NONE', #85, #25, #116 ) ;
#362 = EDGE_CURVE ( 'NONE', #79, #46, #112, .T. ) ;
#363 = CIRCLE ( 'NONE', #259, 0.09500000000000001499 ) ;
#364 = CARTESIAN_POINT ( 'NONE',  ( 0.0000000000000000000, 0.0000000000000000000, 2.484999999999999432 ) ) ;
#365 = VERTEX_POINT ( 'NONE', #137 ) ;
#366 = ORIENTED_EDGE ( 'NONE', *, *, #69, .F. ) ;
#367 = UNCERTAINTY_MEASURE_WITH_UNIT (LENGTH_MEASURE( 1.000000000000000082E-05 ), #120, 'distance_accuracy_value', 'NONE');
#368 =( LENGTH_UNIT ( ) NAMED_UNIT ( * ) SI_UNIT ( $, .METRE. ) );
#369 = SURFACE_SIDE_STYLE ('',( #18 ) ) ;
#370 = EDGE_CURVE ( 'NONE', #55, #51, #104, .T. ) ;
#371 = LENGTH_MEASURE_WITH_UNIT ( LENGTH_MEASURE( 0.02539999999999999897 ), #45 );
#372 = ORIENTED_EDGE ( 'NONE', *, *, #144, .T. ) ;
#373 = EDGE_CURVE ( 'NONE', #51, #249, #355, .T. ) ;
#374 = FACE_OUTER_BOUND ( 'NONE', #23, .T. ) ;
#375 = LINE ( 'NONE', #84, #354 ) ;
#376 = VECTOR ( 'NONE', #133, 39.37007874015748854 ) ;
#377 = DIRECTION ( 'NONE',  ( -0.0000000000000000000, -0.0000000000000000000, -1.000000000000000000 ) ) ;
#378 = ADVANCED_FACE ( 'NONE', ( #300 ), #44, .T. ) ;
#379 = DIRECTION ( 'NONE',  ( 1.000000000000000000, 0.0000000000000000000, 0.0000000000000000000 ) ) ;
ENDSEC;
END-ISO-10303-21;
