ISO-10303-21;
HEADER;
FILE_DESCRIPTION (( 'STEP AP214' ),
    '1' );
FILE_NAME ('84762.STEP',
    '2023-06-30T23:49:11',
    ( '' ),
    ( '' ),
    'SwSTEP 2.0',
    'SolidWorks 2023',
    '' );
FILE_SCHEMA (( 'AUTOMOTIVE_DESIGN' ));
ENDSEC;

DATA;
#1 = ORIENTED_EDGE ( 'NONE', *, *, #125, .F. ) ;
#2 = CLOSED_SHELL ( 'NONE', ( #95, #68, #320, #9 ) ) ;
#3 = CIRCLE ( 'NONE', #218, 0.1874999999999999167 ) ;
#4 = CIRCLE ( 'NONE', #71, 0.1874999999999999722 ) ;
#5 =( CONVERSION_BASED_UNIT ( 'INCH', #267 ) LENGTH_UNIT ( ) NAMED_UNIT ( #206 ) );
#6 = DIRECTION ( 'NONE',  ( 0.000000000000000000, -0.000000000000000000, 1.000000000000000000 ) ) ;
#7 = ORIENTED_EDGE ( 'NONE', *, *, #234, .T. ) ;
#8 = CARTESIAN_POINT ( 'NONE',  ( 0.1874999999999997780, 4.000000000000000000, 0.000000000000000000 ) ) ;
#9 = ADVANCED_FACE ( 'NONE', ( #114 ), #268, .F. ) ;
#10 = SURFACE_STYLE_USAGE ( .BOTH. , #265 ) ;
#11 = AXIS2_PLACEMENT_3D ( 'NONE', #199, #294, #146 ) ;
#12 = MECHANICAL_DESIGN_GEOMETRIC_PRESENTATION_REPRESENTATION (  '', ( #348 ), #276 ) ;
#13 =( CONVERSION_BASED_UNIT ( 'INCH', #65 ) LENGTH_UNIT ( ) NAMED_UNIT ( #239 ) );
#14 = VERTEX_POINT ( 'NONE', #318 ) ;
#15 = EDGE_CURVE ( 'NONE', #356, #344, #45, .T. ) ;
#16 = LINE ( 'NONE', #126, #164 ) ;
#17 = FACE_OUTER_BOUND ( 'NONE', #338, .T. ) ;
#18 = DIRECTION ( 'NONE',  ( -1.000000000000000000, 0.000000000000000000, 0.000000000000000000 ) ) ;
#19 = SURFACE_STYLE_FILL_AREA ( #330 ) ;
#20 = DIRECTION ( 'NONE',  ( -1.224646799147352961E-16, 1.000000000000000000, -0.000000000000000000 ) ) ;
#21 = FILL_AREA_STYLE ('',( #186 ) ) ;
#22 = STYLED_ITEM ( 'NONE', ( #38 ), #204 ) ;
#23 = PRESENTATION_LAYER_ASSIGNMENT (  '', '', ( #348 ) ) ;
#24 = CIRCLE ( 'NONE', #253, 0.1874999999999999167 ) ;
#25 = UNCERTAINTY_MEASURE_WITH_UNIT (LENGTH_MEASURE( 1.000000000000000082E-05 ), #13, 'distance_accuracy_value', 'NONE');
#26 = ORIENTED_EDGE ( 'NONE', *, *, #297, .F. ) ;
#27 = ORIENTED_EDGE ( 'NONE', *, *, #327, .T. ) ;
#28 = LINE ( 'NONE', #51, #136 ) ;
#29 =( GEOMETRIC_REPRESENTATION_CONTEXT ( 3 ) GLOBAL_UNCERTAINTY_ASSIGNED_CONTEXT ( ( #25 ) ) GLOBAL_UNIT_ASSIGNED_CONTEXT ( ( #13, #261, #201 ) ) REPRESENTATION_CONTEXT ( 'NONE', 'WORKASPACE' ) );
#30 = PRESENTATION_LAYER_ASSIGNMENT (  '', '', ( #22 ) ) ;
#31 = SURFACE_STYLE_USAGE ( .BOTH. , #77 ) ;
#32 = VERTEX_POINT ( 'NONE', #64 ) ;
#33 = CARTESIAN_POINT ( 'NONE',  ( -0.1875000000000000278, 0.1875000000000000555, 2.296212748401287109E-17 ) ) ;
#34 = ORIENTED_EDGE ( 'NONE', *, *, #15, .T. ) ;
#35 = ORIENTED_EDGE ( 'NONE', *, *, #339, .T. ) ;
#36 = CIRCLE ( 'NONE', #196, 0.1874999999999999722 ) ;
#37 = AXIS2_PLACEMENT_3D ( 'NONE', #101, #20, #363 ) ;
#38 = PRESENTATION_STYLE_ASSIGNMENT (( #10 ) ) ;
#39 = FILL_AREA_STYLE ('',( #324 ) ) ;
#40 = PRESENTATION_LAYER_ASSIGNMENT (  '', '', ( #211 ) ) ;
#41 = DIRECTION ( 'NONE',  ( 1.000000000000000000, 0.000000000000000000, 0.000000000000000000 ) ) ;
#42 = STYLED_ITEM ( 'NONE', ( #129 ), #349 ) ;
#43 = AXIS2_PLACEMENT_3D ( 'NONE', #231, #91, #177 ) ;
#44 = DIRECTION ( 'NONE',  ( 0.000000000000000000, 0.000000000000000000, -1.000000000000000000 ) ) ;
#45 = CIRCLE ( 'NONE', #309, 0.1874999999999996669 ) ;
#46 = SURFACE_STYLE_USAGE ( .BOTH. , #366 ) ;
#47 =( GEOMETRIC_REPRESENTATION_CONTEXT ( 3 ) GLOBAL_UNCERTAINTY_ASSIGNED_CONTEXT ( ( #190 ) ) GLOBAL_UNIT_ASSIGNED_CONTEXT ( ( #79, #168, #163 ) ) REPRESENTATION_CONTEXT ( 'NONE', 'WORKASPACE' ) );
#48 = UNCERTAINTY_MEASURE_WITH_UNIT (LENGTH_MEASURE( 1.000000000000000082E-05 ), #367, 'distance_accuracy_value', 'NONE');
#49 = ORIENTED_EDGE ( 'NONE', *, *, #303, .F. ) ;
#50 = CARTESIAN_POINT ( 'NONE',  ( 0.000000000000000000, 0.000000000000000000, -0.1874999999999998890 ) ) ;
#51 = CARTESIAN_POINT ( 'NONE',  ( 2.296212748401285877E-17, 0.000000000000000000, 0.1874999999999998890 ) ) ;
#52 = STYLED_ITEM ( 'NONE', ( #81 ), #102 ) ;
#53 = SURFACE_SIDE_STYLE ('',( #283 ) ) ;
#54 =( NAMED_UNIT ( * ) PLANE_ANGLE_UNIT ( ) SI_UNIT ( $, .RADIAN. ) );
#55 = ADVANCED_FACE ( 'NONE', ( #58 ), #93, .T. ) ;
#56 = DIRECTION ( 'NONE',  ( -0.000000000000000000, -1.000000000000000000, -0.000000000000000000 ) ) ;
#57 =( CONVERSION_BASED_UNIT ( 'INCH', #259 ) LENGTH_UNIT ( ) NAMED_UNIT ( #59 ) );
#58 = FACE_OUTER_BOUND ( 'NONE', #286, .T. ) ;
#59 = DIMENSIONAL_EXPONENTS ( 1.000000000000000000, 0.000000000000000000, 0.000000000000000000, 0.000000000000000000, 0.000000000000000000, 0.000000000000000000, 0.000000000000000000 ) ;
#60 = AXIS2_PLACEMENT_3D ( 'NONE', #85, #173, #203 ) ;
#61 = APPLICATION_PROTOCOL_DEFINITION ( 'draft international standard', 'automotive_design', 1998, #143 ) ;
#62 = DIRECTION ( 'NONE',  ( -0.000000000000000000, -1.000000000000000000, -0.000000000000000000 ) ) ;
#63 = DIRECTION ( 'NONE',  ( 1.000000000000000000, 0.000000000000000000, 0.000000000000000000 ) ) ;
#64 = CARTESIAN_POINT ( 'NONE',  ( 2.296212748401284952E-17, 2.000000000000000000, 0.1874999999999997780 ) ) ;
#65 = LENGTH_MEASURE_WITH_UNIT ( LENGTH_MEASURE( 0.02539999999999999897 ), #151 );
#66 =( NAMED_UNIT ( * ) SI_UNIT ( $, .STERADIAN. ) SOLID_ANGLE_UNIT ( ) );
#67 =( CONVERSION_BASED_UNIT ( 'INCH', #103 ) LENGTH_UNIT ( ) NAMED_UNIT ( #150 ) );
#68 = ADVANCED_FACE ( 'NONE', ( #232 ), #86, .F. ) ;
#69 =( GEOMETRIC_REPRESENTATION_CONTEXT ( 3 ) GLOBAL_UNCERTAINTY_ASSIGNED_CONTEXT ( ( #132 ) ) GLOBAL_UNIT_ASSIGNED_CONTEXT ( ( #57, #149, #262 ) ) REPRESENTATION_CONTEXT ( 'NONE', 'WORKASPACE' ) );
#70 = CYLINDRICAL_SURFACE ( 'NONE', #37, 0.1874999999999997780 ) ;
#71 = AXIS2_PLACEMENT_3D ( 'NONE', #306, #182, #305 ) ;
#72 = CARTESIAN_POINT ( 'NONE',  ( -2.296212748401287726E-17, 0.1875000000000000278, 0.000000000000000000 ) ) ;
#73 = CARTESIAN_POINT ( 'NONE',  ( 0.000000000000000000, 0.1875000000000000555, 0.000000000000000000 ) ) ;
#74 = ADVANCED_FACE ( 'NONE', ( #358 ), #272, .T. ) ;
#75 = MECHANICAL_DESIGN_GEOMETRIC_PRESENTATION_REPRESENTATION (  '', ( #142 ), #29 ) ;
#76 =( GEOMETRIC_REPRESENTATION_CONTEXT ( 3 ) GLOBAL_UNCERTAINTY_ASSIGNED_CONTEXT ( ( #215 ) ) GLOBAL_UNIT_ASSIGNED_CONTEXT ( ( #67, #220, #66 ) ) REPRESENTATION_CONTEXT ( 'NONE', 'WORKASPACE' ) );
#77 = SURFACE_SIDE_STYLE ('',( #342 ) ) ;
#78 = EDGE_LOOP ( 'NONE', ( #354, #82 ) ) ;
#79 =( CONVERSION_BASED_UNIT ( 'INCH', #131 ) LENGTH_UNIT ( ) NAMED_UNIT ( #94 ) );
#80 = ORIENTED_EDGE ( 'NONE', *, *, #343, .T. ) ;
#81 = PRESENTATION_STYLE_ASSIGNMENT (( #31 ) ) ;
#82 = ORIENTED_EDGE ( 'NONE', *, *, #287, .F. ) ;
#83 = MECHANICAL_DESIGN_GEOMETRIC_PRESENTATION_REPRESENTATION (  '', ( #96 ), #230 ) ;
#84 = ORIENTED_EDGE ( 'NONE', *, *, #234, .F. ) ;
#85 = CARTESIAN_POINT ( 'NONE',  ( 0.000000000000000000, 0.000000000000000000, 0.000000000000000000 ) ) ;
#86 = PLANE ( 'NONE',  #11 ) ;
#87 = SURFACE_STYLE_USAGE ( .BOTH. , #295 ) ;
#88 = AXIS2_PLACEMENT_3D ( 'NONE', #212, #183, #329 ) ;
#89 =( LENGTH_UNIT ( ) NAMED_UNIT ( * ) SI_UNIT ( $, .METRE. ) );
#90 = SURFACE_SIDE_STYLE ('',( #115 ) ) ;
#91 = DIRECTION ( 'NONE',  ( 0.000000000000000000, 0.000000000000000000, -1.000000000000000000 ) ) ;
#92 = CARTESIAN_POINT ( 'NONE',  ( 0.000000000000000000, 0.000000000000000000, 0.000000000000000000 ) ) ;
#93 = PLANE ( 'NONE',  #282 ) ;
#94 = DIMENSIONAL_EXPONENTS ( 1.000000000000000000, 0.000000000000000000, 0.000000000000000000, 0.000000000000000000, 0.000000000000000000, 0.000000000000000000, 0.000000000000000000 ) ;
#95 = ADVANCED_FACE ( 'NONE', ( #17 ), #226, .T. ) ;
#96 = STYLED_ITEM ( 'NONE', ( #112 ), #152 ) ;
#97 = SURFACE_SIDE_STYLE ('',( #19 ) ) ;
#98 = CARTESIAN_POINT ( 'NONE',  ( 2.296212748401286801E-17, 0.1875000000000000555, 0.1874999999999999445 ) ) ;
#99 = EDGE_CURVE ( 'NONE', #254, #278, #153, .T. ) ;
#100 =( LENGTH_UNIT ( ) NAMED_UNIT ( * ) SI_UNIT ( $, .METRE. ) );
#101 = CARTESIAN_POINT ( 'NONE',  ( -1.224646799147352714E-16, 4.000000000000000000, 0.000000000000000000 ) ) ;
#102 = MANIFOLD_SOLID_BREP ( 'Revolve - Cutting Edge', #157 ) ;
#103 = LENGTH_MEASURE_WITH_UNIT ( LENGTH_MEASURE( 0.02539999999999999897 ), #100 );
#104 = PRODUCT_DEFINITION_CONTEXT ( 'detailed design', #143, 'design' ) ;
#105 = PRESENTATION_LAYER_ASSIGNMENT (  '', '', ( #52 ) ) ;
#106 = PRODUCT_RELATED_PRODUCT_CATEGORY ( 'part', '', ( #148 ) ) ;
#107 = CARTESIAN_POINT ( 'NONE',  ( 0.000000000000000000, 0.000000000000000000, 0.000000000000000000 ) ) ;
#108 =( CONVERSION_BASED_UNIT ( 'INCH', #191 ) LENGTH_UNIT ( ) NAMED_UNIT ( #326 ) );
#109 = ORIENTED_EDGE ( 'NONE', *, *, #187, .T. ) ;
#110 =( LENGTH_UNIT ( ) NAMED_UNIT ( * ) SI_UNIT ( $, .METRE. ) );
#111 = EDGE_LOOP ( 'NONE', ( #222, #229, #109, #7 ) ) ;
#112 = PRESENTATION_STYLE_ASSIGNMENT (( #138 ) ) ;
#113 = ORIENTED_EDGE ( 'NONE', *, *, #137, .T. ) ;
#114 = FACE_OUTER_BOUND ( 'NONE', #176, .T. ) ;
#115 = SURFACE_STYLE_FILL_AREA ( #292 ) ;
#116 = CARTESIAN_POINT ( 'NONE',  ( -2.296212748401287726E-17, 0.1875000000000000278, 0.000000000000000000 ) ) ;
#117 =( NAMED_UNIT ( * ) SI_UNIT ( $, .STERADIAN. ) SOLID_ANGLE_UNIT ( ) );
#118 = ORIENTED_EDGE ( 'NONE', *, *, #287, .T. ) ;
#119 = MECHANICAL_DESIGN_GEOMETRIC_PRESENTATION_REPRESENTATION (  '', ( #22 ), #69 ) ;
#120 = EDGE_CURVE ( 'NONE', #195, #247, #227, .T. ) ;
#121 = DIRECTION ( 'NONE',  ( -1.000000000000000000, 0.000000000000000000, 0.000000000000000000 ) ) ;
#122 = DIRECTION ( 'NONE',  ( 0.000000000000000000, 0.000000000000000000, -1.000000000000000000 ) ) ;
#123 = APPLICATION_CONTEXT ( 'automotive_design' ) ;
#124 = PRESENTATION_LAYER_ASSIGNMENT (  '', '', ( #42 ) ) ;
#125 = EDGE_CURVE ( 'NONE', #141, #247, #310, .T. ) ;
#126 = CARTESIAN_POINT ( 'NONE',  ( -0.1874999999999999167, 4.000000000000000000, 0.000000000000000000 ) ) ;
#127 = COLOUR_RGB ( '',1.000000000000000000, 0.000000000000000000, 0.000000000000000000 ) ;
#128 =( LENGTH_UNIT ( ) NAMED_UNIT ( * ) SI_UNIT ( $, .METRE. ) );
#129 = PRESENTATION_STYLE_ASSIGNMENT (( #46 ) ) ;
#130 = ORIENTED_EDGE ( 'NONE', *, *, #99, .T. ) ;
#131 = LENGTH_MEASURE_WITH_UNIT ( LENGTH_MEASURE( 0.02539999999999999897 ), #225 );
#132 = UNCERTAINTY_MEASURE_WITH_UNIT (LENGTH_MEASURE( 1.000000000000000082E-05 ), #57, 'distance_accuracy_value', 'NONE');
#133 = ORIENTED_EDGE ( 'NONE', *, *, #99, .F. ) ;
#134 = DIRECTION ( 'NONE',  ( -0.000000000000000000, -1.000000000000000000, -0.000000000000000000 ) ) ;
#135 = EDGE_LOOP ( 'NONE', ( #139, #118, #27, #281 ) ) ;
#136 = VECTOR ( 'NONE', #255, 39.37007874015748143 ) ;
#137 = EDGE_CURVE ( 'NONE', #32, #278, #28, .T. ) ;
#138 = SURFACE_STYLE_USAGE ( .BOTH. , #53 ) ;
#139 = ORIENTED_EDGE ( 'NONE', *, *, #339, .F. ) ;
#140 = CARTESIAN_POINT ( 'NONE',  ( 0.000000000000000000, 2.000000000000000000, -0.1874999999999997780 ) ) ;
#141 = VERTEX_POINT ( 'NONE', #33 ) ;
#142 = STYLED_ITEM ( 'NONE', ( #322 ), #55 ) ;
#143 = APPLICATION_CONTEXT ( 'automotive_design' ) ;
#144 =( LENGTH_UNIT ( ) NAMED_UNIT ( * ) SI_UNIT ( $, .METRE. ) );
#145 = APPLICATION_PROTOCOL_DEFINITION ( 'draft international standard', 'automotive_design', 1998, #123 ) ;
#146 = DIRECTION ( 'NONE',  ( -1.000000000000000000, -1.224646799147352961E-16, 0.000000000000000000 ) ) ;
#147 = DIRECTION ( 'NONE',  ( 0.000000000000000000, 0.000000000000000000, 1.000000000000000000 ) ) ;
#148 = PRODUCT ( '84762', '84762', '', ( #197 ) ) ;
#149 =( NAMED_UNIT ( * ) PLANE_ANGLE_UNIT ( ) SI_UNIT ( $, .RADIAN. ) );
#150 = DIMENSIONAL_EXPONENTS ( 1.000000000000000000, 0.000000000000000000, 0.000000000000000000, 0.000000000000000000, 0.000000000000000000, 0.000000000000000000, 0.000000000000000000 ) ;
#151 =( LENGTH_UNIT ( ) NAMED_UNIT ( * ) SI_UNIT ( $, .METRE. ) );
#152 = ADVANCED_FACE ( 'NONE', ( #167 ), #248, .T. ) ;
#153 = CIRCLE ( 'NONE', #321, 0.1874999999999999722 ) ;
#154 = AXIS2_PLACEMENT_3D ( 'NONE', #72, #368, #346 ) ;
#155 = DIRECTION ( 'NONE',  ( -1.224646799147352961E-16, 1.000000000000000000, -0.000000000000000000 ) ) ;
#156 = FACE_OUTER_BOUND ( 'NONE', #135, .T. ) ;
#157 = CLOSED_SHELL ( 'NONE', ( #74, #152, #55, #243, #204 ) ) ;
#158 = AXIS2_PLACEMENT_3D ( 'NONE', #92, #238, #41 ) ;
#159 = DIRECTION ( 'NONE',  ( -1.224646799147352961E-16, 1.000000000000000000, -0.000000000000000000 ) ) ;
#160 = SURFACE_STYLE_USAGE ( .BOTH. , #97 ) ;
#161 = UNCERTAINTY_MEASURE_WITH_UNIT (LENGTH_MEASURE( 1.000000000000000082E-05 ), #5, 'distance_accuracy_value', 'NONE');
#162 = CARTESIAN_POINT ( 'NONE',  ( 0.000000000000000000, 2.000000000000000000, 0.000000000000000000 ) ) ;
#163 =( NAMED_UNIT ( * ) SI_UNIT ( $, .STERADIAN. ) SOLID_ANGLE_UNIT ( ) );
#164 = VECTOR ( 'NONE', #159, 39.37007874015748143 ) ;
#165 =( LENGTH_UNIT ( ) NAMED_UNIT ( * ) SI_UNIT ( $, .METRE. ) );
#166 = ORIENTED_EDGE ( 'NONE', *, *, #275, .T. ) ;
#167 = FACE_OUTER_BOUND ( 'NONE', #193, .T. ) ;
#168 =( NAMED_UNIT ( * ) PLANE_ANGLE_UNIT ( ) SI_UNIT ( $, .RADIAN. ) );
#169 = COLOUR_RGB ( '',1.000000000000000000, 0.000000000000000000, 0.000000000000000000 ) ;
#170 = CIRCLE ( 'NONE', #154, 0.1875000000000000278 ) ;
#171 =( CONVERSION_BASED_UNIT ( 'INCH', #347 ) LENGTH_UNIT ( ) NAMED_UNIT ( #323 ) );
#172 = DIRECTION ( 'NONE',  ( 0.000000000000000000, 0.000000000000000000, -1.000000000000000000 ) ) ;
#173 = DIRECTION ( 'NONE',  ( -0.000000000000000000, -1.000000000000000000, -0.000000000000000000 ) ) ;
#174 = CARTESIAN_POINT ( 'NONE',  ( 0.000000000000000000, 0.1875000000000000555, -0.1874999999999999722 ) ) ;
#175 = FACE_OUTER_BOUND ( 'NONE', #111, .T. ) ;
#176 = EDGE_LOOP ( 'NONE', ( #257, #80 ) ) ;
#177 = DIRECTION ( 'NONE',  ( -1.000000000000000000, 0.000000000000000000, 0.000000000000000000 ) ) ;
#178 = ORIENTED_EDGE ( 'NONE', *, *, #120, .F. ) ;
#179 = COLOUR_RGB ( '',0.7921568627450980005, 0.8196078431372548767, 0.9333333333333333481 ) ;
#180 = AXIS2_PLACEMENT_3D ( 'NONE', #331, #213, #361 ) ;
#181 = CARTESIAN_POINT ( 'NONE',  ( -2.296212748401287726E-17, 0.1875000000000000278, 0.000000000000000000 ) ) ;
#182 = DIRECTION ( 'NONE',  ( -0.000000000000000000, -1.000000000000000000, -0.000000000000000000 ) ) ;
#183 = DIRECTION ( 'NONE',  ( -1.224646799147352961E-16, 1.000000000000000000, -0.000000000000000000 ) ) ;
#184 = PRESENTATION_LAYER_ASSIGNMENT (  '', '', ( #142 ) ) ;
#185 = AXIS2_PLACEMENT_3D ( 'NONE', #345, #194, #251 ) ;
#186 = FILL_AREA_STYLE_COLOUR ( '', #244 ) ;
#187 = EDGE_CURVE ( 'NONE', #247, #254, #36, .T. ) ;
#188 = FILL_AREA_STYLE ('',( #373 ) ) ;
#189 = MECHANICAL_DESIGN_GEOMETRIC_PRESENTATION_REPRESENTATION (  '', ( #52 ), #47 ) ;
#190 = UNCERTAINTY_MEASURE_WITH_UNIT (LENGTH_MEASURE( 1.000000000000000082E-05 ), #79, 'distance_accuracy_value', 'NONE');
#191 = LENGTH_MEASURE_WITH_UNIT ( LENGTH_MEASURE( 0.02539999999999999897 ), #110 );
#192 = ORIENTED_EDGE ( 'NONE', *, *, #297, .T. ) ;
#193 = EDGE_LOOP ( 'NONE', ( #166, #113, #133, #369, #178 ) ) ;
#194 = DIRECTION ( 'NONE',  ( -1.224646799147352961E-16, 1.000000000000000000, -0.000000000000000000 ) ) ;
#195 = VERTEX_POINT ( 'NONE', #140 ) ;
#196 = AXIS2_PLACEMENT_3D ( 'NONE', #207, #56, #352 ) ;
#197 = PRODUCT_CONTEXT ( 'NONE', #123, 'mechanical' ) ;
#198 = ORIENTED_EDGE ( 'NONE', *, *, #120, .T. ) ;
#199 = CARTESIAN_POINT ( 'NONE',  ( 1.224646799147353454E-16, 2.000000000000000000, 0.000000000000000000 ) ) ;
#200 =( NAMED_UNIT ( * ) PLANE_ANGLE_UNIT ( ) SI_UNIT ( $, .RADIAN. ) );
#201 =( NAMED_UNIT ( * ) SI_UNIT ( $, .STERADIAN. ) SOLID_ANGLE_UNIT ( ) );
#202 = AXIS2_PLACEMENT_3D ( 'NONE', #162, #359, #122 ) ;
#203 = DIRECTION ( 'NONE',  ( 0.000000000000000000, 0.000000000000000000, -1.000000000000000000 ) ) ;
#204 = ADVANCED_FACE ( 'NONE', ( #175 ), #325, .T. ) ;
#205 = DIRECTION ( 'NONE',  ( 1.000000000000000000, 1.224646799147352961E-16, 0.000000000000000000 ) ) ;
#206 = DIMENSIONAL_EXPONENTS ( 1.000000000000000000, 0.000000000000000000, 0.000000000000000000, 0.000000000000000000, 0.000000000000000000, 0.000000000000000000, 0.000000000000000000 ) ;
#207 = CARTESIAN_POINT ( 'NONE',  ( 0.000000000000000000, 0.1875000000000000555, 0.000000000000000000 ) ) ;
#208 = SHAPE_DEFINITION_REPRESENTATION ( #236, #332 ) ;
#209 = SURFACE_STYLE_USAGE ( .BOTH. , #90 ) ;
#210 = DIRECTION ( 'NONE',  ( 1.224646799147352961E-16, -1.000000000000000000, 0.000000000000000000 ) ) ;
#211 = STYLED_ITEM ( 'NONE', ( #308 ), #74 ) ;
#212 = CARTESIAN_POINT ( 'NONE',  ( 1.224646799147353207E-16, 2.000000000000000000, 0.000000000000000000 ) ) ;
#213 = DIRECTION ( 'NONE',  ( -0.000000000000000000, -1.000000000000000000, -0.000000000000000000 ) ) ;
#214 = UNCERTAINTY_MEASURE_WITH_UNIT (LENGTH_MEASURE( 1.000000000000000082E-05 ), #108, 'distance_accuracy_value', 'NONE');
#215 = UNCERTAINTY_MEASURE_WITH_UNIT (LENGTH_MEASURE( 1.000000000000000082E-05 ), #67, 'distance_accuracy_value', 'NONE');
#216 = DIRECTION ( 'NONE',  ( -1.224646799147352961E-16, 1.000000000000000000, -0.000000000000000000 ) ) ;
#217 = COLOUR_RGB ( '',1.000000000000000000, 0.000000000000000000, 0.000000000000000000 ) ;
#218 = AXIS2_PLACEMENT_3D ( 'NONE', #360, #155, #270 ) ;
#219 = PRODUCT_DEFINITION_FORMATION_WITH_SPECIFIED_SOURCE ( 'ANY', '', #148, .NOT_KNOWN. ) ;
#220 =( NAMED_UNIT ( * ) PLANE_ANGLE_UNIT ( ) SI_UNIT ( $, .RADIAN. ) );
#221 = LINE ( 'NONE', #242, #311 ) ;
#222 = ORIENTED_EDGE ( 'NONE', *, *, #365, .F. ) ;
#223 = AXIS2_PLACEMENT_3D ( 'NONE', #107, #62, #172 ) ;
#224 = ORIENTED_EDGE ( 'NONE', *, *, #269, .F. ) ;
#225 =( LENGTH_UNIT ( ) NAMED_UNIT ( * ) SI_UNIT ( $, .METRE. ) );
#226 = CYLINDRICAL_SURFACE ( 'NONE', #185, 0.1874999999999997780 ) ;
#227 = LINE ( 'NONE', #50, #353 ) ;
#228 = AXIS2_PLACEMENT_3D ( 'NONE', #116, #147, #63 ) ;
#229 = ORIENTED_EDGE ( 'NONE', *, *, #125, .T. ) ;
#230 =( GEOMETRIC_REPRESENTATION_CONTEXT ( 3 ) GLOBAL_UNCERTAINTY_ASSIGNED_CONTEXT ( ( #48 ) ) GLOBAL_UNIT_ASSIGNED_CONTEXT ( ( #367, #336, #312 ) ) REPRESENTATION_CONTEXT ( 'NONE', 'WORKASPACE' ) );
#231 = CARTESIAN_POINT ( 'NONE',  ( -2.296212748401287726E-17, 0.1875000000000000278, 0.000000000000000000 ) ) ;
#232 = FACE_OUTER_BOUND ( 'NONE', #78, .T. ) ;
#233 = SURFACE_STYLE_FILL_AREA ( #39 ) ;
#234 = EDGE_CURVE ( 'NONE', #254, #14, #284, .T. ) ;
#235 = ORIENTED_EDGE ( 'NONE', *, *, #327, .F. ) ;
#236 = PRODUCT_DEFINITION_SHAPE ( 'NONE', 'NONE',  #260 ) ;
#237 = EDGE_LOOP ( 'NONE', ( #249, #315, #84, #130 ) ) ;
#238 = DIRECTION ( 'NONE',  ( 0.000000000000000000, 0.000000000000000000, 1.000000000000000000 ) ) ;
#239 = DIMENSIONAL_EXPONENTS ( 1.000000000000000000, 0.000000000000000000, 0.000000000000000000, 0.000000000000000000, 0.000000000000000000, 0.000000000000000000, 0.000000000000000000 ) ;
#240 =( GEOMETRIC_REPRESENTATION_CONTEXT ( 3 ) GLOBAL_UNCERTAINTY_ASSIGNED_CONTEXT ( ( #161 ) ) GLOBAL_UNIT_ASSIGNED_CONTEXT ( ( #5, #263, #117 ) ) REPRESENTATION_CONTEXT ( 'NONE', 'WORKASPACE' ) );
#241 = FILL_AREA_STYLE_COLOUR ( '', #217 ) ;
#242 = CARTESIAN_POINT ( 'NONE',  ( 0.1874999999999996392, 4.000000000000000000, 2.296212748401284644E-17 ) ) ;
#243 = ADVANCED_FACE ( 'NONE', ( #300 ), #266, .T. ) ;
#244 = COLOUR_RGB ( '',0.7921568627450980005, 0.8196078431372548767, 0.9333333333333333481 ) ;
#245 = SURFACE_STYLE_FILL_AREA ( #21 ) ;
#246 = LENGTH_MEASURE_WITH_UNIT ( LENGTH_MEASURE( 0.02539999999999999897 ), #128 );
#247 = VERTEX_POINT ( 'NONE', #174 ) ;
#248 = CYLINDRICAL_SURFACE ( 'NONE', #223, 0.1874999999999998890 ) ;
#249 = ORIENTED_EDGE ( 'NONE', *, *, #303, .T. ) ;
#250 = CARTESIAN_POINT ( 'NONE',  ( 0.1874999999999997780, 4.000000000000000000, 2.296212748401285877E-17 ) ) ;
#251 = DIRECTION ( 'NONE',  ( -1.000000000000000000, 0.000000000000000000, 0.000000000000000000 ) ) ;
#252 = CIRCLE ( 'NONE', #88, 0.1874999999999996669 ) ;
#253 = AXIS2_PLACEMENT_3D ( 'NONE', #335, #216, #18 ) ;
#254 = VERTEX_POINT ( 'NONE', #279 ) ;
#255 = DIRECTION ( 'NONE',  ( -0.000000000000000000, -1.000000000000000000, -0.000000000000000000 ) ) ;
#256 =( NAMED_UNIT ( * ) SI_UNIT ( $, .STERADIAN. ) SOLID_ANGLE_UNIT ( ) );
#257 = ORIENTED_EDGE ( 'NONE', *, *, #269, .T. ) ;
#258 = FILL_AREA_STYLE ('',( #280 ) ) ;
#259 = LENGTH_MEASURE_WITH_UNIT ( LENGTH_MEASURE( 0.02539999999999999897 ), #144 );
#260 = PRODUCT_DEFINITION ( 'UNKNOWN', '', #219, #104 ) ;
#261 =( NAMED_UNIT ( * ) PLANE_ANGLE_UNIT ( ) SI_UNIT ( $, .RADIAN. ) );
#262 =( NAMED_UNIT ( * ) SI_UNIT ( $, .STERADIAN. ) SOLID_ANGLE_UNIT ( ) );
#263 =( NAMED_UNIT ( * ) PLANE_ANGLE_UNIT ( ) SI_UNIT ( $, .RADIAN. ) );
#264 = VERTEX_POINT ( 'NONE', #250 ) ;
#265 = SURFACE_SIDE_STYLE ('',( #355 ) ) ;
#266 = CYLINDRICAL_SURFACE ( 'NONE', #60, 0.1874999999999998890 ) ;
#267 = LENGTH_MEASURE_WITH_UNIT ( LENGTH_MEASURE( 0.02539999999999999897 ), #165 );
#268 = PLANE ( 'NONE',  #316 ) ;
#269 = EDGE_CURVE ( 'NONE', #350, #264, #3, .T. ) ;
#270 = DIRECTION ( 'NONE',  ( -1.000000000000000000, 0.000000000000000000, 0.000000000000000000 ) ) ;
#271 = DIMENSIONAL_EXPONENTS ( 1.000000000000000000, 0.000000000000000000, 0.000000000000000000, 0.000000000000000000, 0.000000000000000000, 0.000000000000000000, 0.000000000000000000 ) ;
#272 = SPHERICAL_SURFACE ( 'NONE', #293, 0.1875000000000000278 ) ;
#273 = PRESENTATION_LAYER_ASSIGNMENT (  '', '', ( #96 ) ) ;
#274 = DIRECTION ( 'NONE',  ( -1.224646799147352961E-16, 1.000000000000000000, -0.000000000000000000 ) ) ;
#275 = EDGE_CURVE ( 'NONE', #195, #32, #372, .T. ) ;
#276 =( GEOMETRIC_REPRESENTATION_CONTEXT ( 3 ) GLOBAL_UNCERTAINTY_ASSIGNED_CONTEXT ( ( #291 ) ) GLOBAL_UNIT_ASSIGNED_CONTEXT ( ( #171, #200, #290 ) ) REPRESENTATION_CONTEXT ( 'NONE', 'WORKASPACE' ) );
#277 = DIRECTION ( 'NONE',  ( -0.000000000000000000, -1.000000000000000000, -0.000000000000000000 ) ) ;
#278 = VERTEX_POINT ( 'NONE', #98 ) ;
#279 = CARTESIAN_POINT ( 'NONE',  ( 0.1874999999999999722, 0.1875000000000000555, 0.000000000000000000 ) ) ;
#280 = FILL_AREA_STYLE_COLOUR ( '', #179 ) ;
#281 = ORIENTED_EDGE ( 'NONE', *, *, #343, .F. ) ;
#282 = AXIS2_PLACEMENT_3D ( 'NONE', #296, #328, #6 ) ;
#283 = SURFACE_STYLE_FILL_AREA ( #188 ) ;
#284 = CIRCLE ( 'NONE', #43, 0.1875000000000000278 ) ;
#285 =( GEOMETRIC_REPRESENTATION_CONTEXT ( 3 ) GLOBAL_UNCERTAINTY_ASSIGNED_CONTEXT ( ( #214 ) ) GLOBAL_UNIT_ASSIGNED_CONTEXT ( ( #108, #54, #256 ) ) REPRESENTATION_CONTEXT ( 'NONE', 'WORKASPACE' ) );
#286 = EDGE_LOOP ( 'NONE', ( #313, #26 ) ) ;
#287 = EDGE_CURVE ( 'NONE', #344, #356, #252, .T. ) ;
#288 = DIRECTION ( 'NONE',  ( 0.000000000000000000, 0.000000000000000000, -1.000000000000000000 ) ) ;
#289 = ORIENTED_EDGE ( 'NONE', *, *, #137, .F. ) ;
#290 =( NAMED_UNIT ( * ) SI_UNIT ( $, .STERADIAN. ) SOLID_ANGLE_UNIT ( ) );
#291 = UNCERTAINTY_MEASURE_WITH_UNIT (LENGTH_MEASURE( 1.000000000000000082E-05 ), #171, 'distance_accuracy_value', 'NONE');
#292 = FILL_AREA_STYLE ('',( #301 ) ) ;
#293 = AXIS2_PLACEMENT_3D ( 'NONE', #181, #362, #304 ) ;
#294 = DIRECTION ( 'NONE',  ( -1.224646799147352961E-16, 1.000000000000000000, 0.000000000000000000 ) ) ;
#295 = SURFACE_SIDE_STYLE ('',( #233 ) ) ;
#296 = CARTESIAN_POINT ( 'NONE',  ( 0.000000000000000000, 2.000000000000000000, 0.000000000000000000 ) ) ;
#297 = EDGE_CURVE ( 'NONE', #32, #195, #307, .T. ) ;
#298 = FILL_AREA_STYLE ('',( #351 ) ) ;
#299 = DIRECTION ( 'NONE',  ( -1.224646799147352961E-16, 1.000000000000000000, -0.000000000000000000 ) ) ;
#300 = FACE_OUTER_BOUND ( 'NONE', #370, .T. ) ;
#301 = FILL_AREA_STYLE_COLOUR ( '', #371 ) ;
#302 = COLOUR_RGB ( '',1.000000000000000000, 0.000000000000000000, 0.000000000000000000 ) ;
#303 = EDGE_CURVE ( 'NONE', #278, #141, #4, .T. ) ;
#304 = DIRECTION ( 'NONE',  ( 1.000000000000000000, 0.000000000000000000, 0.000000000000000000 ) ) ;
#305 = DIRECTION ( 'NONE',  ( 0.000000000000000000, 0.000000000000000000, -1.000000000000000000 ) ) ;
#306 = CARTESIAN_POINT ( 'NONE',  ( 0.000000000000000000, 0.1875000000000000555, 0.000000000000000000 ) ) ;
#307 = CIRCLE ( 'NONE', #180, 0.1874999999999997780 ) ;
#308 = PRESENTATION_STYLE_ASSIGNMENT (( #160 ) ) ;
#309 = AXIS2_PLACEMENT_3D ( 'NONE', #357, #299, #121 ) ;
#310 = CIRCLE ( 'NONE', #364, 0.1874999999999999722 ) ;
#311 = VECTOR ( 'NONE', #274, 39.37007874015748143 ) ;
#312 =( NAMED_UNIT ( * ) SI_UNIT ( $, .STERADIAN. ) SOLID_ANGLE_UNIT ( ) );
#313 = ORIENTED_EDGE ( 'NONE', *, *, #275, .F. ) ;
#314 = DIRECTION ( 'NONE',  ( -0.000000000000000000, -1.000000000000000000, -0.000000000000000000 ) ) ;
#315 = ORIENTED_EDGE ( 'NONE', *, *, #365, .T. ) ;
#316 = AXIS2_PLACEMENT_3D ( 'NONE', #8, #210, #205 ) ;
#317 = CARTESIAN_POINT ( 'NONE',  ( 0.000000000000000000, 0.1875000000000000555, 0.000000000000000000 ) ) ;
#318 = CARTESIAN_POINT ( 'NONE',  ( -1.148106374200643863E-17, 0.000000000000000000, 0.000000000000000000 ) ) ;
#319 = PRESENTATION_STYLE_ASSIGNMENT (( #87 ) ) ;
#320 = ADVANCED_FACE ( 'NONE', ( #156 ), #70, .T. ) ;
#321 = AXIS2_PLACEMENT_3D ( 'NONE', #73, #134, #288 ) ;
#322 = PRESENTATION_STYLE_ASSIGNMENT (( #209 ) ) ;
#323 = DIMENSIONAL_EXPONENTS ( 1.000000000000000000, 0.000000000000000000, 0.000000000000000000, 0.000000000000000000, 0.000000000000000000, 0.000000000000000000, 0.000000000000000000 ) ;
#324 = FILL_AREA_STYLE_COLOUR ( '', #169 ) ;
#325 = SPHERICAL_SURFACE ( 'NONE', #228, 0.1875000000000000278 ) ;
#326 = DIMENSIONAL_EXPONENTS ( 1.000000000000000000, 0.000000000000000000, 0.000000000000000000, 0.000000000000000000, 0.000000000000000000, 0.000000000000000000, 0.000000000000000000 ) ;
#327 = EDGE_CURVE ( 'NONE', #356, #350, #16, .T. ) ;
#328 = DIRECTION ( 'NONE',  ( 0.000000000000000000, 1.000000000000000000, 0.000000000000000000 ) ) ;
#329 = DIRECTION ( 'NONE',  ( -1.000000000000000000, 0.000000000000000000, 0.000000000000000000 ) ) ;
#330 = FILL_AREA_STYLE ('',( #241 ) ) ;
#331 = CARTESIAN_POINT ( 'NONE',  ( 0.000000000000000000, 2.000000000000000000, 0.000000000000000000 ) ) ;
#332 = ADVANCED_BREP_SHAPE_REPRESENTATION ( '84762', ( #102, #349, #158 ), #240 ) ;
#333 = CARTESIAN_POINT ( 'NONE',  ( 0.1874999999999997780, 2.000000000000000000, 2.296212748401285877E-17 ) ) ;
#334 = MECHANICAL_DESIGN_GEOMETRIC_PRESENTATION_REPRESENTATION (  '', ( #42 ), #285 ) ;
#335 = CARTESIAN_POINT ( 'NONE',  ( -1.224646799147352714E-16, 4.000000000000000000, 0.000000000000000000 ) ) ;
#336 =( NAMED_UNIT ( * ) PLANE_ANGLE_UNIT ( ) SI_UNIT ( $, .RADIAN. ) );
#337 = CARTESIAN_POINT ( 'NONE',  ( -0.1874999999999995282, 2.000000000000000000, 0.000000000000000000 ) ) ;
#338 = EDGE_LOOP ( 'NONE', ( #34, #35, #224, #235 ) ) ;
#339 = EDGE_CURVE ( 'NONE', #344, #264, #221, .T. ) ;
#340 = MECHANICAL_DESIGN_GEOMETRIC_PRESENTATION_REPRESENTATION (  '', ( #211 ), #76 ) ;
#341 = CARTESIAN_POINT ( 'NONE',  ( -0.1875000000000000555, 4.000000000000000000, 0.000000000000000000 ) ) ;
#342 = SURFACE_STYLE_FILL_AREA ( #258 ) ;
#343 = EDGE_CURVE ( 'NONE', #264, #350, #24, .T. ) ;
#344 = VERTEX_POINT ( 'NONE', #333 ) ;
#345 = CARTESIAN_POINT ( 'NONE',  ( -1.224646799147352714E-16, 4.000000000000000000, 0.000000000000000000 ) ) ;
#346 = DIRECTION ( 'NONE',  ( 1.000000000000000000, 0.000000000000000000, -1.224646799147353207E-16 ) ) ;
#347 = LENGTH_MEASURE_WITH_UNIT ( LENGTH_MEASURE( 0.02539999999999999897 ), #89 );
#348 = STYLED_ITEM ( 'NONE', ( #319 ), #243 ) ;
#349 = MANIFOLD_SOLID_BREP ( 'Revolve - Tool Body (Straight Shanked)', #2 ) ;
#350 = VERTEX_POINT ( 'NONE', #341 ) ;
#351 = FILL_AREA_STYLE_COLOUR ( '', #302 ) ;
#352 = DIRECTION ( 'NONE',  ( 0.000000000000000000, 0.000000000000000000, -1.000000000000000000 ) ) ;
#353 = VECTOR ( 'NONE', #314, 39.37007874015748143 ) ;
#354 = ORIENTED_EDGE ( 'NONE', *, *, #15, .F. ) ;
#355 = SURFACE_STYLE_FILL_AREA ( #298 ) ;
#356 = VERTEX_POINT ( 'NONE', #337 ) ;
#357 = CARTESIAN_POINT ( 'NONE',  ( 1.224646799147353207E-16, 2.000000000000000000, 0.000000000000000000 ) ) ;
#358 = FACE_OUTER_BOUND ( 'NONE', #237, .T. ) ;
#359 = DIRECTION ( 'NONE',  ( -0.000000000000000000, -1.000000000000000000, -0.000000000000000000 ) ) ;
#360 = CARTESIAN_POINT ( 'NONE',  ( -1.224646799147352714E-16, 4.000000000000000000, 0.000000000000000000 ) ) ;
#361 = DIRECTION ( 'NONE',  ( 0.000000000000000000, 0.000000000000000000, -1.000000000000000000 ) ) ;
#362 = DIRECTION ( 'NONE',  ( 0.000000000000000000, 0.000000000000000000, 1.000000000000000000 ) ) ;
#363 = DIRECTION ( 'NONE',  ( -1.000000000000000000, 0.000000000000000000, 0.000000000000000000 ) ) ;
#364 = AXIS2_PLACEMENT_3D ( 'NONE', #317, #277, #44 ) ;
#365 = EDGE_CURVE ( 'NONE', #141, #14, #170, .T. ) ;
#366 = SURFACE_SIDE_STYLE ('',( #245 ) ) ;
#367 =( CONVERSION_BASED_UNIT ( 'INCH', #246 ) LENGTH_UNIT ( ) NAMED_UNIT ( #271 ) );
#368 = DIRECTION ( 'NONE',  ( 1.224646799147353207E-16, -0.000000000000000000, 1.000000000000000000 ) ) ;
#369 = ORIENTED_EDGE ( 'NONE', *, *, #187, .F. ) ;
#370 = EDGE_LOOP ( 'NONE', ( #289, #192, #198, #1, #49 ) ) ;
#371 = COLOUR_RGB ( '',1.000000000000000000, 0.000000000000000000, 0.000000000000000000 ) ;
#372 = CIRCLE ( 'NONE', #202, 0.1874999999999997780 ) ;
#373 = FILL_AREA_STYLE_COLOUR ( '', #127 ) ;
ENDSEC;
END-ISO-10303-21;
