ISO-10303-21;
HEADER;
FILE_DESCRIPTION (( 'STEP AP214' ),
    '1' );
FILE_NAME ('03662.STEP',
    '2023-06-22T15:37:27',
    ( '' ),
    ( '' ),
    'SwSTEP 2.0',
    'SolidWorks 2023',
    '' );
FILE_SCHEMA (( 'AUTOMOTIVE_DESIGN' ));
ENDSEC;

DATA;
#1 =( NAMED_UNIT ( * ) SI_UNIT ( $, .STERADIAN. ) SOLID_ANGLE_UNIT ( ) );
#2 = COLOUR_RGB ( '',0.7921568627450980005, 0.8196078431372548767, 0.9333333333333333481 ) ;
#3 = VERTEX_POINT ( 'NONE', #105 ) ;
#4 = ORIENTED_EDGE ( 'NONE', *, *, #130, .F. ) ;
#5 = PRESENTATION_LAYER_ASSIGNMENT (  '', '', ( #177 ) ) ;
#6 = VECTOR ( 'NONE', #154, 39.37007874015748143 ) ;
#7 = UNCERTAINTY_MEASURE_WITH_UNIT (LENGTH_MEASURE( 1.000000000000000082E-05 ), #145, 'distance_accuracy_value', 'NONE');
#8 = ADVANCED_FACE ( 'NONE', ( #39 ), #68, .T. ) ;
#9 = ORIENTED_EDGE ( 'NONE', *, *, #96, .F. ) ;
#10 = ORIENTED_EDGE ( 'NONE', *, *, #216, .T. ) ;
#11 = FILL_AREA_STYLE ('',( #184 ) ) ;
#12 = DIRECTION ( 'NONE',  ( -0.000000000000000000, -1.000000000000000000, -0.000000000000000000 ) ) ;
#13 = LENGTH_MEASURE_WITH_UNIT ( LENGTH_MEASURE( 0.02539999999999999897 ), #84 );
#14 = CIRCLE ( 'NONE', #132, 0.3749999999999997780 ) ;
#15 =( GEOMETRIC_REPRESENTATION_CONTEXT ( 3 ) GLOBAL_UNCERTAINTY_ASSIGNED_CONTEXT ( ( #285 ) ) GLOBAL_UNIT_ASSIGNED_CONTEXT ( ( #233, #142, #247 ) ) REPRESENTATION_CONTEXT ( 'NONE', 'WORKASPACE' ) );
#16 = CYLINDRICAL_SURFACE ( 'NONE', #220, 0.3750000000000000555 ) ;
#17 = DIRECTION ( 'NONE',  ( -1.000000000000000000, 1.031281515071456169E-16, 0.000000000000000000 ) ) ;
#18 =( NAMED_UNIT ( * ) SI_UNIT ( $, .STERADIAN. ) SOLID_ANGLE_UNIT ( ) );
#19 = FILL_AREA_STYLE_COLOUR ( '', #51 ) ;
#20 = CARTESIAN_POINT ( 'NONE',  ( 0.3750000000000000555, 4.000000000000000000, 0.000000000000000000 ) ) ;
#21 = SURFACE_STYLE_FILL_AREA ( #259 ) ;
#22 = DIRECTION ( 'NONE',  ( 0.000000000000000000, 0.000000000000000000, 1.000000000000000000 ) ) ;
#23 = PRESENTATION_STYLE_ASSIGNMENT (( #288 ) ) ;
#24 = LENGTH_MEASURE_WITH_UNIT ( LENGTH_MEASURE( 0.02539999999999999897 ), #281 );
#25 = ORIENTED_EDGE ( 'NONE', *, *, #96, .T. ) ;
#26 = DIRECTION ( 'NONE',  ( 1.031281515071456169E-16, 1.000000000000000000, -0.000000000000000000 ) ) ;
#27 = LENGTH_MEASURE_WITH_UNIT ( LENGTH_MEASURE( 0.02539999999999999897 ), #113 );
#28 =( NAMED_UNIT ( * ) PLANE_ANGLE_UNIT ( ) SI_UNIT ( $, .RADIAN. ) );
#29 = ORIENTED_EDGE ( 'NONE', *, *, #44, .F. ) ;
#30 =( CONVERSION_BASED_UNIT ( 'INCH', #170 ) LENGTH_UNIT ( ) NAMED_UNIT ( #231 ) );
#31 = PRESENTATION_LAYER_ASSIGNMENT (  '', '', ( #284 ) ) ;
#32 = ORIENTED_EDGE ( 'NONE', *, *, #298, .F. ) ;
#33 = ORIENTED_EDGE ( 'NONE', *, *, #44, .T. ) ;
#34 = SHAPE_DEFINITION_REPRESENTATION ( #295, #41 ) ;
#35 = FILL_AREA_STYLE_COLOUR ( '', #103 ) ;
#36 =( NAMED_UNIT ( * ) PLANE_ANGLE_UNIT ( ) SI_UNIT ( $, .RADIAN. ) );
#37 = ORIENTED_EDGE ( 'NONE', *, *, #205, .F. ) ;
#38 = PRESENTATION_STYLE_ASSIGNMENT (( #251 ) ) ;
#39 = FACE_OUTER_BOUND ( 'NONE', #150, .T. ) ;
#40 = UNCERTAINTY_MEASURE_WITH_UNIT (LENGTH_MEASURE( 1.000000000000000082E-05 ), #30, 'distance_accuracy_value', 'NONE');
#41 = ADVANCED_BREP_SHAPE_REPRESENTATION ( '03662', ( #225, #224, #248 ), #77 ) ;
#42 = DIRECTION ( 'NONE',  ( -0.000000000000000000, -1.000000000000000000, -0.000000000000000000 ) ) ;
#43 = AXIS2_PLACEMENT_3D ( 'NONE', #299, #108, #210 ) ;
#44 = EDGE_CURVE ( 'NONE', #131, #277, #76, .T. ) ;
#45 = AXIS2_PLACEMENT_3D ( 'NONE', #280, #67, #275 ) ;
#46 =( LENGTH_UNIT ( ) NAMED_UNIT ( * ) SI_UNIT ( $, .METRE. ) );
#47 = DIRECTION ( 'NONE',  ( 0.000000000000000000, 0.000000000000000000, -1.000000000000000000 ) ) ;
#48 = FACE_OUTER_BOUND ( 'NONE', #296, .T. ) ;
#49 = APPLICATION_PROTOCOL_DEFINITION ( 'draft international standard', 'automotive_design', 1998, #254 ) ;
#50 = FILL_AREA_STYLE_COLOUR ( '', #2 ) ;
#51 = COLOUR_RGB ( '',1.000000000000000000, 0.000000000000000000, 0.000000000000000000 ) ;
#52 = CARTESIAN_POINT ( 'NONE',  ( 0.3750000000000000555, 4.000000000000000000, 4.592425496802573602E-17 ) ) ;
#53 = DIRECTION ( 'NONE',  ( 1.031281515071456046E-16, 1.000000000000000000, -0.000000000000000000 ) ) ;
#54 = PLANE ( 'NONE',  #138 ) ;
#55 = PLANE ( 'NONE',  #45 ) ;
#56 = SURFACE_STYLE_USAGE ( .BOTH. , #172 ) ;
#57 = AXIS2_PLACEMENT_3D ( 'NONE', #229, #208, #47 ) ;
#58 = ORIENTED_EDGE ( 'NONE', *, *, #282, .T. ) ;
#59 = EDGE_CURVE ( 'NONE', #290, #79, #140, .T. ) ;
#60 = ORIENTED_EDGE ( 'NONE', *, *, #200, .T. ) ;
#61 = CIRCLE ( 'NONE', #241, 0.3750000000000000555 ) ;
#62 = LINE ( 'NONE', #135, #192 ) ;
#63 = ADVANCED_FACE ( 'NONE', ( #209 ), #16, .T. ) ;
#64 = ORIENTED_EDGE ( 'NONE', *, *, #216, .F. ) ;
#65 = SURFACE_STYLE_FILL_AREA ( #11 ) ;
#66 = CARTESIAN_POINT ( 'NONE',  ( 2.449293598294707400E-16, 4.000000000000000000, 0.000000000000000000 ) ) ;
#67 = DIRECTION ( 'NONE',  ( 0.000000000000000000, 1.000000000000000000, 0.000000000000000000 ) ) ;
#68 = CYLINDRICAL_SURFACE ( 'NONE', #197, 0.3749999999999998890 ) ;
#69 = AXIS2_PLACEMENT_3D ( 'NONE', #287, #95, #240 ) ;
#70 = EDGE_LOOP ( 'NONE', ( #4, #64 ) ) ;
#71 = DIRECTION ( 'NONE',  ( 1.031281515071456169E-16, 1.000000000000000000, -0.000000000000000000 ) ) ;
#72 = CARTESIAN_POINT ( 'NONE',  ( -3.032960542342103792E-32, 1.625000000000000000, 0.000000000000000000 ) ) ;
#73 = SURFACE_STYLE_FILL_AREA ( #93 ) ;
#74 =( GEOMETRIC_REPRESENTATION_CONTEXT ( 3 ) GLOBAL_UNCERTAINTY_ASSIGNED_CONTEXT ( ( #179 ) ) GLOBAL_UNIT_ASSIGNED_CONTEXT ( ( #137, #36, #133 ) ) REPRESENTATION_CONTEXT ( 'NONE', 'WORKASPACE' ) );
#75 = SURFACE_SIDE_STYLE ('',( #73 ) ) ;
#76 = CIRCLE ( 'NONE', #269, 0.3749999999999997780 ) ;
#77 =( GEOMETRIC_REPRESENTATION_CONTEXT ( 3 ) GLOBAL_UNCERTAINTY_ASSIGNED_CONTEXT ( ( #7 ) ) GLOBAL_UNIT_ASSIGNED_CONTEXT ( ( #145, #242, #223 ) ) REPRESENTATION_CONTEXT ( 'NONE', 'WORKASPACE' ) );
#78 = FACE_OUTER_BOUND ( 'NONE', #185, .T. ) ;
#79 = VERTEX_POINT ( 'NONE', #213 ) ;
#80 = ORIENTED_EDGE ( 'NONE', *, *, #245, .F. ) ;
#81 = MECHANICAL_DESIGN_GEOMETRIC_PRESENTATION_REPRESENTATION (  '', ( #171 ), #74 ) ;
#82 = VERTEX_POINT ( 'NONE', #228 ) ;
#83 = CLOSED_SHELL ( 'NONE', ( #63, #260, #169, #289 ) ) ;
#84 =( LENGTH_UNIT ( ) NAMED_UNIT ( * ) SI_UNIT ( $, .METRE. ) );
#85 = UNCERTAINTY_MEASURE_WITH_UNIT (LENGTH_MEASURE( 1.000000000000000082E-05 ), #99, 'distance_accuracy_value', 'NONE');
#86 = DIMENSIONAL_EXPONENTS ( 1.000000000000000000, 0.000000000000000000, 0.000000000000000000, 0.000000000000000000, 0.000000000000000000, 0.000000000000000000, 0.000000000000000000 ) ;
#87 = VERTEX_POINT ( 'NONE', #279 ) ;
#88 = DIRECTION ( 'NONE',  ( -0.000000000000000000, -1.000000000000000000, -0.000000000000000000 ) ) ;
#89 = SURFACE_STYLE_USAGE ( .BOTH. , #107 ) ;
#90 = ORIENTED_EDGE ( 'NONE', *, *, #130, .T. ) ;
#91 = PRESENTATION_LAYER_ASSIGNMENT (  '', '', ( #227 ) ) ;
#92 = CIRCLE ( 'NONE', #178, 0.3750000000000000555 ) ;
#93 = FILL_AREA_STYLE ('',( #283 ) ) ;
#94 = EDGE_CURVE ( 'NONE', #3, #87, #146, .T. ) ;
#95 = DIRECTION ( 'NONE',  ( 1.031281515071456046E-16, 1.000000000000000000, -0.000000000000000000 ) ) ;
#96 = EDGE_CURVE ( 'NONE', #87, #3, #268, .T. ) ;
#97 = DIRECTION ( 'NONE',  ( 1.031281515071456046E-16, 1.000000000000000000, -0.000000000000000000 ) ) ;
#98 =( LENGTH_UNIT ( ) NAMED_UNIT ( * ) SI_UNIT ( $, .METRE. ) );
#99 =( CONVERSION_BASED_UNIT ( 'INCH', #27 ) LENGTH_UNIT ( ) NAMED_UNIT ( #86 ) );
#100 = PRODUCT_CONTEXT ( 'NONE', #254, 'mechanical' ) ;
#101 = FILL_AREA_STYLE ('',( #198 ) ) ;
#102 = APPLICATION_PROTOCOL_DEFINITION ( 'draft international standard', 'automotive_design', 1998, #262 ) ;
#103 = COLOUR_RGB ( '',1.000000000000000000, 0.000000000000000000, 0.000000000000000000 ) ;
#104 = AXIS2_PLACEMENT_3D ( 'NONE', #300, #109, #17 ) ;
#105 = CARTESIAN_POINT ( 'NONE',  ( 4.592425496802575451E-17, 1.625000000000000000, 0.3750000000000000555 ) ) ;
#106 = DIRECTION ( 'NONE',  ( 1.031281515071456046E-16, 1.000000000000000000, -0.000000000000000000 ) ) ;
#107 = SURFACE_SIDE_STYLE ('',( #65 ) ) ;
#108 = DIRECTION ( 'NONE',  ( -0.000000000000000000, -1.000000000000000000, -0.000000000000000000 ) ) ;
#109 = DIRECTION ( 'NONE',  ( 1.031281515071456169E-16, 1.000000000000000000, -0.000000000000000000 ) ) ;
#110 = CARTESIAN_POINT ( 'NONE',  ( 0.000000000000000000, 0.000000000000000000, 0.000000000000000000 ) ) ;
#111 = SURFACE_STYLE_FILL_AREA ( #217 ) ;
#112 = CARTESIAN_POINT ( 'NONE',  ( -0.3749999999999995004, 4.000000000000000000, 0.000000000000000000 ) ) ;
#113 =( LENGTH_UNIT ( ) NAMED_UNIT ( * ) SI_UNIT ( $, .METRE. ) );
#114 = AXIS2_PLACEMENT_3D ( 'NONE', #250, #42, #139 ) ;
#115 = PRESENTATION_LAYER_ASSIGNMENT (  '', '', ( #302 ) ) ;
#116 = DIRECTION ( 'NONE',  ( 1.031281515071456046E-16, 1.000000000000000000, -0.000000000000000000 ) ) ;
#117 = EDGE_LOOP ( 'NONE', ( #32, #10, #129, #29 ) ) ;
#118 = ADVANCED_FACE ( 'NONE', ( #148 ), #54, .F. ) ;
#119 = CARTESIAN_POINT ( 'NONE',  ( -0.3749999999999996114, 4.000000000000000000, 0.000000000000000000 ) ) ;
#120 = PRODUCT ( '03662', '03662', '', ( #100 ) ) ;
#121 = DIRECTION ( 'NONE',  ( 1.000000000000000000, 0.000000000000000000, 0.000000000000000000 ) ) ;
#122 = LINE ( 'NONE', #119, #255 ) ;
#123 = ORIENTED_EDGE ( 'NONE', *, *, #282, .F. ) ;
#124 = SURFACE_SIDE_STYLE ('',( #21 ) ) ;
#125 = ORIENTED_EDGE ( 'NONE', *, *, #245, .T. ) ;
#126 = ORIENTED_EDGE ( 'NONE', *, *, #200, .F. ) ;
#127 = AXIS2_PLACEMENT_3D ( 'NONE', #190, #193, #219 ) ;
#128 = PRESENTATION_LAYER_ASSIGNMENT (  '', '', ( #263 ) ) ;
#129 = ORIENTED_EDGE ( 'NONE', *, *, #194, .T. ) ;
#130 = EDGE_CURVE ( 'NONE', #82, #199, #61, .T. ) ;
#131 = VERTEX_POINT ( 'NONE', #52 ) ;
#132 = AXIS2_PLACEMENT_3D ( 'NONE', #258, #97, #303 ) ;
#133 =( NAMED_UNIT ( * ) SI_UNIT ( $, .STERADIAN. ) SOLID_ANGLE_UNIT ( ) );
#134 = DIRECTION ( 'NONE',  ( -1.000000000000000000, 0.000000000000000000, 0.000000000000000000 ) ) ;
#135 = CARTESIAN_POINT ( 'NONE',  ( 0.3750000000000001665, 4.000000000000000000, 4.592425496802572986E-17 ) ) ;
#136 = FILL_AREA_STYLE ('',( #35 ) ) ;
#137 =( CONVERSION_BASED_UNIT ( 'INCH', #214 ) LENGTH_UNIT ( ) NAMED_UNIT ( #286 ) );
#138 = AXIS2_PLACEMENT_3D ( 'NONE', #20, #144, #256 ) ;
#139 = DIRECTION ( 'NONE',  ( 0.000000000000000000, 0.000000000000000000, -1.000000000000000000 ) ) ;
#140 = CIRCLE ( 'NONE', #274, 0.3750000000000000555 ) ;
#141 = LENGTH_MEASURE_WITH_UNIT ( LENGTH_MEASURE( 0.02539999999999999897 ), #46 );
#142 =( NAMED_UNIT ( * ) PLANE_ANGLE_UNIT ( ) SI_UNIT ( $, .RADIAN. ) );
#143 = CARTESIAN_POINT ( 'NONE',  ( 0.3750000000000000555, 1.625000000000000000, 4.592425496802573602E-17 ) ) ;
#144 = DIRECTION ( 'NONE',  ( -1.031281515071456169E-16, -1.000000000000000000, 0.000000000000000000 ) ) ;
#145 =( CONVERSION_BASED_UNIT ( 'INCH', #24 ) LENGTH_UNIT ( ) NAMED_UNIT ( #168 ) );
#146 = CIRCLE ( 'NONE', #114, 0.3750000000000000555 ) ;
#147 = CARTESIAN_POINT ( 'NONE',  ( -3.032960542342103792E-32, 1.625000000000000000, 0.000000000000000000 ) ) ;
#148 = FACE_OUTER_BOUND ( 'NONE', #196, .T. ) ;
#149 = PRODUCT_DEFINITION ( 'UNKNOWN', '', #232, #270 ) ;
#150 = EDGE_LOOP ( 'NONE', ( #90, #230, #126, #202 ) ) ;
#151 = UNCERTAINTY_MEASURE_WITH_UNIT (LENGTH_MEASURE( 1.000000000000000082E-05 ), #218, 'distance_accuracy_value', 'NONE');
#152 =( GEOMETRIC_REPRESENTATION_CONTEXT ( 3 ) GLOBAL_UNCERTAINTY_ASSIGNED_CONTEXT ( ( #292 ) ) GLOBAL_UNIT_ASSIGNED_CONTEXT ( ( #293, #183, #18 ) ) REPRESENTATION_CONTEXT ( 'NONE', 'WORKASPACE' ) );
#153 = ORIENTED_EDGE ( 'NONE', *, *, #59, .F. ) ;
#154 = DIRECTION ( 'NONE',  ( -0.000000000000000000, -1.000000000000000000, -0.000000000000000000 ) ) ;
#155 = MECHANICAL_DESIGN_GEOMETRIC_PRESENTATION_REPRESENTATION (  '', ( #227 ), #235 ) ;
#156 = CARTESIAN_POINT ( 'NONE',  ( 2.449293598294707400E-16, 4.000000000000000000, 0.000000000000000000 ) ) ;
#157 = DIMENSIONAL_EXPONENTS ( 1.000000000000000000, 0.000000000000000000, 0.000000000000000000, 0.000000000000000000, 0.000000000000000000, 0.000000000000000000, 0.000000000000000000 ) ;
#158 = DIRECTION ( 'NONE',  ( 1.031281515071456046E-16, 1.000000000000000000, -0.000000000000000000 ) ) ;
#159 = PLANE ( 'NONE',  #104 ) ;
#160 = DIRECTION ( 'NONE',  ( 0.000000000000000000, 0.000000000000000000, -1.000000000000000000 ) ) ;
#161 = FACE_OUTER_BOUND ( 'NONE', #173, .T. ) ;
#162 = SURFACE_STYLE_FILL_AREA ( #136 ) ;
#163 = ORIENTED_EDGE ( 'NONE', *, *, #205, .T. ) ;
#164 = DIRECTION ( 'NONE',  ( -0.000000000000000000, -1.000000000000000000, -0.000000000000000000 ) ) ;
#165 = DIRECTION ( 'NONE',  ( 0.000000000000000000, 0.000000000000000000, -1.000000000000000000 ) ) ;
#166 =( GEOMETRIC_REPRESENTATION_CONTEXT ( 3 ) GLOBAL_UNCERTAINTY_ASSIGNED_CONTEXT ( ( #85 ) ) GLOBAL_UNIT_ASSIGNED_CONTEXT ( ( #99, #28, #1 ) ) REPRESENTATION_CONTEXT ( 'NONE', 'WORKASPACE' ) );
#167 =( NAMED_UNIT ( * ) PLANE_ANGLE_UNIT ( ) SI_UNIT ( $, .RADIAN. ) );
#168 = DIMENSIONAL_EXPONENTS ( 1.000000000000000000, 0.000000000000000000, 0.000000000000000000, 0.000000000000000000, 0.000000000000000000, 0.000000000000000000, 0.000000000000000000 ) ;
#169 = ADVANCED_FACE ( 'NONE', ( #48 ), #307, .T. ) ;
#170 = LENGTH_MEASURE_WITH_UNIT ( LENGTH_MEASURE( 0.02539999999999999897 ), #266 );
#171 = STYLED_ITEM ( 'NONE', ( #38 ), #289 ) ;
#172 = SURFACE_SIDE_STYLE ('',( #265 ) ) ;
#173 = EDGE_LOOP ( 'NONE', ( #163, #215 ) ) ;
#174 =( NAMED_UNIT ( * ) PLANE_ANGLE_UNIT ( ) SI_UNIT ( $, .RADIAN. ) );
#175 = LINE ( 'NONE', #261, #243 ) ;
#176 = ORIENTED_EDGE ( 'NONE', *, *, #94, .T. ) ;
#177 = STYLED_ITEM ( 'NONE', ( #206 ), #63 ) ;
#178 = AXIS2_PLACEMENT_3D ( 'NONE', #147, #53, #238 ) ;
#179 = UNCERTAINTY_MEASURE_WITH_UNIT (LENGTH_MEASURE( 1.000000000000000082E-05 ), #137, 'distance_accuracy_value', 'NONE');
#180 = CARTESIAN_POINT ( 'NONE',  ( 0.000000000000000000, 0.000000000000000000, 0.000000000000000000 ) ) ;
#181 = DIMENSIONAL_EXPONENTS ( 1.000000000000000000, 0.000000000000000000, 0.000000000000000000, 0.000000000000000000, 0.000000000000000000, 0.000000000000000000, 0.000000000000000000 ) ;
#182 = MECHANICAL_DESIGN_GEOMETRIC_PRESENTATION_REPRESENTATION (  '', ( #302 ), #204 ) ;
#183 =( NAMED_UNIT ( * ) PLANE_ANGLE_UNIT ( ) SI_UNIT ( $, .RADIAN. ) );
#184 = FILL_AREA_STYLE_COLOUR ( '', #278 ) ;
#185 = EDGE_LOOP ( 'NONE', ( #9, #264 ) ) ;
#186 = SURFACE_STYLE_USAGE ( .BOTH. , #188 ) ;
#187 = CARTESIAN_POINT ( 'NONE',  ( 4.592425496802575451E-17, 0.000000000000000000, 0.3750000000000000555 ) ) ;
#188 = SURFACE_SIDE_STYLE ('',( #162 ) ) ;
#189 =( LENGTH_UNIT ( ) NAMED_UNIT ( * ) SI_UNIT ( $, .METRE. ) );
#190 = CARTESIAN_POINT ( 'NONE',  ( 0.000000000000000000, 0.000000000000000000, 0.000000000000000000 ) ) ;
#191 = DIRECTION ( 'NONE',  ( -1.000000000000000000, 0.000000000000000000, 0.000000000000000000 ) ) ;
#192 = VECTOR ( 'NONE', #71, 39.37007874015748143 ) ;
#193 = DIRECTION ( 'NONE',  ( -0.000000000000000000, -1.000000000000000000, -0.000000000000000000 ) ) ;
#194 = EDGE_CURVE ( 'NONE', #82, #277, #122, .T. ) ;
#195 = FACE_OUTER_BOUND ( 'NONE', #117, .T. ) ;
#196 = EDGE_LOOP ( 'NONE', ( #60, #33 ) ) ;
#197 = AXIS2_PLACEMENT_3D ( 'NONE', #156, #106, #272 ) ;
#198 = FILL_AREA_STYLE_COLOUR ( '', #271 ) ;
#199 = VERTEX_POINT ( 'NONE', #143 ) ;
#200 = EDGE_CURVE ( 'NONE', #277, #131, #14, .T. ) ;
#201 = PRESENTATION_STYLE_ASSIGNMENT (( #56 ) ) ;
#202 = ORIENTED_EDGE ( 'NONE', *, *, #194, .F. ) ;
#203 = MECHANICAL_DESIGN_GEOMETRIC_PRESENTATION_REPRESENTATION (  '', ( #177 ), #152 ) ;
#204 =( GEOMETRIC_REPRESENTATION_CONTEXT ( 3 ) GLOBAL_UNCERTAINTY_ASSIGNED_CONTEXT ( ( #40 ) ) GLOBAL_UNIT_ASSIGNED_CONTEXT ( ( #30, #174, #226 ) ) REPRESENTATION_CONTEXT ( 'NONE', 'WORKASPACE' ) );
#205 = EDGE_CURVE ( 'NONE', #79, #290, #308, .T. ) ;
#206 = PRESENTATION_STYLE_ASSIGNMENT (( #186 ) ) ;
#207 = ADVANCED_FACE ( 'NONE', ( #195 ), #253, .T. ) ;
#208 = DIRECTION ( 'NONE',  ( 0.000000000000000000, -1.000000000000000000, -0.000000000000000000 ) ) ;
#209 = FACE_OUTER_BOUND ( 'NONE', #246, .T. ) ;
#210 = DIRECTION ( 'NONE',  ( 0.000000000000000000, 0.000000000000000000, -1.000000000000000000 ) ) ;
#211 = PLANE ( 'NONE',  #57 ) ;
#212 = PRODUCT_RELATED_PRODUCT_CATEGORY ( 'part', '', ( #120 ) ) ;
#213 = CARTESIAN_POINT ( 'NONE',  ( 0.000000000000000000, 0.000000000000000000, -0.3750000000000000555 ) ) ;
#214 = LENGTH_MEASURE_WITH_UNIT ( LENGTH_MEASURE( 0.02539999999999999897 ), #189 );
#215 = ORIENTED_EDGE ( 'NONE', *, *, #59, .T. ) ;
#216 = EDGE_CURVE ( 'NONE', #199, #82, #92, .T. ) ;
#217 = FILL_AREA_STYLE ('',( #19 ) ) ;
#218 =( CONVERSION_BASED_UNIT ( 'INCH', #252 ) LENGTH_UNIT ( ) NAMED_UNIT ( #181 ) );
#219 = DIRECTION ( 'NONE',  ( 0.000000000000000000, 0.000000000000000000, -1.000000000000000000 ) ) ;
#220 = AXIS2_PLACEMENT_3D ( 'NONE', #110, #12, #301 ) ;
#221 = PRESENTATION_LAYER_ASSIGNMENT (  '', '', ( #171 ) ) ;
#222 = SURFACE_STYLE_USAGE ( .BOTH. , #124 ) ;
#223 =( NAMED_UNIT ( * ) SI_UNIT ( $, .STERADIAN. ) SOLID_ANGLE_UNIT ( ) );
#224 = MANIFOLD_SOLID_BREP ( 'Revolve - Tool Body (Straight Shanked)', #291 ) ;
#225 = MANIFOLD_SOLID_BREP ( 'Revolve - Cutting Edge', #83 ) ;
#226 =( NAMED_UNIT ( * ) SI_UNIT ( $, .STERADIAN. ) SOLID_ANGLE_UNIT ( ) );
#227 = STYLED_ITEM ( 'NONE', ( #23 ), #169 ) ;
#228 = CARTESIAN_POINT ( 'NONE',  ( -0.3750000000000000555, 1.625000000000000000, 0.000000000000000000 ) ) ;
#229 = CARTESIAN_POINT ( 'NONE',  ( 0.000000000000000000, 0.000000000000000000, 0.000000000000000000 ) ) ;
#230 = ORIENTED_EDGE ( 'NONE', *, *, #298, .T. ) ;
#231 = DIMENSIONAL_EXPONENTS ( 1.000000000000000000, 0.000000000000000000, 0.000000000000000000, 0.000000000000000000, 0.000000000000000000, 0.000000000000000000, 0.000000000000000000 ) ;
#232 = PRODUCT_DEFINITION_FORMATION_WITH_SPECIFIED_SOURCE ( 'ANY', '', #120, .NOT_KNOWN. ) ;
#233 =( CONVERSION_BASED_UNIT ( 'INCH', #13 ) LENGTH_UNIT ( ) NAMED_UNIT ( #234 ) );
#234 = DIMENSIONAL_EXPONENTS ( 1.000000000000000000, 0.000000000000000000, 0.000000000000000000, 0.000000000000000000, 0.000000000000000000, 0.000000000000000000, 0.000000000000000000 ) ;
#235 =( GEOMETRIC_REPRESENTATION_CONTEXT ( 3 ) GLOBAL_UNCERTAINTY_ASSIGNED_CONTEXT ( ( #151 ) ) GLOBAL_UNIT_ASSIGNED_CONTEXT ( ( #218, #167, #236 ) ) REPRESENTATION_CONTEXT ( 'NONE', 'WORKASPACE' ) );
#236 =( NAMED_UNIT ( * ) SI_UNIT ( $, .STERADIAN. ) SOLID_ANGLE_UNIT ( ) );
#237 = MECHANICAL_DESIGN_GEOMETRIC_PRESENTATION_REPRESENTATION (  '', ( #284 ), #15 ) ;
#238 = DIRECTION ( 'NONE',  ( -1.000000000000000000, 0.000000000000000000, 0.000000000000000000 ) ) ;
#239 = CARTESIAN_POINT ( 'NONE',  ( 0.000000000000000000, 0.000000000000000000, 0.000000000000000000 ) ) ;
#240 = DIRECTION ( 'NONE',  ( -1.000000000000000000, 0.000000000000000000, 0.000000000000000000 ) ) ;
#241 = AXIS2_PLACEMENT_3D ( 'NONE', #72, #116, #191 ) ;
#242 =( NAMED_UNIT ( * ) PLANE_ANGLE_UNIT ( ) SI_UNIT ( $, .RADIAN. ) );
#243 = VECTOR ( 'NONE', #244, 39.37007874015748143 ) ;
#244 = DIRECTION ( 'NONE',  ( -0.000000000000000000, -1.000000000000000000, -0.000000000000000000 ) ) ;
#245 = EDGE_CURVE ( 'NONE', #87, #79, #175, .T. ) ;
#246 = EDGE_LOOP ( 'NONE', ( #25, #58, #37, #80 ) ) ;
#247 =( NAMED_UNIT ( * ) SI_UNIT ( $, .STERADIAN. ) SOLID_ANGLE_UNIT ( ) );
#248 = AXIS2_PLACEMENT_3D ( 'NONE', #239, #22, #121 ) ;
#249 = FACE_OUTER_BOUND ( 'NONE', #70, .T. ) ;
#250 = CARTESIAN_POINT ( 'NONE',  ( 0.000000000000000000, 1.625000000000000000, 0.000000000000000000 ) ) ;
#251 = SURFACE_STYLE_USAGE ( .BOTH. , #297 ) ;
#252 = LENGTH_MEASURE_WITH_UNIT ( LENGTH_MEASURE( 0.02539999999999999897 ), #98 );
#253 = CYLINDRICAL_SURFACE ( 'NONE', #69, 0.3749999999999998890 ) ;
#254 = APPLICATION_CONTEXT ( 'automotive_design' ) ;
#255 = VECTOR ( 'NONE', #26, 39.37007874015748143 ) ;
#256 = DIRECTION ( 'NONE',  ( 1.000000000000000000, -1.031281515071456169E-16, 0.000000000000000000 ) ) ;
#257 = AXIS2_PLACEMENT_3D ( 'NONE', #304, #164, #165 ) ;
#258 = CARTESIAN_POINT ( 'NONE',  ( 2.449293598294707400E-16, 4.000000000000000000, 0.000000000000000000 ) ) ;
#259 = FILL_AREA_STYLE ('',( #50 ) ) ;
#260 = ADVANCED_FACE ( 'NONE', ( #78 ), #55, .T. ) ;
#261 = CARTESIAN_POINT ( 'NONE',  ( 0.000000000000000000, 0.000000000000000000, -0.3750000000000000555 ) ) ;
#262 = APPLICATION_CONTEXT ( 'automotive_design' ) ;
#263 = STYLED_ITEM ( 'NONE', ( #309 ), #224 ) ;
#264 = ORIENTED_EDGE ( 'NONE', *, *, #94, .F. ) ;
#265 = SURFACE_STYLE_FILL_AREA ( #101 ) ;
#266 =( LENGTH_UNIT ( ) NAMED_UNIT ( * ) SI_UNIT ( $, .METRE. ) );
#267 = ADVANCED_FACE ( 'NONE', ( #249 ), #159, .F. ) ;
#268 = CIRCLE ( 'NONE', #43, 0.3750000000000000555 ) ;
#269 = AXIS2_PLACEMENT_3D ( 'NONE', #66, #158, #134 ) ;
#270 = PRODUCT_DEFINITION_CONTEXT ( 'detailed design', #262, 'design' ) ;
#271 = COLOUR_RGB ( '',0.7921568627450980005, 0.8196078431372548767, 0.9333333333333333481 ) ;
#272 = DIRECTION ( 'NONE',  ( -1.000000000000000000, 0.000000000000000000, 0.000000000000000000 ) ) ;
#273 = LINE ( 'NONE', #187, #6 ) ;
#274 = AXIS2_PLACEMENT_3D ( 'NONE', #180, #88, #160 ) ;
#275 = DIRECTION ( 'NONE',  ( 0.000000000000000000, -0.000000000000000000, 1.000000000000000000 ) ) ;
#276 = PRESENTATION_STYLE_ASSIGNMENT (( #89 ) ) ;
#277 = VERTEX_POINT ( 'NONE', #112 ) ;
#278 = COLOUR_RGB ( '',1.000000000000000000, 0.000000000000000000, 0.000000000000000000 ) ;
#279 = CARTESIAN_POINT ( 'NONE',  ( 0.000000000000000000, 1.625000000000000000, -0.3750000000000000555 ) ) ;
#280 = CARTESIAN_POINT ( 'NONE',  ( 0.000000000000000000, 1.625000000000000000, 0.000000000000000000 ) ) ;
#281 =( LENGTH_UNIT ( ) NAMED_UNIT ( * ) SI_UNIT ( $, .METRE. ) );
#282 = EDGE_CURVE ( 'NONE', #3, #290, #273, .T. ) ;
#283 = FILL_AREA_STYLE_COLOUR ( '', #305 ) ;
#284 = STYLED_ITEM ( 'NONE', ( #276 ), #260 ) ;
#285 = UNCERTAINTY_MEASURE_WITH_UNIT (LENGTH_MEASURE( 1.000000000000000082E-05 ), #233, 'distance_accuracy_value', 'NONE');
#286 = DIMENSIONAL_EXPONENTS ( 1.000000000000000000, 0.000000000000000000, 0.000000000000000000, 0.000000000000000000, 0.000000000000000000, 0.000000000000000000, 0.000000000000000000 ) ;
#287 = CARTESIAN_POINT ( 'NONE',  ( 2.449293598294707400E-16, 4.000000000000000000, 0.000000000000000000 ) ) ;
#288 = SURFACE_STYLE_USAGE ( .BOTH. , #75 ) ;
#289 = ADVANCED_FACE ( 'NONE', ( #161 ), #211, .T. ) ;
#290 = VERTEX_POINT ( 'NONE', #294 ) ;
#291 = CLOSED_SHELL ( 'NONE', ( #8, #267, #207, #118 ) ) ;
#292 = UNCERTAINTY_MEASURE_WITH_UNIT (LENGTH_MEASURE( 1.000000000000000082E-05 ), #293, 'distance_accuracy_value', 'NONE');
#293 =( CONVERSION_BASED_UNIT ( 'INCH', #141 ) LENGTH_UNIT ( ) NAMED_UNIT ( #157 ) );
#294 = CARTESIAN_POINT ( 'NONE',  ( 4.592425496802575451E-17, 0.000000000000000000, 0.3750000000000000555 ) ) ;
#295 = PRODUCT_DEFINITION_SHAPE ( 'NONE', 'NONE',  #149 ) ;
#296 = EDGE_LOOP ( 'NONE', ( #123, #176, #125, #153 ) ) ;
#297 = SURFACE_SIDE_STYLE ('',( #111 ) ) ;
#298 = EDGE_CURVE ( 'NONE', #199, #131, #62, .T. ) ;
#299 = CARTESIAN_POINT ( 'NONE',  ( 0.000000000000000000, 1.625000000000000000, 0.000000000000000000 ) ) ;
#300 = CARTESIAN_POINT ( 'NONE',  ( 1.994140431240145858E-33, 1.625000000000000000, 0.000000000000000000 ) ) ;
#301 = DIRECTION ( 'NONE',  ( 0.000000000000000000, 0.000000000000000000, -1.000000000000000000 ) ) ;
#302 = STYLED_ITEM ( 'NONE', ( #201 ), #225 ) ;
#303 = DIRECTION ( 'NONE',  ( -1.000000000000000000, 0.000000000000000000, 0.000000000000000000 ) ) ;
#304 = CARTESIAN_POINT ( 'NONE',  ( 0.000000000000000000, 0.000000000000000000, 0.000000000000000000 ) ) ;
#305 = COLOUR_RGB ( '',1.000000000000000000, 0.000000000000000000, 0.000000000000000000 ) ;
#306 = MECHANICAL_DESIGN_GEOMETRIC_PRESENTATION_REPRESENTATION (  '', ( #263 ), #166 ) ;
#307 = CYLINDRICAL_SURFACE ( 'NONE', #127, 0.3750000000000000555 ) ;
#308 = CIRCLE ( 'NONE', #257, 0.3750000000000000555 ) ;
#309 = PRESENTATION_STYLE_ASSIGNMENT (( #222 ) ) ;
ENDSEC;
END-ISO-10303-21;
