ISO-10303-21;
HEADER;
FILE_DESCRIPTION (( 'STEP AP214' ),
    '1' );
FILE_NAME ('00270.STEP',
    '2023-06-22T14:05:13',
    ( '' ),
    ( '' ),
    'SwSTEP 2.0',
    'SolidWorks 2023',
    '' );
FILE_SCHEMA (( 'AUTOMOTIVE_DESIGN' ));
ENDSEC;

DATA;
#1 =( CONVERSION_BASED_UNIT ( 'INCH', #193 ) LENGTH_UNIT ( ) NAMED_UNIT ( #268 ) );
#2 = DIRECTION ( 'NONE',  ( -3.061616997868386099E-17, 1.000000000000000000, -0.000000000000000000 ) ) ;
#3 = CIRCLE ( 'NONE', #80, 0.1562500000000000000 ) ;
#4 =( NAMED_UNIT ( * ) PLANE_ANGLE_UNIT ( ) SI_UNIT ( $, .RADIAN. ) );
#5 = DIRECTION ( 'NONE',  ( -0.000000000000000000, -1.000000000000000000, -0.000000000000000000 ) ) ;
#6 = COLOUR_RGB ( '',1.000000000000000000, 0.000000000000000000, 0.000000000000000000 ) ;
#7 = AXIS2_PLACEMENT_3D ( 'NONE', #122, #263, #70 ) ;
#8 = PRODUCT ( '00270', '00270', '', ( #32 ) ) ;
#9 = FACE_OUTER_BOUND ( 'NONE', #223, .T. ) ;
#10 = ORIENTED_EDGE ( 'NONE', *, *, #213, .F. ) ;
#11 = MANIFOLD_SOLID_BREP ( 'Revolve - Tool Body (Straight Shanked)', #296 ) ;
#12 = FILL_AREA_STYLE ('',( #177 ) ) ;
#13 = DIRECTION ( 'NONE',  ( -1.000000000000000000, 0.000000000000000000, 0.000000000000000000 ) ) ;
#14 = ORIENTED_EDGE ( 'NONE', *, *, #282, .F. ) ;
#15 = DIRECTION ( 'NONE',  ( 0.000000000000000000, 0.000000000000000000, -1.000000000000000000 ) ) ;
#16 = SURFACE_STYLE_USAGE ( .BOTH. , #59 ) ;
#17 =( NAMED_UNIT ( * ) SI_UNIT ( $, .STERADIAN. ) SOLID_ANGLE_UNIT ( ) );
#18 = DIRECTION ( 'NONE',  ( 0.000000000000000000, 0.000000000000000000, -1.000000000000000000 ) ) ;
#19 = VECTOR ( 'NONE', #233, 39.37007874015748143 ) ;
#20 = CARTESIAN_POINT ( 'NONE',  ( 0.000000000000000000, 0.000000000000000000, 0.000000000000000000 ) ) ;
#21 = STYLED_ITEM ( 'NONE', ( #164 ), #171 ) ;
#22 = AXIS2_PLACEMENT_3D ( 'NONE', #249, #105, #132 ) ;
#23 = CARTESIAN_POINT ( 'NONE',  ( 0.000000000000000000, 1.000000000000000000, 0.000000000000000000 ) ) ;
#24 = FILL_AREA_STYLE ('',( #165 ) ) ;
#25 = CARTESIAN_POINT ( 'NONE',  ( 0.000000000000000000, 1.000000000000000000, 0.000000000000000000 ) ) ;
#26 = FACE_OUTER_BOUND ( 'NONE', #226, .T. ) ;
#27 = DIRECTION ( 'NONE',  ( -3.061616997868386099E-17, 1.000000000000000000, -0.000000000000000000 ) ) ;
#28 = ORIENTED_EDGE ( 'NONE', *, *, #89, .T. ) ;
#29 = PLANE ( 'NONE',  #182 ) ;
#30 = ORIENTED_EDGE ( 'NONE', *, *, #210, .F. ) ;
#31 = ORIENTED_EDGE ( 'NONE', *, *, #167, .T. ) ;
#32 = PRODUCT_CONTEXT ( 'NONE', #160, 'mechanical' ) ;
#33 = COLOUR_RGB ( '',0.7921568627450980005, 0.8196078431372548767, 0.9333333333333333481 ) ;
#34 = PRESENTATION_STYLE_ASSIGNMENT (( #185 ) ) ;
#35 = VERTEX_POINT ( 'NONE', #151 ) ;
#36 =( CONVERSION_BASED_UNIT ( 'INCH', #206 ) LENGTH_UNIT ( ) NAMED_UNIT ( #289 ) );
#37 = APPLICATION_PROTOCOL_DEFINITION ( 'draft international standard', 'automotive_design', 1998, #194 ) ;
#38 =( GEOMETRIC_REPRESENTATION_CONTEXT ( 3 ) GLOBAL_UNCERTAINTY_ASSIGNED_CONTEXT ( ( #113 ) ) GLOBAL_UNIT_ASSIGNED_CONTEXT ( ( #36, #255, #267 ) ) REPRESENTATION_CONTEXT ( 'NONE', 'WORKASPACE' ) );
#39 =( GEOMETRIC_REPRESENTATION_CONTEXT ( 3 ) GLOBAL_UNCERTAINTY_ASSIGNED_CONTEXT ( ( #163 ) ) GLOBAL_UNIT_ASSIGNED_CONTEXT ( ( #293, #108, #110 ) ) REPRESENTATION_CONTEXT ( 'NONE', 'WORKASPACE' ) );
#40 = SURFACE_STYLE_FILL_AREA ( #227 ) ;
#41 = DIRECTION ( 'NONE',  ( -3.061616997868386099E-17, 1.000000000000000000, -0.000000000000000000 ) ) ;
#42 = CARTESIAN_POINT ( 'NONE',  ( 0.000000000000000000, 1.000000000000000000, 0.000000000000000000 ) ) ;
#43 = MECHANICAL_DESIGN_GEOMETRIC_PRESENTATION_REPRESENTATION (  '', ( #21 ), #239 ) ;
#44 = CARTESIAN_POINT ( 'NONE',  ( 0.000000000000000000, 0.000000000000000000, -0.1562500000000000000 ) ) ;
#45 =( GEOMETRIC_REPRESENTATION_CONTEXT ( 3 ) GLOBAL_UNCERTAINTY_ASSIGNED_CONTEXT ( ( #307 ) ) GLOBAL_UNIT_ASSIGNED_CONTEXT ( ( #62, #4, #292 ) ) REPRESENTATION_CONTEXT ( 'NONE', 'WORKASPACE' ) );
#46 = LINE ( 'NONE', #44, #19 ) ;
#47 = CARTESIAN_POINT ( 'NONE',  ( -0.1562500000000000000, 1.000000000000000000, 0.000000000000000000 ) ) ;
#48 = CYLINDRICAL_SURFACE ( 'NONE', #196, 0.1562500000000000000 ) ;
#49 = DIRECTION ( 'NONE',  ( -3.061616997868386099E-17, 1.000000000000000000, -0.000000000000000000 ) ) ;
#50 =( LENGTH_UNIT ( ) NAMED_UNIT ( * ) SI_UNIT ( $, .METRE. ) );
#51 = EDGE_LOOP ( 'NONE', ( #147, #124, #246, #77 ) ) ;
#52 = CIRCLE ( 'NONE', #72, 0.1562500000000000000 ) ;
#53 = CARTESIAN_POINT ( 'NONE',  ( 1.913510623667739463E-17, 1.000000000000000000, 0.1562500000000000000 ) ) ;
#54 = ORIENTED_EDGE ( 'NONE', *, *, #257, .F. ) ;
#55 = PLANE ( 'NONE',  #276 ) ;
#56 = LENGTH_MEASURE_WITH_UNIT ( LENGTH_MEASURE( 0.02539999999999999897 ), #83 );
#57 = ADVANCED_FACE ( 'NONE', ( #166 ), #48, .T. ) ;
#58 = FILL_AREA_STYLE ('',( #78 ) ) ;
#59 = SURFACE_SIDE_STYLE ('',( #127 ) ) ;
#60 = FACE_OUTER_BOUND ( 'NONE', #300, .T. ) ;
#61 = DIRECTION ( 'NONE',  ( -3.061616997868386099E-17, 1.000000000000000000, -0.000000000000000000 ) ) ;
#62 =( CONVERSION_BASED_UNIT ( 'INCH', #186 ) LENGTH_UNIT ( ) NAMED_UNIT ( #125 ) );
#63 = CIRCLE ( 'NONE', #22, 0.1562500000000000833 ) ;
#64 = CARTESIAN_POINT ( 'NONE',  ( -0.1562500000000001110, 3.000000000000000444, 0.000000000000000000 ) ) ;
#65 = PRODUCT_RELATED_PRODUCT_CATEGORY ( 'part', '', ( #8 ) ) ;
#66 = PRODUCT_DEFINITION_CONTEXT ( 'detailed design', #194, 'design' ) ;
#67 = SURFACE_SIDE_STYLE ('',( #308 ) ) ;
#68 = CYLINDRICAL_SURFACE ( 'NONE', #123, 0.1562500000000000278 ) ;
#69 = CARTESIAN_POINT ( 'NONE',  ( 0.1562500000000000000, 3.000000000000000444, 1.913510623667739771E-17 ) ) ;
#70 = DIRECTION ( 'NONE',  ( 1.000000000000000000, 3.061616997868386099E-17, 0.000000000000000000 ) ) ;
#71 = VERTEX_POINT ( 'NONE', #129 ) ;
#72 = AXIS2_PLACEMENT_3D ( 'NONE', #195, #49, #176 ) ;
#73 = FACE_OUTER_BOUND ( 'NONE', #274, .T. ) ;
#74 = ORIENTED_EDGE ( 'NONE', *, *, #210, .T. ) ;
#75 = LINE ( 'NONE', #175, #142 ) ;
#76 = ADVANCED_FACE ( 'NONE', ( #60 ), #55, .T. ) ;
#77 = ORIENTED_EDGE ( 'NONE', *, *, #187, .F. ) ;
#78 = FILL_AREA_STYLE_COLOUR ( '', #214 ) ;
#79 = COLOUR_RGB ( '',1.000000000000000000, 0.000000000000000000, 0.000000000000000000 ) ;
#80 = AXIS2_PLACEMENT_3D ( 'NONE', #25, #5, #91 ) ;
#81 = ORIENTED_EDGE ( 'NONE', *, *, #89, .F. ) ;
#82 = DIRECTION ( 'NONE',  ( 0.000000000000000000, 0.000000000000000000, -1.000000000000000000 ) ) ;
#83 =( LENGTH_UNIT ( ) NAMED_UNIT ( * ) SI_UNIT ( $, .METRE. ) );
#84 = CYLINDRICAL_SURFACE ( 'NONE', #92, 0.1562500000000000000 ) ;
#85 =( NAMED_UNIT ( * ) SI_UNIT ( $, .STERADIAN. ) SOLID_ANGLE_UNIT ( ) );
#86 = APPLICATION_PROTOCOL_DEFINITION ( 'draft international standard', 'automotive_design', 1998, #160 ) ;
#87 = DIRECTION ( 'NONE',  ( 0.000000000000000000, 0.000000000000000000, -1.000000000000000000 ) ) ;
#88 = PLANE ( 'NONE',  #192 ) ;
#89 = EDGE_CURVE ( 'NONE', #174, #133, #290, .T. ) ;
#90 = DIMENSIONAL_EXPONENTS ( 1.000000000000000000, 0.000000000000000000, 0.000000000000000000, 0.000000000000000000, 0.000000000000000000, 0.000000000000000000, 0.000000000000000000 ) ;
#91 = DIRECTION ( 'NONE',  ( 0.000000000000000000, 0.000000000000000000, -1.000000000000000000 ) ) ;
#92 = AXIS2_PLACEMENT_3D ( 'NONE', #235, #145, #215 ) ;
#93 = DIRECTION ( 'NONE',  ( -1.000000000000000000, 0.000000000000000000, 0.000000000000000000 ) ) ;
#94 = DIRECTION ( 'NONE',  ( -3.061616997868386099E-17, 1.000000000000000000, -0.000000000000000000 ) ) ;
#95 = ORIENTED_EDGE ( 'NONE', *, *, #187, .T. ) ;
#96 = CARTESIAN_POINT ( 'NONE',  ( 7.323045813778616568E-35, 1.000000000000000000, 0.000000000000000000 ) ) ;
#97 = ORIENTED_EDGE ( 'NONE', *, *, #135, .T. ) ;
#98 = DIMENSIONAL_EXPONENTS ( 1.000000000000000000, 0.000000000000000000, 0.000000000000000000, 0.000000000000000000, 0.000000000000000000, 0.000000000000000000, 0.000000000000000000 ) ;
#99 = SURFACE_STYLE_FILL_AREA ( #247 ) ;
#100 =( GEOMETRIC_REPRESENTATION_CONTEXT ( 3 ) GLOBAL_UNCERTAINTY_ASSIGNED_CONTEXT ( ( #281 ) ) GLOBAL_UNIT_ASSIGNED_CONTEXT ( ( #136, #178, #17 ) ) REPRESENTATION_CONTEXT ( 'NONE', 'WORKASPACE' ) );
#101 = EDGE_LOOP ( 'NONE', ( #28, #291, #14, #269 ) ) ;
#102 = CARTESIAN_POINT ( 'NONE',  ( 0.1562500000000000000, 1.000000000000000000, 1.913510623667739771E-17 ) ) ;
#103 = LENGTH_MEASURE_WITH_UNIT ( LENGTH_MEASURE( 0.02539999999999999897 ), #154 );
#104 = LENGTH_MEASURE_WITH_UNIT ( LENGTH_MEASURE( 0.02539999999999999897 ), #180 );
#105 = DIRECTION ( 'NONE',  ( -3.061616997868386099E-17, 1.000000000000000000, -0.000000000000000000 ) ) ;
#106 = ORIENTED_EDGE ( 'NONE', *, *, #224, .T. ) ;
#107 = DIRECTION ( 'NONE',  ( 0.000000000000000000, -1.000000000000000000, -0.000000000000000000 ) ) ;
#108 =( NAMED_UNIT ( * ) PLANE_ANGLE_UNIT ( ) SI_UNIT ( $, .RADIAN. ) );
#109 = SURFACE_SIDE_STYLE ('',( #99 ) ) ;
#110 =( NAMED_UNIT ( * ) SI_UNIT ( $, .STERADIAN. ) SOLID_ANGLE_UNIT ( ) );
#111 = DIRECTION ( 'NONE',  ( -0.000000000000000000, -1.000000000000000000, -0.000000000000000000 ) ) ;
#112 = COLOUR_RGB ( '',1.000000000000000000, 0.000000000000000000, 0.000000000000000000 ) ;
#113 = UNCERTAINTY_MEASURE_WITH_UNIT (LENGTH_MEASURE( 1.000000000000000082E-05 ), #36, 'distance_accuracy_value', 'NONE');
#114 = SURFACE_STYLE_USAGE ( .BOTH. , #303 ) ;
#115 = PRESENTATION_STYLE_ASSIGNMENT (( #259 ) ) ;
#116 = STYLED_ITEM ( 'NONE', ( #202 ), #11 ) ;
#117 = CARTESIAN_POINT ( 'NONE',  ( 0.000000000000000000, 1.000000000000000000, -0.1562500000000000000 ) ) ;
#118 = MECHANICAL_DESIGN_GEOMETRIC_PRESENTATION_REPRESENTATION (  '', ( #116 ), #234 ) ;
#119 = CIRCLE ( 'NONE', #286, 0.1562500000000000000 ) ;
#120 =( NAMED_UNIT ( * ) PLANE_ANGLE_UNIT ( ) SI_UNIT ( $, .RADIAN. ) );
#121 = DIMENSIONAL_EXPONENTS ( 1.000000000000000000, 0.000000000000000000, 0.000000000000000000, 0.000000000000000000, 0.000000000000000000, 0.000000000000000000, 0.000000000000000000 ) ;
#122 = CARTESIAN_POINT ( 'NONE',  ( 0.1562500000000000000, 3.000000000000000444, 0.000000000000000000 ) ) ;
#123 = AXIS2_PLACEMENT_3D ( 'NONE', #146, #27, #13 ) ;
#124 = ORIENTED_EDGE ( 'NONE', *, *, #278, .T. ) ;
#125 = DIMENSIONAL_EXPONENTS ( 1.000000000000000000, 0.000000000000000000, 0.000000000000000000, 0.000000000000000000, 0.000000000000000000, 0.000000000000000000, 0.000000000000000000 ) ;
#126 = EDGE_CURVE ( 'NONE', #133, #243, #75, .T. ) ;
#127 = SURFACE_STYLE_FILL_AREA ( #12 ) ;
#128 = EDGE_LOOP ( 'NONE', ( #216, #30 ) ) ;
#129 = CARTESIAN_POINT ( 'NONE',  ( 1.913510623667739463E-17, 0.000000000000000000, 0.1562500000000000000 ) ) ;
#130 = AXIS2_PLACEMENT_3D ( 'NONE', #261, #2, #140 ) ;
#131 = DIRECTION ( 'NONE',  ( -0.000000000000000000, -1.000000000000000000, -0.000000000000000000 ) ) ;
#132 = DIRECTION ( 'NONE',  ( -1.000000000000000000, 0.000000000000000000, 0.000000000000000000 ) ) ;
#133 = VERTEX_POINT ( 'NONE', #102 ) ;
#134 = FILL_AREA_STYLE_COLOUR ( '', #112 ) ;
#135 = EDGE_CURVE ( 'NONE', #174, #200, #203, .T. ) ;
#136 =( CONVERSION_BASED_UNIT ( 'INCH', #104 ) LENGTH_UNIT ( ) NAMED_UNIT ( #121 ) );
#137 = DIRECTION ( 'NONE',  ( -0.000000000000000000, -1.000000000000000000, -0.000000000000000000 ) ) ;
#138 = SURFACE_STYLE_USAGE ( .BOTH. , #221 ) ;
#139 = ADVANCED_FACE ( 'NONE', ( #143 ), #232, .T. ) ;
#140 = DIRECTION ( 'NONE',  ( -1.000000000000000000, 0.000000000000000000, 0.000000000000000000 ) ) ;
#141 = FILL_AREA_STYLE_COLOUR ( '', #33 ) ;
#142 = VECTOR ( 'NONE', #244, 39.37007874015748143 ) ;
#143 = FACE_OUTER_BOUND ( 'NONE', #101, .T. ) ;
#144 = AXIS2_PLACEMENT_3D ( 'NONE', #280, #111, #87 ) ;
#145 = DIRECTION ( 'NONE',  ( -0.000000000000000000, -1.000000000000000000, -0.000000000000000000 ) ) ;
#146 = CARTESIAN_POINT ( 'NONE',  ( -6.123233995736772199E-17, 3.000000000000000444, 0.000000000000000000 ) ) ;
#147 = ORIENTED_EDGE ( 'NONE', *, *, #251, .T. ) ;
#148 = AXIS2_PLACEMENT_3D ( 'NONE', #205, #183, #18 ) ;
#149 = DIRECTION ( 'NONE',  ( -3.061616997868386099E-17, 1.000000000000000000, 0.000000000000000000 ) ) ;
#150 = DIMENSIONAL_EXPONENTS ( 1.000000000000000000, 0.000000000000000000, 0.000000000000000000, 0.000000000000000000, 0.000000000000000000, 0.000000000000000000, 0.000000000000000000 ) ;
#151 = CARTESIAN_POINT ( 'NONE',  ( 0.000000000000000000, 0.000000000000000000, -0.1562500000000000000 ) ) ;
#152 =( NAMED_UNIT ( * ) SI_UNIT ( $, .STERADIAN. ) SOLID_ANGLE_UNIT ( ) );
#153 = ORIENTED_EDGE ( 'NONE', *, *, #257, .T. ) ;
#154 =( LENGTH_UNIT ( ) NAMED_UNIT ( * ) SI_UNIT ( $, .METRE. ) );
#155 = CIRCLE ( 'NONE', #148, 0.1562500000000000000 ) ;
#156 = SHAPE_DEFINITION_REPRESENTATION ( #170, #288 ) ;
#157 = PRESENTATION_STYLE_ASSIGNMENT (( #253 ) ) ;
#158 = EDGE_LOOP ( 'NONE', ( #240, #74, #95, #266 ) ) ;
#159 = DIRECTION ( 'NONE',  ( -1.000000000000000000, 0.000000000000000000, 0.000000000000000000 ) ) ;
#160 = APPLICATION_CONTEXT ( 'automotive_design' ) ;
#161 = SURFACE_STYLE_FILL_AREA ( #24 ) ;
#162 = PRODUCT_DEFINITION_FORMATION_WITH_SPECIFIED_SOURCE ( 'ANY', '', #8, .NOT_KNOWN. ) ;
#163 = UNCERTAINTY_MEASURE_WITH_UNIT (LENGTH_MEASURE( 1.000000000000000082E-05 ), #293, 'distance_accuracy_value', 'NONE');
#164 = PRESENTATION_STYLE_ASSIGNMENT (( #114 ) ) ;
#165 = FILL_AREA_STYLE_COLOUR ( '', #79 ) ;
#166 = FACE_OUTER_BOUND ( 'NONE', #158, .T. ) ;
#167 = EDGE_CURVE ( 'NONE', #35, #71, #284, .T. ) ;
#168 = PRESENTATION_LAYER_ASSIGNMENT (  '', '', ( #21 ) ) ;
#169 = LINE ( 'NONE', #238, #212 ) ;
#170 = PRODUCT_DEFINITION_SHAPE ( 'NONE', 'NONE',  #306 ) ;
#171 = ADVANCED_FACE ( 'NONE', ( #189 ), #88, .T. ) ;
#172 = MECHANICAL_DESIGN_GEOMETRIC_PRESENTATION_REPRESENTATION (  '', ( #305 ), #39 ) ;
#173 = VERTEX_POINT ( 'NONE', #117 ) ;
#174 = VERTEX_POINT ( 'NONE', #47 ) ;
#175 = CARTESIAN_POINT ( 'NONE',  ( 0.1562499999999999722, 3.000000000000000444, 1.913510623667739771E-17 ) ) ;
#176 = DIRECTION ( 'NONE',  ( -1.000000000000000000, 0.000000000000000000, 0.000000000000000000 ) ) ;
#177 = FILL_AREA_STYLE_COLOUR ( '', #262 ) ;
#178 =( NAMED_UNIT ( * ) PLANE_ANGLE_UNIT ( ) SI_UNIT ( $, .RADIAN. ) );
#179 = SURFACE_STYLE_FILL_AREA ( #58 ) ;
#180 =( LENGTH_UNIT ( ) NAMED_UNIT ( * ) SI_UNIT ( $, .METRE. ) );
#181 = VECTOR ( 'NONE', #41, 39.37007874015748143 ) ;
#182 = AXIS2_PLACEMENT_3D ( 'NONE', #96, #149, #241 ) ;
#183 = DIRECTION ( 'NONE',  ( -0.000000000000000000, -1.000000000000000000, -0.000000000000000000 ) ) ;
#184 = ORIENTED_EDGE ( 'NONE', *, *, #282, .T. ) ;
#185 = SURFACE_STYLE_USAGE ( .BOTH. , #109 ) ;
#186 = LENGTH_MEASURE_WITH_UNIT ( LENGTH_MEASURE( 0.02539999999999999897 ), #228 );
#187 = EDGE_CURVE ( 'NONE', #173, #35, #46, .T. ) ;
#188 = UNCERTAINTY_MEASURE_WITH_UNIT (LENGTH_MEASURE( 1.000000000000000082E-05 ), #225, 'distance_accuracy_value', 'NONE');
#189 = FACE_OUTER_BOUND ( 'NONE', #128, .T. ) ;
#190 = CARTESIAN_POINT ( 'NONE',  ( -0.1562500000000001388, 3.000000000000000444, 0.000000000000000000 ) ) ;
#191 = STYLED_ITEM ( 'NONE', ( #270 ), #57 ) ;
#192 = AXIS2_PLACEMENT_3D ( 'NONE', #23, #208, #258 ) ;
#193 = LENGTH_MEASURE_WITH_UNIT ( LENGTH_MEASURE( 0.02539999999999999897 ), #277 );
#194 = APPLICATION_CONTEXT ( 'automotive_design' ) ;
#195 = CARTESIAN_POINT ( 'NONE',  ( 7.582401355855259480E-33, 1.000000000000000000, 0.000000000000000000 ) ) ;
#196 = AXIS2_PLACEMENT_3D ( 'NONE', #295, #131, #248 ) ;
#197 = UNCERTAINTY_MEASURE_WITH_UNIT (LENGTH_MEASURE( 1.000000000000000082E-05 ), #1, 'distance_accuracy_value', 'NONE');
#198 = CARTESIAN_POINT ( 'NONE',  ( -6.123233995736772199E-17, 3.000000000000000444, 0.000000000000000000 ) ) ;
#199 = AXIS2_PLACEMENT_3D ( 'NONE', #250, #61, #159 ) ;
#200 = VERTEX_POINT ( 'NONE', #190 ) ;
#201 = FILL_AREA_STYLE_COLOUR ( '', #6 ) ;
#202 = PRESENTATION_STYLE_ASSIGNMENT (( #16 ) ) ;
#203 = LINE ( 'NONE', #64, #181 ) ;
#204 =( LENGTH_UNIT ( ) NAMED_UNIT ( * ) SI_UNIT ( $, .METRE. ) );
#205 = CARTESIAN_POINT ( 'NONE',  ( 0.000000000000000000, 0.000000000000000000, 0.000000000000000000 ) ) ;
#206 = LENGTH_MEASURE_WITH_UNIT ( LENGTH_MEASURE( 0.02539999999999999897 ), #204 );
#207 = MANIFOLD_SOLID_BREP ( 'Revolve - Cutting Edge', #236 ) ;
#208 = DIRECTION ( 'NONE',  ( 0.000000000000000000, 1.000000000000000000, 0.000000000000000000 ) ) ;
#209 = FILL_AREA_STYLE ('',( #141 ) ) ;
#210 = EDGE_CURVE ( 'NONE', #294, #173, #119, .T. ) ;
#211 = UNCERTAINTY_MEASURE_WITH_UNIT (LENGTH_MEASURE( 1.000000000000000082E-05 ), #298, 'distance_accuracy_value', 'NONE');
#212 = VECTOR ( 'NONE', #285, 39.37007874015748143 ) ;
#213 = EDGE_CURVE ( 'NONE', #243, #200, #63, .T. ) ;
#214 = COLOUR_RGB ( '',1.000000000000000000, 0.000000000000000000, 0.000000000000000000 ) ;
#215 = DIRECTION ( 'NONE',  ( 0.000000000000000000, 0.000000000000000000, -1.000000000000000000 ) ) ;
#216 = ORIENTED_EDGE ( 'NONE', *, *, #251, .F. ) ;
#217 = LENGTH_MEASURE_WITH_UNIT ( LENGTH_MEASURE( 0.02539999999999999897 ), #50 );
#218 = PRESENTATION_LAYER_ASSIGNMENT (  '', '', ( #191 ) ) ;
#219 = AXIS2_PLACEMENT_3D ( 'NONE', #20, #230, #252 ) ;
#220 = ORIENTED_EDGE ( 'NONE', *, *, #213, .T. ) ;
#221 = SURFACE_SIDE_STYLE ('',( #40 ) ) ;
#222 =( NAMED_UNIT ( * ) SI_UNIT ( $, .STERADIAN. ) SOLID_ANGLE_UNIT ( ) );
#223 = EDGE_LOOP ( 'NONE', ( #265, #153, #97, #10 ) ) ;
#224 = EDGE_CURVE ( 'NONE', #71, #35, #155, .T. ) ;
#225 =( CONVERSION_BASED_UNIT ( 'INCH', #56 ) LENGTH_UNIT ( ) NAMED_UNIT ( #150 ) );
#226 = EDGE_LOOP ( 'NONE', ( #184, #220 ) ) ;
#227 = FILL_AREA_STYLE ('',( #201 ) ) ;
#228 =( LENGTH_UNIT ( ) NAMED_UNIT ( * ) SI_UNIT ( $, .METRE. ) );
#229 = MECHANICAL_DESIGN_GEOMETRIC_PRESENTATION_REPRESENTATION (  '', ( #191 ), #38 ) ;
#230 = DIRECTION ( 'NONE',  ( 0.000000000000000000, 0.000000000000000000, 1.000000000000000000 ) ) ;
#231 = PRESENTATION_LAYER_ASSIGNMENT (  '', '', ( #305 ) ) ;
#232 = CYLINDRICAL_SURFACE ( 'NONE', #130, 0.1562500000000000278 ) ;
#233 = DIRECTION ( 'NONE',  ( -0.000000000000000000, -1.000000000000000000, -0.000000000000000000 ) ) ;
#234 =( GEOMETRIC_REPRESENTATION_CONTEXT ( 3 ) GLOBAL_UNCERTAINTY_ASSIGNED_CONTEXT ( ( #211 ) ) GLOBAL_UNIT_ASSIGNED_CONTEXT ( ( #298, #120, #152 ) ) REPRESENTATION_CONTEXT ( 'NONE', 'WORKASPACE' ) );
#235 = CARTESIAN_POINT ( 'NONE',  ( 0.000000000000000000, 0.000000000000000000, 0.000000000000000000 ) ) ;
#236 = CLOSED_SHELL ( 'NONE', ( #242, #171, #57, #76 ) ) ;
#237 = PLANE ( 'NONE',  #7 ) ;
#238 = CARTESIAN_POINT ( 'NONE',  ( 1.913510623667739463E-17, 0.000000000000000000, 0.1562500000000000000 ) ) ;
#239 =( GEOMETRIC_REPRESENTATION_CONTEXT ( 3 ) GLOBAL_UNCERTAINTY_ASSIGNED_CONTEXT ( ( #197 ) ) GLOBAL_UNIT_ASSIGNED_CONTEXT ( ( #1, #260, #85 ) ) REPRESENTATION_CONTEXT ( 'NONE', 'WORKASPACE' ) );
#240 = ORIENTED_EDGE ( 'NONE', *, *, #278, .F. ) ;
#241 = DIRECTION ( 'NONE',  ( -1.000000000000000000, -3.061616997868386099E-17, 0.000000000000000000 ) ) ;
#242 = ADVANCED_FACE ( 'NONE', ( #275 ), #84, .T. ) ;
#243 = VERTEX_POINT ( 'NONE', #69 ) ;
#244 = DIRECTION ( 'NONE',  ( -3.061616997868386099E-17, 1.000000000000000000, -0.000000000000000000 ) ) ;
#245 = PRESENTATION_LAYER_ASSIGNMENT (  '', '', ( #264 ) ) ;
#246 = ORIENTED_EDGE ( 'NONE', *, *, #167, .F. ) ;
#247 = FILL_AREA_STYLE ('',( #134 ) ) ;
#248 = DIRECTION ( 'NONE',  ( 0.000000000000000000, 0.000000000000000000, -1.000000000000000000 ) ) ;
#249 = CARTESIAN_POINT ( 'NONE',  ( -6.123233995736772199E-17, 3.000000000000000444, 0.000000000000000000 ) ) ;
#250 = CARTESIAN_POINT ( 'NONE',  ( 7.582401355855259480E-33, 1.000000000000000000, 0.000000000000000000 ) ) ;
#251 = EDGE_CURVE ( 'NONE', #173, #294, #3, .T. ) ;
#252 = DIRECTION ( 'NONE',  ( 1.000000000000000000, 0.000000000000000000, 0.000000000000000000 ) ) ;
#253 = SURFACE_STYLE_USAGE ( .BOTH. , #271 ) ;
#254 = MECHANICAL_DESIGN_GEOMETRIC_PRESENTATION_REPRESENTATION (  '', ( #304 ), #100 ) ;
#255 =( NAMED_UNIT ( * ) PLANE_ANGLE_UNIT ( ) SI_UNIT ( $, .RADIAN. ) );
#256 =( GEOMETRIC_REPRESENTATION_CONTEXT ( 3 ) GLOBAL_UNCERTAINTY_ASSIGNED_CONTEXT ( ( #188 ) ) GLOBAL_UNIT_ASSIGNED_CONTEXT ( ( #225, #302, #222 ) ) REPRESENTATION_CONTEXT ( 'NONE', 'WORKASPACE' ) );
#257 = EDGE_CURVE ( 'NONE', #133, #174, #52, .T. ) ;
#258 = DIRECTION ( 'NONE',  ( 0.000000000000000000, -0.000000000000000000, 1.000000000000000000 ) ) ;
#259 = SURFACE_STYLE_USAGE ( .BOTH. , #67 ) ;
#260 =( NAMED_UNIT ( * ) PLANE_ANGLE_UNIT ( ) SI_UNIT ( $, .RADIAN. ) );
#261 = CARTESIAN_POINT ( 'NONE',  ( -6.123233995736772199E-17, 3.000000000000000444, 0.000000000000000000 ) ) ;
#262 = COLOUR_RGB ( '',0.7921568627450980005, 0.8196078431372548767, 0.9333333333333333481 ) ;
#263 = DIRECTION ( 'NONE',  ( 3.061616997868386099E-17, -1.000000000000000000, 0.000000000000000000 ) ) ;
#264 = STYLED_ITEM ( 'NONE', ( #157 ), #242 ) ;
#265 = ORIENTED_EDGE ( 'NONE', *, *, #126, .F. ) ;
#266 = ORIENTED_EDGE ( 'NONE', *, *, #224, .F. ) ;
#267 =( NAMED_UNIT ( * ) SI_UNIT ( $, .STERADIAN. ) SOLID_ANGLE_UNIT ( ) );
#268 = DIMENSIONAL_EXPONENTS ( 1.000000000000000000, 0.000000000000000000, 0.000000000000000000, 0.000000000000000000, 0.000000000000000000, 0.000000000000000000, 0.000000000000000000 ) ;
#269 = ORIENTED_EDGE ( 'NONE', *, *, #135, .F. ) ;
#270 = PRESENTATION_STYLE_ASSIGNMENT (( #138 ) ) ;
#271 = SURFACE_SIDE_STYLE ('',( #179 ) ) ;
#272 = PRESENTATION_LAYER_ASSIGNMENT (  '', '', ( #304 ) ) ;
#273 = AXIS2_PLACEMENT_3D ( 'NONE', #198, #94, #93 ) ;
#274 = EDGE_LOOP ( 'NONE', ( #81, #54 ) ) ;
#275 = FACE_OUTER_BOUND ( 'NONE', #51, .T. ) ;
#276 = AXIS2_PLACEMENT_3D ( 'NONE', #301, #107, #82 ) ;
#277 =( LENGTH_UNIT ( ) NAMED_UNIT ( * ) SI_UNIT ( $, .METRE. ) );
#278 = EDGE_CURVE ( 'NONE', #294, #71, #169, .T. ) ;
#279 = ADVANCED_FACE ( 'NONE', ( #9 ), #68, .T. ) ;
#280 = CARTESIAN_POINT ( 'NONE',  ( 0.000000000000000000, 0.000000000000000000, 0.000000000000000000 ) ) ;
#281 = UNCERTAINTY_MEASURE_WITH_UNIT (LENGTH_MEASURE( 1.000000000000000082E-05 ), #136, 'distance_accuracy_value', 'NONE');
#282 = EDGE_CURVE ( 'NONE', #200, #243, #299, .T. ) ;
#283 = MECHANICAL_DESIGN_GEOMETRIC_PRESENTATION_REPRESENTATION (  '', ( #264 ), #45 ) ;
#284 = CIRCLE ( 'NONE', #144, 0.1562500000000000000 ) ;
#285 = DIRECTION ( 'NONE',  ( -0.000000000000000000, -1.000000000000000000, -0.000000000000000000 ) ) ;
#286 = AXIS2_PLACEMENT_3D ( 'NONE', #42, #137, #15 ) ;
#287 = ADVANCED_FACE ( 'NONE', ( #26 ), #237, .F. ) ;
#288 = ADVANCED_BREP_SHAPE_REPRESENTATION ( '00270', ( #207, #11, #219 ), #256 ) ;
#289 = DIMENSIONAL_EXPONENTS ( 1.000000000000000000, 0.000000000000000000, 0.000000000000000000, 0.000000000000000000, 0.000000000000000000, 0.000000000000000000, 0.000000000000000000 ) ;
#290 = CIRCLE ( 'NONE', #199, 0.1562500000000000000 ) ;
#291 = ORIENTED_EDGE ( 'NONE', *, *, #126, .T. ) ;
#292 =( NAMED_UNIT ( * ) SI_UNIT ( $, .STERADIAN. ) SOLID_ANGLE_UNIT ( ) );
#293 =( CONVERSION_BASED_UNIT ( 'INCH', #217 ) LENGTH_UNIT ( ) NAMED_UNIT ( #98 ) );
#294 = VERTEX_POINT ( 'NONE', #53 ) ;
#295 = CARTESIAN_POINT ( 'NONE',  ( 0.000000000000000000, 0.000000000000000000, 0.000000000000000000 ) ) ;
#296 = CLOSED_SHELL ( 'NONE', ( #139, #309, #279, #287 ) ) ;
#297 = PRESENTATION_LAYER_ASSIGNMENT (  '', '', ( #116 ) ) ;
#298 =( CONVERSION_BASED_UNIT ( 'INCH', #103 ) LENGTH_UNIT ( ) NAMED_UNIT ( #90 ) );
#299 = CIRCLE ( 'NONE', #273, 0.1562500000000000833 ) ;
#300 = EDGE_LOOP ( 'NONE', ( #31, #106 ) ) ;
#301 = CARTESIAN_POINT ( 'NONE',  ( 0.000000000000000000, 0.000000000000000000, 0.000000000000000000 ) ) ;
#302 =( NAMED_UNIT ( * ) PLANE_ANGLE_UNIT ( ) SI_UNIT ( $, .RADIAN. ) );
#303 = SURFACE_SIDE_STYLE ('',( #161 ) ) ;
#304 = STYLED_ITEM ( 'NONE', ( #34 ), #76 ) ;
#305 = STYLED_ITEM ( 'NONE', ( #115 ), #207 ) ;
#306 = PRODUCT_DEFINITION ( 'UNKNOWN', '', #162, #66 ) ;
#307 = UNCERTAINTY_MEASURE_WITH_UNIT (LENGTH_MEASURE( 1.000000000000000082E-05 ), #62, 'distance_accuracy_value', 'NONE');
#308 = SURFACE_STYLE_FILL_AREA ( #209 ) ;
#309 = ADVANCED_FACE ( 'NONE', ( #73 ), #29, .F. ) ;
ENDSEC;
END-ISO-10303-21;
