ISO-10303-21;
HEADER;
FILE_DESCRIPTION (( 'STEP AP214' ),
    '1' );
FILE_NAME ('Micro_RME-028-2.STEP',
    '2021-09-01T23:03:56',
    ( '' ),
    ( '' ),
    'SwSTEP 2.0',
    'SolidWorks 2020',
    '' );
FILE_SCHEMA (( 'AUTOMOTIVE_DESIGN' ));
ENDSEC;

DATA;
#1 = FACE_OUTER_BOUND ( 'NONE', #31, .T. ) ;
#2 = CARTESIAN_POINT ( 'NONE',  ( 0.0000000000000000000, 0.0000000000000000000, 1.500000000000000222 ) ) ;
#3 = APPLICATION_CONTEXT ( 'automotive_design' ) ;
#4 = STYLED_ITEM ( 'NONE', ( #133 ), #90 ) ;
#5 = CARTESIAN_POINT ( 'NONE',  ( 0.04750000000000064587, 6.735557395310483192E-18, 1.500000000000000222 ) ) ;
#6 =( GEOMETRIC_REPRESENTATION_CONTEXT ( 3 ) GLOBAL_UNCERTAINTY_ASSIGNED_CONTEXT ( ( #297 ) ) GLOBAL_UNIT_ASSIGNED_CONTEXT ( ( #55, #126, #16 ) ) REPRESENTATION_CONTEXT ( 'NONE', 'WORKASPACE' ) );
#7 = DIRECTION ( 'NONE',  ( -1.224646799147353454E-16, -0.0000000000000000000, -1.000000000000000000 ) ) ;
#8 = CARTESIAN_POINT ( 'NONE',  ( 0.01398600000000001405, 0.0000000000000000000, 0.08400000000000001910 ) ) ;
#9 = VERTEX_POINT ( 'NONE', #265 ) ;
#10 = VECTOR ( 'NONE', #157, 39.37007874015748143 ) ;
#11 = ADVANCED_FACE ( 'NONE', ( #221 ), #284, .T. ) ;
#12 = FACE_OUTER_BOUND ( 'NONE', #20, .T. ) ;
#13 = ORIENTED_EDGE ( 'NONE', *, *, #159, .F. ) ;
#14 = APPLICATION_PROTOCOL_DEFINITION ( 'draft international standard', 'automotive_design', 1998, #197 ) ;
#15 = ORIENTED_EDGE ( 'NONE', *, *, #274, .F. ) ;
#16 =( NAMED_UNIT ( * ) SI_UNIT ( $, .STERADIAN. ) SOLID_ANGLE_UNIT ( ) );
#17 = LINE ( 'NONE', #59, #256 ) ;
#18 =( LENGTH_UNIT ( ) NAMED_UNIT ( * ) SI_UNIT ( $, .METRE. ) );
#19 = CIRCLE ( 'NONE', #187, 0.06250000000000002776 ) ;
#20 = EDGE_LOOP ( 'NONE', ( #119, #38, #79, #13 ) ) ;
#21 = UNCERTAINTY_MEASURE_WITH_UNIT (LENGTH_MEASURE( 1.000000000000000082E-05 ), #102, 'distance_accuracy_value', 'NONE');
#22 = DIRECTION ( 'NONE',  ( -0.1736481776669311639, 2.126576849575783008E-17, 0.9848077530122080203 ) ) ;
#23 = DIMENSIONAL_EXPONENTS ( 1.000000000000000000, 0.0000000000000000000, 0.0000000000000000000, 0.0000000000000000000, 0.0000000000000000000, 0.0000000000000000000, 0.0000000000000000000 ) ;
#24 = CARTESIAN_POINT ( 'NONE',  ( 0.0000000000000000000, 0.0000000000000000000, 1.485000000000000764 ) ) ;
#25 = PRESENTATION_STYLE_ASSIGNMENT (( #253 ) ) ;
#26 = CIRCLE ( 'NONE', #70, 0.01398599999999999670 ) ;
#27 = CIRCLE ( 'NONE', #261, 0.04750000000000064587 ) ;
#28 = CARTESIAN_POINT ( 'NONE',  ( 0.06250000000000002776, 7.654042494670959086E-18, 1.485000000000000764 ) ) ;
#29 = AXIS2_PLACEMENT_3D ( 'NONE', #228, #104, #223 ) ;
#30 = CARTESIAN_POINT ( 'NONE',  ( 0.0000000000000000000, 0.0000000000000000000, 0.0000000000000000000 ) ) ;
#31 = EDGE_LOOP ( 'NONE', ( #149, #215, #51, #273 ) ) ;
#32 = DIRECTION ( 'NONE',  ( -1.224646799147353454E-16, -0.0000000000000000000, -1.000000000000000000 ) ) ;
#33 = ORIENTED_EDGE ( 'NONE', *, *, #69, .T. ) ;
#34 = VERTEX_POINT ( 'NONE', #124 ) ;
#35 = DIRECTION ( 'NONE',  ( -1.000000000000000000, 0.0000000000000000000, 0.0000000000000000000 ) ) ;
#36 = VERTEX_POINT ( 'NONE', #288 ) ;
#37 = EDGE_LOOP ( 'NONE', ( #72, #152, #219, #266 ) ) ;
#38 = ORIENTED_EDGE ( 'NONE', *, *, #69, .F. ) ;
#39 = VECTOR ( 'NONE', #7, 39.37007874015748143 ) ;
#40 = PRODUCT_DEFINITION_CONTEXT ( 'detailed design', #197, 'design' ) ;
#41 = DIRECTION ( 'NONE',  ( -1.000000000000000000, 0.0000000000000000000, 0.0000000000000000000 ) ) ;
#42 = CARTESIAN_POINT ( 'NONE',  ( 0.0000000000000000000, 0.0000000000000000000, 0.0000000000000000000 ) ) ;
#43 = CYLINDRICAL_SURFACE ( 'NONE', #194, 0.01398600000000000190 ) ;
#44 = DIRECTION ( 'NONE',  ( 0.0000000000000000000, 0.0000000000000000000, -1.000000000000000000 ) ) ;
#45 = ADVANCED_FACE ( 'NONE', ( #12 ), #268, .T. ) ;
#46 = PRODUCT ( 'Micro_RME-028-2', 'Micro_RME-028-2', '', ( #143 ) ) ;
#47 = AXIS2_PLACEMENT_3D ( 'NONE', #180, #227, #156 ) ;
#48 = CIRCLE ( 'NONE', #291, 0.04750000000000064587 ) ;
#49 = CARTESIAN_POINT ( 'NONE',  ( -0.06250000000000002776, 0.0000000000000000000, 1.485000000000000764 ) ) ;
#50 = VERTEX_POINT ( 'NONE', #290 ) ;
#51 = ORIENTED_EDGE ( 'NONE', *, *, #88, .T. ) ;
#52 = DIRECTION ( 'NONE',  ( 0.0000000000000000000, 0.0000000000000000000, 1.000000000000000000 ) ) ;
#53 = DIRECTION ( 'NONE',  ( -1.224646799147353454E-16, -0.0000000000000000000, -1.000000000000000000 ) ) ;
#54 = ORIENTED_EDGE ( 'NONE', *, *, #234, .T. ) ;
#55 =( CONVERSION_BASED_UNIT ( 'INCH', #150 ) LENGTH_UNIT ( ) NAMED_UNIT ( #233 ) );
#56 = PRESENTATION_LAYER_ASSIGNMENT (  '', '', ( #147 ) ) ;
#57 = ORIENTED_EDGE ( 'NONE', *, *, #189, .F. ) ;
#58 = PRODUCT_DEFINITION ( 'UNKNOWN', '', #74, #40 ) ;
#59 = CARTESIAN_POINT ( 'NONE',  ( 0.06250000000000002776, 7.654042494670959086E-18, 1.500000000000000222 ) ) ;
#60 = ORIENTED_EDGE ( 'NONE', *, *, #71, .T. ) ;
#61 = LENGTH_MEASURE_WITH_UNIT ( LENGTH_MEASURE( 0.02539999999999999897 ), #18 );
#62 = DIRECTION ( 'NONE',  ( -0.0000000000000000000, -0.0000000000000000000, -1.000000000000000000 ) ) ;
#63 = FACE_OUTER_BOUND ( 'NONE', #247, .T. ) ;
#64 = CARTESIAN_POINT ( 'NONE',  ( -0.06250000000000002776, 0.0000000000000000000, 1.500000000000000222 ) ) ;
#65 = VECTOR ( 'NONE', #122, 39.37007874015748143 ) ;
#66 = EDGE_CURVE ( 'NONE', #36, #9, #241, .T. ) ;
#67 = SURFACE_STYLE_USAGE ( .BOTH. , #209 ) ;
#68 = CIRCLE ( 'NONE', #230, 0.06250000000000002776 ) ;
#69 = EDGE_CURVE ( 'NONE', #146, #179, #27, .T. ) ;
#70 = AXIS2_PLACEMENT_3D ( 'NONE', #286, #137, #220 ) ;
#71 = EDGE_CURVE ( 'NONE', #9, #117, #100, .T. ) ;
#72 = ORIENTED_EDGE ( 'NONE', *, *, #234, .F. ) ;
#73 = PRESENTATION_LAYER_ASSIGNMENT (  '', '', ( #4 ) ) ;
#74 = PRODUCT_DEFINITION_FORMATION_WITH_SPECIFIED_SOURCE ( 'ANY', '', #46, .NOT_KNOWN. ) ;
#75 = LINE ( 'NONE', #8, #65 ) ;
#76 = ORIENTED_EDGE ( 'NONE', *, *, #201, .T. ) ;
#77 = CARTESIAN_POINT ( 'NONE',  ( 1.028703311283777035E-17, 0.0000000000000000000, 0.08400000000000001910 ) ) ;
#78 = CARTESIAN_POINT ( 'NONE',  ( 0.0000000000000000000, 0.0000000000000000000, 1.500000000000000222 ) ) ;
#79 = ORIENTED_EDGE ( 'NONE', *, *, #113, .T. ) ;
#80 = FILL_AREA_STYLE_COLOUR ( '', #283 ) ;
#81 = ORIENTED_EDGE ( 'NONE', *, *, #98, .F. ) ;
#82 =( LENGTH_UNIT ( ) NAMED_UNIT ( * ) SI_UNIT ( $, .METRE. ) );
#83 = ADVANCED_FACE ( 'NONE', ( #168 ), #272, .T. ) ;
#84 = DIRECTION ( 'NONE',  ( -1.224646799147353454E-16, -0.0000000000000000000, -1.000000000000000000 ) ) ;
#85 = CIRCLE ( 'NONE', #248, 0.01398599999999999670 ) ;
#86 = CARTESIAN_POINT ( 'NONE',  ( 1.028703311283777035E-17, 0.0000000000000000000, 0.08400000000000001910 ) ) ;
#87 = DIRECTION ( 'NONE',  ( 0.0000000000000000000, 0.0000000000000000000, 1.000000000000000000 ) ) ;
#88 = EDGE_CURVE ( 'NONE', #36, #34, #75, .T. ) ;
#89 = AXIS2_PLACEMENT_3D ( 'NONE', #77, #198, #269 ) ;
#90 = ADVANCED_BREP_SHAPE_REPRESENTATION ( 'Micro_RME-028-2', ( #276, #299 ), #167 ) ;
#91 = CARTESIAN_POINT ( 'NONE',  ( 1.028703311283777035E-17, 0.0000000000000000000, 0.08400000000000001910 ) ) ;
#92 = DIRECTION ( 'NONE',  ( 1.000000000000000000, 0.0000000000000000000, 0.0000000000000000000 ) ) ;
#93 = FILL_AREA_STYLE_COLOUR ( '', #213 ) ;
#94 = CARTESIAN_POINT ( 'NONE',  ( 4.398154462498446286E-17, 0.0000000000000000000, 0.3591365661969321832 ) ) ;
#95 = AXIS2_PLACEMENT_3D ( 'NONE', #42, #129, #153 ) ;
#96 = PRODUCT_DEFINITION_SHAPE ( 'NONE', 'NONE',  #58 ) ;
#97 = ORIENTED_EDGE ( 'NONE', *, *, #238, .T. ) ;
#98 = EDGE_CURVE ( 'NONE', #177, #34, #17, .T. ) ;
#99 = CARTESIAN_POINT ( 'NONE',  ( 1.028703311283777035E-17, 0.0000000000000000000, 0.08400000000000001910 ) ) ;
#100 = LINE ( 'NONE', #105, #216 ) ;
#101 = AXIS2_PLACEMENT_3D ( 'NONE', #91, #135, #92 ) ;
#102 =( CONVERSION_BASED_UNIT ( 'INCH', #162 ) LENGTH_UNIT ( ) NAMED_UNIT ( #23 ) );
#103 = DIRECTION ( 'NONE',  ( 1.000000000000000000, 0.0000000000000000000, 0.0000000000000000000 ) ) ;
#104 = DIRECTION ( 'NONE',  ( 0.0000000000000000000, 0.0000000000000000000, -1.000000000000000000 ) ) ;
#105 = CARTESIAN_POINT ( 'NONE',  ( -0.01398600000000000190, 0.0000000000000000000, 1.712791013287488934E-18 ) ) ;
#106 = VERTEX_POINT ( 'NONE', #49 ) ;
#107 = DIRECTION ( 'NONE',  ( -1.224646799147353454E-16, -0.0000000000000000000, -1.000000000000000000 ) ) ;
#108 = CARTESIAN_POINT ( 'NONE',  ( -0.01398599999999999670, 0.0000000000000000000, 3.425582026574976328E-18 ) ) ;
#109 = VERTEX_POINT ( 'NONE', #116 ) ;
#110 = CARTESIAN_POINT ( 'NONE',  ( 0.04750000000000064587, 5.817072295950006528E-18, 1.500000000000000222 ) ) ;
#111 = FACE_OUTER_BOUND ( 'NONE', #193, .T. ) ;
#112 = CARTESIAN_POINT ( 'NONE',  ( -0.04750000000000064587, 0.0000000000000000000, 1.500000000000000222 ) ) ;
#113 = EDGE_CURVE ( 'NONE', #146, #106, #139, .T. ) ;
#114 = VECTOR ( 'NONE', #218, 39.37007874015748854 ) ;
#115 = DIRECTION ( 'NONE',  ( -1.224646799147353454E-16, -0.0000000000000000000, -1.000000000000000000 ) ) ;
#116 = CARTESIAN_POINT ( 'NONE',  ( 0.01398599999999999670, 1.712791013287488164E-18, 2.369500423704768587E-34 ) ) ;
#117 = VERTEX_POINT ( 'NONE', #108 ) ;
#118 = DIRECTION ( 'NONE',  ( -1.000000000000000000, 0.0000000000000000000, 0.0000000000000000000 ) ) ;
#119 = ORIENTED_EDGE ( 'NONE', *, *, #263, .F. ) ;
#120 = ORIENTED_EDGE ( 'NONE', *, *, #154, .F. ) ;
#121 = ADVANCED_FACE ( 'NONE', ( #181 ), #43, .T. ) ;
#122 = DIRECTION ( 'NONE',  ( 0.1736481776669313581, 0.0000000000000000000, 0.9848077530122077983 ) ) ;
#123 = ORIENTED_EDGE ( 'NONE', *, *, #226, .F. ) ;
#124 = CARTESIAN_POINT ( 'NONE',  ( 0.06250000000000006939, 7.654042494670963708E-18, 0.3591365661969321832 ) ) ;
#125 = ORIENTED_EDGE ( 'NONE', *, *, #226, .T. ) ;
#126 =( NAMED_UNIT ( * ) PLANE_ANGLE_UNIT ( ) SI_UNIT ( $, .RADIAN. ) );
#127 = VECTOR ( 'NONE', #22, 39.37007874015747433 ) ;
#128 = DIRECTION ( 'NONE',  ( -1.000000000000000000, 0.0000000000000000000, 1.224646799147353454E-16 ) ) ;
#129 = DIRECTION ( 'NONE',  ( 0.0000000000000000000, 0.0000000000000000000, 1.000000000000000000 ) ) ;
#130 = AXIS2_PLACEMENT_3D ( 'NONE', #161, #44, #293 ) ;
#131 = DIRECTION ( 'NONE',  ( -1.000000000000000000, 0.0000000000000000000, 1.224646799147353454E-16 ) ) ;
#132 = ADVANCED_FACE ( 'NONE', ( #202 ), #205, .F. ) ;
#133 = PRESENTATION_STYLE_ASSIGNMENT (( #67 ) ) ;
#134 =( NAMED_UNIT ( * ) PLANE_ANGLE_UNIT ( ) SI_UNIT ( $, .RADIAN. ) );
#135 = DIRECTION ( 'NONE',  ( 1.224646799147353454E-16, 0.0000000000000000000, 1.000000000000000000 ) ) ;
#136 = AXIS2_PLACEMENT_3D ( 'NONE', #176, #166, #35 ) ;
#137 = DIRECTION ( 'NONE',  ( -1.224646799147353454E-16, -0.0000000000000000000, -1.000000000000000000 ) ) ;
#138 = ADVANCED_FACE ( 'NONE', ( #111 ), #185, .T. ) ;
#139 = LINE ( 'NONE', #243, #114 ) ;
#140 = EDGE_LOOP ( 'NONE', ( #171, #97 ) ) ;
#141 = DIRECTION ( 'NONE',  ( 1.000000000000000000, 0.0000000000000000000, 0.0000000000000000000 ) ) ;
#142 = ORIENTED_EDGE ( 'NONE', *, *, #274, .T. ) ;
#143 = PRODUCT_CONTEXT ( 'NONE', #3, 'mechanical' ) ;
#144 = ADVANCED_FACE ( 'NONE', ( #1 ), #158, .T. ) ;
#145 = DIRECTION ( 'NONE',  ( -1.000000000000000000, 0.0000000000000000000, 1.224646799147353454E-16 ) ) ;
#146 = VERTEX_POINT ( 'NONE', #112 ) ;
#147 = STYLED_ITEM ( 'NONE', ( #25 ), #276 ) ;
#148 = ORIENTED_EDGE ( 'NONE', *, *, #98, .T. ) ;
#149 = ORIENTED_EDGE ( 'NONE', *, *, #278, .F. ) ;
#150 = LENGTH_MEASURE_WITH_UNIT ( LENGTH_MEASURE( 0.02539999999999999897 ), #82 );
#151 = DIRECTION ( 'NONE',  ( -0.0000000000000000000, -0.0000000000000000000, -1.000000000000000000 ) ) ;
#152 = ORIENTED_EDGE ( 'NONE', *, *, #278, .T. ) ;
#153 = DIRECTION ( 'NONE',  ( 1.000000000000000000, 0.0000000000000000000, -0.0000000000000000000 ) ) ;
#154 = EDGE_CURVE ( 'NONE', #179, #146, #48, .T. ) ;
#155 = UNCERTAINTY_MEASURE_WITH_UNIT (LENGTH_MEASURE( 1.000000000000000082E-05 ), #281, 'distance_accuracy_value', 'NONE');
#156 = DIRECTION ( 'NONE',  ( 1.000000000000000000, 0.0000000000000000000, -0.0000000000000000000 ) ) ;
#157 = DIRECTION ( 'NONE',  ( -0.0000000000000000000, -0.0000000000000000000, -1.000000000000000000 ) ) ;
#158 = CONICAL_SURFACE ( 'NONE', #262, 0.01398600000000000364, 0.1745329251994338637 ) ;
#159 = EDGE_CURVE ( 'NONE', #177, #106, #207, .T. ) ;
#160 = CONICAL_SURFACE ( 'NONE', #101, 0.01398600000000000364, 0.1745329251994338637 ) ;
#161 = CARTESIAN_POINT ( 'NONE',  ( 0.0000000000000000000, 0.0000000000000000000, 1.485000000000000764 ) ) ;
#162 = LENGTH_MEASURE_WITH_UNIT ( LENGTH_MEASURE( 0.02539999999999999897 ), #211 );
#163 = ADVANCED_FACE ( 'NONE', ( #188 ), #160, .T. ) ;
#164 = DIRECTION ( 'NONE',  ( 1.000000000000000000, 0.0000000000000000000, 0.0000000000000000000 ) ) ;
#165 = LINE ( 'NONE', #245, #39 ) ;
#166 = DIRECTION ( 'NONE',  ( -0.0000000000000000000, -0.0000000000000000000, -1.000000000000000000 ) ) ;
#167 =( GEOMETRIC_REPRESENTATION_CONTEXT ( 3 ) GLOBAL_UNCERTAINTY_ASSIGNED_CONTEXT ( ( #155 ) ) GLOBAL_UNIT_ASSIGNED_CONTEXT ( ( #281, #134, #258 ) ) REPRESENTATION_CONTEXT ( 'NONE', 'WORKASPACE' ) );
#168 = FACE_OUTER_BOUND ( 'NONE', #172, .T. ) ;
#169 = ORIENTED_EDGE ( 'NONE', *, *, #113, .F. ) ;
#170 =( NAMED_UNIT ( * ) SI_UNIT ( $, .STERADIAN. ) SOLID_ANGLE_UNIT ( ) );
#171 = ORIENTED_EDGE ( 'NONE', *, *, #189, .T. ) ;
#172 = EDGE_LOOP ( 'NONE', ( #81, #229, #125, #195 ) ) ;
#173 = ORIENTED_EDGE ( 'NONE', *, *, #238, .F. ) ;
#174 = MECHANICAL_DESIGN_GEOMETRIC_PRESENTATION_REPRESENTATION (  '', ( #4 ), #285 ) ;
#175 = FACE_OUTER_BOUND ( 'NONE', #292, .T. ) ;
#176 = CARTESIAN_POINT ( 'NONE',  ( 0.0000000000000000000, 0.0000000000000000000, 1.500000000000000222 ) ) ;
#177 = VERTEX_POINT ( 'NONE', #28 ) ;
#178 = SURFACE_SIDE_STYLE ('',( #254 ) ) ;
#179 = VERTEX_POINT ( 'NONE', #5 ) ;
#180 = CARTESIAN_POINT ( 'NONE',  ( 0.0000000000000000000, 0.0000000000000000000, 1.500000000000000222 ) ) ;
#181 = FACE_OUTER_BOUND ( 'NONE', #264, .T. ) ;
#182 = FILL_AREA_STYLE ('',( #80 ) ) ;
#183 = VECTOR ( 'NONE', #271, 39.37007874015748854 ) ;
#184 = EDGE_CURVE ( 'NONE', #34, #50, #275, .T. ) ;
#185 = CYLINDRICAL_SURFACE ( 'NONE', #239, 0.06250000000000002776 ) ;
#186 = AXIS2_PLACEMENT_3D ( 'NONE', #246, #53, #145 ) ;
#187 = AXIS2_PLACEMENT_3D ( 'NONE', #232, #115, #260 ) ;
#188 = FACE_OUTER_BOUND ( 'NONE', #37, .T. ) ;
#189 = EDGE_CURVE ( 'NONE', #117, #109, #26, .T. ) ;
#190 = FILL_AREA_STYLE ('',( #93 ) ) ;
#191 = CONICAL_SURFACE ( 'NONE', #214, 0.04750000000000064587, 0.7853981633974466137 ) ;
#192 = DIRECTION ( 'NONE',  ( 0.0000000000000000000, 0.0000000000000000000, 1.000000000000000000 ) ) ;
#193 = EDGE_LOOP ( 'NONE', ( #142, #148, #270, #123 ) ) ;
#194 = AXIS2_PLACEMENT_3D ( 'NONE', #279, #255, #131 ) ;
#195 = ORIENTED_EDGE ( 'NONE', *, *, #184, .F. ) ;
#196 =( NAMED_UNIT ( * ) PLANE_ANGLE_UNIT ( ) SI_UNIT ( $, .RADIAN. ) );
#197 = APPLICATION_CONTEXT ( 'automotive_design' ) ;
#198 = DIRECTION ( 'NONE',  ( -1.224646799147353454E-16, -0.0000000000000000000, -1.000000000000000000 ) ) ;
#199 = AXIS2_PLACEMENT_3D ( 'NONE', #99, #32, #118 ) ;
#200 = CARTESIAN_POINT ( 'NONE',  ( 0.0000000000000000000, 0.0000000000000000000, 1.500000000000000222 ) ) ;
#201 = EDGE_CURVE ( 'NONE', #36, #109, #165, .T. ) ;
#202 = FACE_OUTER_BOUND ( 'NONE', #140, .T. ) ;
#203 = LINE ( 'NONE', #289, #127 ) ;
#204 = CLOSED_SHELL ( 'NONE', ( #121, #163, #267, #138, #83, #287, #45, #144, #11, #132 ) ) ;
#205 = PLANE ( 'NONE',  #95 ) ;
#206 = DIRECTION ( 'NONE',  ( 0.0000000000000000000, 0.0000000000000000000, -1.000000000000000000 ) ) ;
#207 = CIRCLE ( 'NONE', #130, 0.06250000000000002776 ) ;
#208 = CARTESIAN_POINT ( 'NONE',  ( 0.0000000000000000000, 0.0000000000000000000, 1.500000000000000222 ) ) ;
#209 = SURFACE_SIDE_STYLE ('',( #282 ) ) ;
#210 = DIRECTION ( 'NONE',  ( -1.000000000000000000, 0.0000000000000000000, 0.0000000000000000000 ) ) ;
#211 =( LENGTH_UNIT ( ) NAMED_UNIT ( * ) SI_UNIT ( $, .METRE. ) );
#212 = EDGE_CURVE ( 'NONE', #50, #34, #19, .T. ) ;
#213 = COLOUR_RGB ( '',0.7921568627450980005, 0.8196078431372548767, 0.9333333333333333481 ) ;
#214 = AXIS2_PLACEMENT_3D ( 'NONE', #200, #235, #41 ) ;
#215 = ORIENTED_EDGE ( 'NONE', *, *, #66, .F. ) ;
#216 = VECTOR ( 'NONE', #250, 39.37007874015748143 ) ;
#217 = LINE ( 'NONE', #64, #10 ) ;
#218 = DIRECTION ( 'NONE',  ( -0.7071067811865462405, 0.0000000000000000000, -0.7071067811865486830 ) ) ;
#219 = ORIENTED_EDGE ( 'NONE', *, *, #212, .T. ) ;
#220 = DIRECTION ( 'NONE',  ( -1.000000000000000000, 0.0000000000000000000, 1.224646799147353454E-16 ) ) ;
#221 = FACE_OUTER_BOUND ( 'NONE', #251, .T. ) ;
#222 = ORIENTED_EDGE ( 'NONE', *, *, #263, .T. ) ;
#223 = DIRECTION ( 'NONE',  ( -1.000000000000000000, 0.0000000000000000000, 0.0000000000000000000 ) ) ;
#224 = ORIENTED_EDGE ( 'NONE', *, *, #154, .T. ) ;
#225 = ORIENTED_EDGE ( 'NONE', *, *, #201, .F. ) ;
#226 = EDGE_CURVE ( 'NONE', #106, #50, #217, .T. ) ;
#227 = DIRECTION ( 'NONE',  ( 0.0000000000000000000, 0.0000000000000000000, 1.000000000000000000 ) ) ;
#228 = CARTESIAN_POINT ( 'NONE',  ( 0.0000000000000000000, 0.0000000000000000000, 1.500000000000000222 ) ) ;
#229 = ORIENTED_EDGE ( 'NONE', *, *, #159, .T. ) ;
#230 = AXIS2_PLACEMENT_3D ( 'NONE', #24, #206, #231 ) ;
#231 = DIRECTION ( 'NONE',  ( 1.000000000000000000, 0.0000000000000000000, 0.0000000000000000000 ) ) ;
#232 = CARTESIAN_POINT ( 'NONE',  ( 4.398154462498446286E-17, 0.0000000000000000000, 0.3591365661969321832 ) ) ;
#233 = DIMENSIONAL_EXPONENTS ( 1.000000000000000000, 0.0000000000000000000, 0.0000000000000000000, 0.0000000000000000000, 0.0000000000000000000, 0.0000000000000000000, 0.0000000000000000000 ) ;
#234 = EDGE_CURVE ( 'NONE', #9, #36, #280, .T. ) ;
#235 = DIRECTION ( 'NONE',  ( 0.0000000000000000000, 0.0000000000000000000, -1.000000000000000000 ) ) ;
#236 = AXIS2_PLACEMENT_3D ( 'NONE', #94, #84, #103 ) ;
#237 = DIRECTION ( 'NONE',  ( 1.000000000000000000, 0.0000000000000000000, 0.0000000000000000000 ) ) ;
#238 = EDGE_CURVE ( 'NONE', #109, #117, #85, .T. ) ;
#239 = AXIS2_PLACEMENT_3D ( 'NONE', #208, #62, #210 ) ;
#240 = APPLICATION_PROTOCOL_DEFINITION ( 'draft international standard', 'automotive_design', 1998, #3 ) ;
#241 = CIRCLE ( 'NONE', #89, 0.01398600000000000364 ) ;
#242 = MECHANICAL_DESIGN_GEOMETRIC_PRESENTATION_REPRESENTATION (  '', ( #147 ), #6 ) ;
#243 = CARTESIAN_POINT ( 'NONE',  ( -0.04750000000000064587, 0.0000000000000000000, 1.500000000000000222 ) ) ;
#244 = ORIENTED_EDGE ( 'NONE', *, *, #71, .F. ) ;
#245 = CARTESIAN_POINT ( 'NONE',  ( 0.01398600000000000190, 1.712791013287488357E-18, -1.712791013287488934E-18 ) ) ;
#246 = CARTESIAN_POINT ( 'NONE',  ( 0.0000000000000000000, 0.0000000000000000000, 0.0000000000000000000 ) ) ;
#247 = EDGE_LOOP ( 'NONE', ( #120, #222, #15, #169 ) ) ;
#248 = AXIS2_PLACEMENT_3D ( 'NONE', #298, #107, #128 ) ;
#249 = PRODUCT_RELATED_PRODUCT_CATEGORY ( 'part', '', ( #46 ) ) ;
#250 = DIRECTION ( 'NONE',  ( -1.224646799147353454E-16, -0.0000000000000000000, -1.000000000000000000 ) ) ;
#251 = EDGE_LOOP ( 'NONE', ( #225, #294, #60, #173 ) ) ;
#252 = LINE ( 'NONE', #110, #183 ) ;
#253 = SURFACE_STYLE_USAGE ( .BOTH. , #178 ) ;
#254 = SURFACE_STYLE_FILL_AREA ( #182 ) ;
#255 = DIRECTION ( 'NONE',  ( -1.224646799147353454E-16, -0.0000000000000000000, -1.000000000000000000 ) ) ;
#256 = VECTOR ( 'NONE', #151, 39.37007874015748143 ) ;
#257 = DIRECTION ( 'NONE',  ( 1.000000000000000000, 0.0000000000000000000, 0.0000000000000000000 ) ) ;
#258 =( NAMED_UNIT ( * ) SI_UNIT ( $, .STERADIAN. ) SOLID_ANGLE_UNIT ( ) );
#259 = SHAPE_DEFINITION_REPRESENTATION ( #96, #90 ) ;
#260 = DIRECTION ( 'NONE',  ( 1.000000000000000000, 0.0000000000000000000, 0.0000000000000000000 ) ) ;
#261 = AXIS2_PLACEMENT_3D ( 'NONE', #78, #192, #141 ) ;
#262 = AXIS2_PLACEMENT_3D ( 'NONE', #86, #277, #237 ) ;
#263 = EDGE_CURVE ( 'NONE', #179, #177, #252, .T. ) ;
#264 = EDGE_LOOP ( 'NONE', ( #54, #76, #57, #244 ) ) ;
#265 = CARTESIAN_POINT ( 'NONE',  ( -0.01398599999999999323, 4.683416753979224684E-18, 0.08400000000000001910 ) ) ;
#266 = ORIENTED_EDGE ( 'NONE', *, *, #88, .F. ) ;
#267 = ADVANCED_FACE ( 'NONE', ( #63 ), #191, .T. ) ;
#268 = CONICAL_SURFACE ( 'NONE', #29, 0.04750000000000064587, 0.7853981633974466137 ) ;
#269 = DIRECTION ( 'NONE',  ( -1.000000000000000000, 0.0000000000000000000, 0.0000000000000000000 ) ) ;
#270 = ORIENTED_EDGE ( 'NONE', *, *, #212, .F. ) ;
#271 = DIRECTION ( 'NONE',  ( 0.7071067811865462405, 8.659560562354916834E-17, -0.7071067811865486830 ) ) ;
#272 = CYLINDRICAL_SURFACE ( 'NONE', #136, 0.06250000000000002776 ) ;
#273 = ORIENTED_EDGE ( 'NONE', *, *, #184, .T. ) ;
#274 = EDGE_CURVE ( 'NONE', #106, #177, #68, .T. ) ;
#275 = CIRCLE ( 'NONE', #236, 0.06250000000000002776 ) ;
#276 = MANIFOLD_SOLID_BREP ( 'Cut-Revolve1', #204 ) ;
#277 = DIRECTION ( 'NONE',  ( 1.224646799147353454E-16, 0.0000000000000000000, 1.000000000000000000 ) ) ;
#278 = EDGE_CURVE ( 'NONE', #9, #50, #203, .T. ) ;
#279 = CARTESIAN_POINT ( 'NONE',  ( 0.0000000000000000000, 0.0000000000000000000, 0.0000000000000000000 ) ) ;
#280 = CIRCLE ( 'NONE', #199, 0.01398600000000000364 ) ;
#281 =( CONVERSION_BASED_UNIT ( 'INCH', #61 ) LENGTH_UNIT ( ) NAMED_UNIT ( #296 ) );
#282 = SURFACE_STYLE_FILL_AREA ( #190 ) ;
#283 = COLOUR_RGB ( '',0.7921568627450980005, 0.8196078431372548767, 0.9333333333333333481 ) ;
#284 = CYLINDRICAL_SURFACE ( 'NONE', #186, 0.01398600000000000190 ) ;
#285 =( GEOMETRIC_REPRESENTATION_CONTEXT ( 3 ) GLOBAL_UNCERTAINTY_ASSIGNED_CONTEXT ( ( #21 ) ) GLOBAL_UNIT_ASSIGNED_CONTEXT ( ( #102, #196, #170 ) ) REPRESENTATION_CONTEXT ( 'NONE', 'WORKASPACE' ) );
#286 = CARTESIAN_POINT ( 'NONE',  ( 2.097564032030874619E-34, 0.0000000000000000000, 1.712791013287488164E-18 ) ) ;
#287 = ADVANCED_FACE ( 'NONE', ( #175 ), #295, .T. ) ;
#288 = CARTESIAN_POINT ( 'NONE',  ( 0.01398600000000001405, 0.0000000000000000000, 0.08400000000000001910 ) ) ;
#289 = CARTESIAN_POINT ( 'NONE',  ( -0.01398599999999999323, 1.712791013287488549E-18, 0.08400000000000001910 ) ) ;
#290 = CARTESIAN_POINT ( 'NONE',  ( -0.06249999999999997918, 0.0000000000000000000, 0.3591365661969321832 ) ) ;
#291 = AXIS2_PLACEMENT_3D ( 'NONE', #2, #87, #257 ) ;
#292 = EDGE_LOOP ( 'NONE', ( #33, #224 ) ) ;
#293 = DIRECTION ( 'NONE',  ( 1.000000000000000000, 0.0000000000000000000, 0.0000000000000000000 ) ) ;
#294 = ORIENTED_EDGE ( 'NONE', *, *, #66, .T. ) ;
#295 = PLANE ( 'NONE',  #47 ) ;
#296 = DIMENSIONAL_EXPONENTS ( 1.000000000000000000, 0.0000000000000000000, 0.0000000000000000000, 0.0000000000000000000, 0.0000000000000000000, 0.0000000000000000000, 0.0000000000000000000 ) ;
#297 = UNCERTAINTY_MEASURE_WITH_UNIT (LENGTH_MEASURE( 1.000000000000000082E-05 ), #55, 'distance_accuracy_value', 'NONE');
#298 = CARTESIAN_POINT ( 'NONE',  ( 2.097564032030874619E-34, 0.0000000000000000000, 1.712791013287488164E-18 ) ) ;
#299 = AXIS2_PLACEMENT_3D ( 'NONE', #30, #52, #164 ) ;
ENDSEC;
END-ISO-10303-21;
