ISO-10303-21;
HEADER;
FILE_DESCRIPTION (( 'STEP AP214' ),
    '1' );
FILE_NAME ('17435.STEP',
    '2023-06-30T21:53:53',
    ( '' ),
    ( '' ),
    'SwSTEP 2.0',
    'SolidWorks 2023',
    '' );
FILE_SCHEMA (( 'AUTOMOTIVE_DESIGN' ));
ENDSEC;

DATA;
#1 = DIRECTION ( 'NONE',  ( 1.000000000000000000, 1.237188477660714949E-16, 0.000000000000000000 ) ) ;
#2 = LENGTH_MEASURE_WITH_UNIT ( LENGTH_MEASURE( 0.02539999999999999897 ), #68 );
#3 = AXIS2_PLACEMENT_3D ( 'NONE', #302, #126, #46 ) ;
#4 = PRESENTATION_STYLE_ASSIGNMENT (( #321 ) ) ;
#5 = ORIENTED_EDGE ( 'NONE', *, *, #120, .F. ) ;
#6 = ORIENTED_EDGE ( 'NONE', *, *, #345, .T. ) ;
#7 = CARTESIAN_POINT ( 'NONE',  ( 0.000000000000000000, 0.2500000000000000000, 0.000000000000000000 ) ) ;
#8 = SURFACE_STYLE_USAGE ( .BOTH. , #201 ) ;
#9 = MECHANICAL_DESIGN_GEOMETRIC_PRESENTATION_REPRESENTATION (  '', ( #231 ), #131 ) ;
#10 = MECHANICAL_DESIGN_GEOMETRIC_PRESENTATION_REPRESENTATION (  '', ( #253 ), #273 ) ;
#11 =( NAMED_UNIT ( * ) SI_UNIT ( $, .STERADIAN. ) SOLID_ANGLE_UNIT ( ) );
#12 = VERTEX_POINT ( 'NONE', #235 ) ;
#13 = LENGTH_MEASURE_WITH_UNIT ( LENGTH_MEASURE( 0.02539999999999999897 ), #132 );
#14 = ORIENTED_EDGE ( 'NONE', *, *, #295, .F. ) ;
#15 = ADVANCED_FACE ( 'NONE', ( #170 ), #198, .T. ) ;
#16 = SURFACE_SIDE_STYLE ('',( #104 ) ) ;
#17 = DIMENSIONAL_EXPONENTS ( 1.000000000000000000, 0.000000000000000000, 0.000000000000000000, 0.000000000000000000, 0.000000000000000000, 0.000000000000000000, 0.000000000000000000 ) ;
#18 = MECHANICAL_DESIGN_GEOMETRIC_PRESENTATION_REPRESENTATION (  '', ( #96 ), #95 ) ;
#19 = SPHERICAL_SURFACE ( 'NONE', #247, 0.2500000000000000000 ) ;
#20 = CYLINDRICAL_SURFACE ( 'NONE', #369, 0.2499999999999999167 ) ;
#21 = FILL_AREA_STYLE_COLOUR ( '', #100 ) ;
#22 = PRESENTATION_LAYER_ASSIGNMENT (  '', '', ( #59 ) ) ;
#23 = LENGTH_MEASURE_WITH_UNIT ( LENGTH_MEASURE( 0.02539999999999999897 ), #371 );
#24 =( NAMED_UNIT ( * ) SI_UNIT ( $, .STERADIAN. ) SOLID_ANGLE_UNIT ( ) );
#25 = DIRECTION ( 'NONE',  ( 1.000000000000000000, 0.000000000000000000, 0.000000000000000000 ) ) ;
#26 =( LENGTH_UNIT ( ) NAMED_UNIT ( * ) SI_UNIT ( $, .METRE. ) );
#27 =( NAMED_UNIT ( * ) PLANE_ANGLE_UNIT ( ) SI_UNIT ( $, .RADIAN. ) );
#28 = FACE_OUTER_BOUND ( 'NONE', #148, .T. ) ;
#29 = COLOUR_RGB ( '',0.7921568627450980005, 0.8196078431372548767, 0.9333333333333333481 ) ;
#30 = FILL_AREA_STYLE_COLOUR ( '', #29 ) ;
#31 = AXIS2_PLACEMENT_3D ( 'NONE', #7, #351, #195 ) ;
#32 = FILL_AREA_STYLE_COLOUR ( '', #111 ) ;
#33 = ORIENTED_EDGE ( 'NONE', *, *, #279, .T. ) ;
#34 = FILL_AREA_STYLE_COLOUR ( '', #278 ) ;
#35 = SURFACE_STYLE_USAGE ( .BOTH. , #194 ) ;
#36 = EDGE_LOOP ( 'NONE', ( #127, #33, #151, #202, #262 ) ) ;
#37 = EDGE_CURVE ( 'NONE', #323, #173, #124, .T. ) ;
#38 = ORIENTED_EDGE ( 'NONE', *, *, #263, .T. ) ;
#39 = ORIENTED_EDGE ( 'NONE', *, *, #322, .T. ) ;
#40 = FACE_OUTER_BOUND ( 'NONE', #93, .T. ) ;
#41 = ORIENTED_EDGE ( 'NONE', *, *, #322, .F. ) ;
#42 = COLOUR_RGB ( '',1.000000000000000000, 0.000000000000000000, 0.000000000000000000 ) ;
#43 = ORIENTED_EDGE ( 'NONE', *, *, #44, .F. ) ;
#44 = EDGE_CURVE ( 'NONE', #323, #179, #171, .T. ) ;
#45 = CARTESIAN_POINT ( 'NONE',  ( -3.061616997868383018E-17, 0.2500000000000000000, 0.000000000000000000 ) ) ;
#46 = DIRECTION ( 'NONE',  ( 1.000000000000000000, 0.000000000000000000, 0.000000000000000000 ) ) ;
#47 = AXIS2_PLACEMENT_3D ( 'NONE', #56, #163, #365 ) ;
#48 = CIRCLE ( 'NONE', #47, 0.2499999999999998335 ) ;
#49 = DIRECTION ( 'NONE',  ( 1.000000000000000000, 0.000000000000000000, 0.000000000000000000 ) ) ;
#50 = LINE ( 'NONE', #334, #285 ) ;
#51 = DIRECTION ( 'NONE',  ( -1.000000000000000000, 0.000000000000000000, 0.000000000000000000 ) ) ;
#52 =( CONVERSION_BASED_UNIT ( 'INCH', #154 ) LENGTH_UNIT ( ) NAMED_UNIT ( #213 ) );
#53 = PRESENTATION_STYLE_ASSIGNMENT (( #35 ) ) ;
#54 = ADVANCED_FACE ( 'NONE', ( #184 ), #20, .T. ) ;
#55 = CARTESIAN_POINT ( 'NONE',  ( 3.061616997868382402E-17, 0.000000000000000000, 0.2499999999999999167 ) ) ;
#56 = CARTESIAN_POINT ( 'NONE',  ( 6.123233995736773431E-17, 2.500000000000000000, 0.000000000000000000 ) ) ;
#57 = DIRECTION ( 'NONE',  ( 1.237188477660714949E-16, -1.000000000000000000, 0.000000000000000000 ) ) ;
#58 = EDGE_CURVE ( 'NONE', #129, #173, #319, .T. ) ;
#59 = STYLED_ITEM ( 'NONE', ( #53 ), #125 ) ;
#60 = LENGTH_MEASURE_WITH_UNIT ( LENGTH_MEASURE( 0.02539999999999999897 ), #249 );
#61 =( CONVERSION_BASED_UNIT ( 'INCH', #2 ) LENGTH_UNIT ( ) NAMED_UNIT ( #134 ) );
#62 = VERTEX_POINT ( 'NONE', #130 ) ;
#63 = PRODUCT_DEFINITION_SHAPE ( 'NONE', 'NONE',  #258 ) ;
#64 = DIMENSIONAL_EXPONENTS ( 1.000000000000000000, 0.000000000000000000, 0.000000000000000000, 0.000000000000000000, 0.000000000000000000, 0.000000000000000000, 0.000000000000000000 ) ;
#65 = CARTESIAN_POINT ( 'NONE',  ( 0.000000000000000000, 0.6250000000000000000, 0.000000000000000000 ) ) ;
#66 = ORIENTED_EDGE ( 'NONE', *, *, #363, .F. ) ;
#67 = EDGE_LOOP ( 'NONE', ( #6, #265, #149, #38 ) ) ;
#68 =( LENGTH_UNIT ( ) NAMED_UNIT ( * ) SI_UNIT ( $, .METRE. ) );
#69 = VERTEX_POINT ( 'NONE', #274 ) ;
#70 = DIMENSIONAL_EXPONENTS ( 1.000000000000000000, 0.000000000000000000, 0.000000000000000000, 0.000000000000000000, 0.000000000000000000, 0.000000000000000000, 0.000000000000000000 ) ;
#71 = EDGE_LOOP ( 'NONE', ( #97, #66 ) ) ;
#72 = AXIS2_PLACEMENT_3D ( 'NONE', #87, #57, #1 ) ;
#73 =( NAMED_UNIT ( * ) PLANE_ANGLE_UNIT ( ) SI_UNIT ( $, .RADIAN. ) );
#74 =( NAMED_UNIT ( * ) PLANE_ANGLE_UNIT ( ) SI_UNIT ( $, .RADIAN. ) );
#75 = APPLICATION_PROTOCOL_DEFINITION ( 'draft international standard', 'automotive_design', 1998, #251 ) ;
#76 = SHAPE_DEFINITION_REPRESENTATION ( #63, #187 ) ;
#77 = DIRECTION ( 'NONE',  ( 0.000000000000000000, 0.000000000000000000, -1.000000000000000000 ) ) ;
#78 = AXIS2_PLACEMENT_3D ( 'NONE', #45, #77, #271 ) ;
#79 =( GEOMETRIC_REPRESENTATION_CONTEXT ( 3 ) GLOBAL_UNCERTAINTY_ASSIGNED_CONTEXT ( ( #347 ) ) GLOBAL_UNIT_ASSIGNED_CONTEXT ( ( #61, #73, #300 ) ) REPRESENTATION_CONTEXT ( 'NONE', 'WORKASPACE' ) );
#80 = DIRECTION ( 'NONE',  ( -0.000000000000000000, -1.000000000000000000, -0.000000000000000000 ) ) ;
#81 =( LENGTH_UNIT ( ) NAMED_UNIT ( * ) SI_UNIT ( $, .METRE. ) );
#82 = SURFACE_STYLE_FILL_AREA ( #188 ) ;
#83 = DIRECTION ( 'NONE',  ( -1.000000000000000000, 0.000000000000000000, 0.000000000000000000 ) ) ;
#84 = VECTOR ( 'NONE', #196, 39.37007874015748143 ) ;
#85 = PRESENTATION_LAYER_ASSIGNMENT (  '', '', ( #337 ) ) ;
#86 = DIRECTION ( 'NONE',  ( -1.237188477660714949E-16, 1.000000000000000000, -0.000000000000000000 ) ) ;
#87 = CARTESIAN_POINT ( 'NONE',  ( 0.2499999999999998890, 2.500000000000000000, 0.000000000000000000 ) ) ;
#88 = FILL_AREA_STYLE_COLOUR ( '', #255 ) ;
#89 = FILL_AREA_STYLE ('',( #34 ) ) ;
#90 = AXIS2_PLACEMENT_3D ( 'NONE', #122, #117, #146 ) ;
#91 = DIRECTION ( 'NONE',  ( -1.237188477660714949E-16, 1.000000000000000000, -0.000000000000000000 ) ) ;
#92 = EDGE_LOOP ( 'NONE', ( #39, #237, #14, #360 ) ) ;
#93 = EDGE_LOOP ( 'NONE', ( #147, #94, #123, #174 ) ) ;
#94 = ORIENTED_EDGE ( 'NONE', *, *, #44, .T. ) ;
#95 =( GEOMETRIC_REPRESENTATION_CONTEXT ( 3 ) GLOBAL_UNCERTAINTY_ASSIGNED_CONTEXT ( ( #372 ) ) GLOBAL_UNIT_ASSIGNED_CONTEXT ( ( #193, #317, #312 ) ) REPRESENTATION_CONTEXT ( 'NONE', 'WORKASPACE' ) );
#96 = STYLED_ITEM ( 'NONE', ( #216 ), #245 ) ;
#97 = ORIENTED_EDGE ( 'NONE', *, *, #291, .F. ) ;
#98 = EDGE_LOOP ( 'NONE', ( #5, #330, #121, #266 ) ) ;
#99 = DIRECTION ( 'NONE',  ( 0.000000000000000000, 0.000000000000000000, -1.000000000000000000 ) ) ;
#100 = COLOUR_RGB ( '',1.000000000000000000, 0.000000000000000000, 0.000000000000000000 ) ;
#101 = AXIS2_PLACEMENT_3D ( 'NONE', #190, #108, #158 ) ;
#102 = DIRECTION ( 'NONE',  ( 0.000000000000000000, 0.000000000000000000, -1.000000000000000000 ) ) ;
#103 = EDGE_CURVE ( 'NONE', #179, #129, #136, .T. ) ;
#104 = SURFACE_STYLE_FILL_AREA ( #183 ) ;
#105 = DIRECTION ( 'NONE',  ( 0.000000000000000000, 0.000000000000000000, 1.000000000000000000 ) ) ;
#106 =( NAMED_UNIT ( * ) SI_UNIT ( $, .STERADIAN. ) SOLID_ANGLE_UNIT ( ) );
#107 = COLOUR_RGB ( '',1.000000000000000000, 0.000000000000000000, 0.000000000000000000 ) ;
#108 = DIRECTION ( 'NONE',  ( -0.000000000000000000, -1.000000000000000000, -0.000000000000000000 ) ) ;
#109 = DIRECTION ( 'NONE',  ( -0.000000000000000000, -1.000000000000000000, -0.000000000000000000 ) ) ;
#110 = UNCERTAINTY_MEASURE_WITH_UNIT (LENGTH_MEASURE( 1.000000000000000082E-05 ), #362, 'distance_accuracy_value', 'NONE');
#111 = COLOUR_RGB ( '',1.000000000000000000, 0.000000000000000000, 0.000000000000000000 ) ;
#112 = CIRCLE ( 'NONE', #90, 0.2499999999999995837 ) ;
#113 = CYLINDRICAL_SURFACE ( 'NONE', #254, 0.2499999999999997224 ) ;
#114 = PRESENTATION_STYLE_ASSIGNMENT (( #161 ) ) ;
#115 = UNCERTAINTY_MEASURE_WITH_UNIT (LENGTH_MEASURE( 1.000000000000000082E-05 ), #166, 'distance_accuracy_value', 'NONE');
#116 = CARTESIAN_POINT ( 'NONE',  ( 0.2500000000000000000, 0.2500000000000000000, 0.000000000000000000 ) ) ;
#117 = DIRECTION ( 'NONE',  ( -1.237188477660714949E-16, 1.000000000000000000, -0.000000000000000000 ) ) ;
#118 = CARTESIAN_POINT ( 'NONE',  ( 3.061616997868383018E-17, 0.2500000000000000000, 0.2500000000000000000 ) ) ;
#119 = MECHANICAL_DESIGN_GEOMETRIC_PRESENTATION_REPRESENTATION (  '', ( #337 ), #79 ) ;
#120 = EDGE_CURVE ( 'NONE', #12, #62, #50, .T. ) ;
#121 = ORIENTED_EDGE ( 'NONE', *, *, #199, .T. ) ;
#122 = CARTESIAN_POINT ( 'NONE',  ( 2.932051795187517719E-16, 0.6250000000000000000, 0.000000000000000000 ) ) ;
#123 = ORIENTED_EDGE ( 'NONE', *, *, #103, .T. ) ;
#124 = CIRCLE ( 'NONE', #185, 0.2500000000000000000 ) ;
#125 = ADVANCED_FACE ( 'NONE', ( #244 ), #156, .T. ) ;
#126 = DIRECTION ( 'NONE',  ( 0.000000000000000000, 0.000000000000000000, 1.000000000000000000 ) ) ;
#127 = ORIENTED_EDGE ( 'NONE', *, *, #291, .T. ) ;
#128 = PRODUCT_CONTEXT ( 'NONE', #208, 'mechanical' ) ;
#129 = VERTEX_POINT ( 'NONE', #116 ) ;
#130 = CARTESIAN_POINT ( 'NONE',  ( 0.2499999999999999167, 2.500000000000000000, 3.061616997868380553E-17 ) ) ;
#131 =( GEOMETRIC_REPRESENTATION_CONTEXT ( 3 ) GLOBAL_UNCERTAINTY_ASSIGNED_CONTEXT ( ( #343 ) ) GLOBAL_UNIT_ASSIGNED_CONTEXT ( ( #52, #205, #24 ) ) REPRESENTATION_CONTEXT ( 'NONE', 'WORKASPACE' ) );
#132 =( LENGTH_UNIT ( ) NAMED_UNIT ( * ) SI_UNIT ( $, .METRE. ) );
#133 = DIRECTION ( 'NONE',  ( -1.237188477660714949E-16, 1.000000000000000000, -0.000000000000000000 ) ) ;
#134 = DIMENSIONAL_EXPONENTS ( 1.000000000000000000, 0.000000000000000000, 0.000000000000000000, 0.000000000000000000, 0.000000000000000000, 0.000000000000000000, 0.000000000000000000 ) ;
#135 = CARTESIAN_POINT ( 'NONE',  ( 0.000000000000000000, 0.2500000000000000000, 0.000000000000000000 ) ) ;
#136 = CIRCLE ( 'NONE', #178, 0.2500000000000000000 ) ;
#137 = PRESENTATION_STYLE_ASSIGNMENT (( #307 ) ) ;
#138 = SURFACE_SIDE_STYLE ('',( #214 ) ) ;
#139 = CARTESIAN_POINT ( 'NONE',  ( 0.000000000000000000, 0.000000000000000000, -0.2499999999999999167 ) ) ;
#140 = DIRECTION ( 'NONE',  ( -1.237188477660714949E-16, 1.000000000000000000, 0.000000000000000000 ) ) ;
#141 = VECTOR ( 'NONE', #162, 39.37007874015748143 ) ;
#142 = UNCERTAINTY_MEASURE_WITH_UNIT (LENGTH_MEASURE( 1.000000000000000082E-05 ), #206, 'distance_accuracy_value', 'NONE');
#143 = SURFACE_SIDE_STYLE ('',( #287 ) ) ;
#144 = CARTESIAN_POINT ( 'NONE',  ( 2.932051795187517719E-16, 0.6250000000000000000, 0.000000000000000000 ) ) ;
#145 = MECHANICAL_DESIGN_GEOMETRIC_PRESENTATION_REPRESENTATION (  '', ( #59 ), #260 ) ;
#146 = DIRECTION ( 'NONE',  ( -1.000000000000000000, 0.000000000000000000, 0.000000000000000000 ) ) ;
#147 = ORIENTED_EDGE ( 'NONE', *, *, #37, .F. ) ;
#148 = EDGE_LOOP ( 'NONE', ( #41, #229 ) ) ;
#149 = ORIENTED_EDGE ( 'NONE', *, *, #58, .F. ) ;
#150 = VERTEX_POINT ( 'NONE', #346 ) ;
#151 = ORIENTED_EDGE ( 'NONE', *, *, #263, .F. ) ;
#152 = CARTESIAN_POINT ( 'NONE',  ( 0.000000000000000000, 0.000000000000000000, 0.000000000000000000 ) ) ;
#153 = VECTOR ( 'NONE', #250, 39.37007874015748143 ) ;
#154 = LENGTH_MEASURE_WITH_UNIT ( LENGTH_MEASURE( 0.02539999999999999897 ), #303 );
#155 = DIMENSIONAL_EXPONENTS ( 1.000000000000000000, 0.000000000000000000, 0.000000000000000000, 0.000000000000000000, 0.000000000000000000, 0.000000000000000000, 0.000000000000000000 ) ;
#156 = PLANE ( 'NONE',  #342 ) ;
#157 = ADVANCED_FACE ( 'NONE', ( #318 ), #252, .F. ) ;
#158 = DIRECTION ( 'NONE',  ( 0.000000000000000000, 0.000000000000000000, -1.000000000000000000 ) ) ;
#159 = CARTESIAN_POINT ( 'NONE',  ( 0.000000000000000000, 0.000000000000000000, 0.000000000000000000 ) ) ;
#160 =( CONVERSION_BASED_UNIT ( 'INCH', #23 ) LENGTH_UNIT ( ) NAMED_UNIT ( #70 ) );
#161 = SURFACE_STYLE_USAGE ( .BOTH. , #143 ) ;
#162 = DIRECTION ( 'NONE',  ( -0.000000000000000000, -1.000000000000000000, -0.000000000000000000 ) ) ;
#163 = DIRECTION ( 'NONE',  ( -1.237188477660714949E-16, 1.000000000000000000, -0.000000000000000000 ) ) ;
#164 = PLANE ( 'NONE',  #200 ) ;
#165 = FACE_OUTER_BOUND ( 'NONE', #92, .T. ) ;
#166 =( CONVERSION_BASED_UNIT ( 'INCH', #60 ) LENGTH_UNIT ( ) NAMED_UNIT ( #331 ) );
#167 = CARTESIAN_POINT ( 'NONE',  ( 6.123233995736773431E-17, 2.500000000000000000, 0.000000000000000000 ) ) ;
#168 = DIRECTION ( 'NONE',  ( -1.000000000000000000, -1.237188477660714949E-16, 0.000000000000000000 ) ) ;
#169 = DIRECTION ( 'NONE',  ( -0.000000000000000000, -1.000000000000000000, -0.000000000000000000 ) ) ;
#170 = FACE_OUTER_BOUND ( 'NONE', #36, .T. ) ;
#171 = CIRCLE ( 'NONE', #304, 0.2500000000000000000 ) ;
#172 = CIRCLE ( 'NONE', #298, 0.2499999999999998335 ) ;
#173 = VERTEX_POINT ( 'NONE', #349 ) ;
#174 = ORIENTED_EDGE ( 'NONE', *, *, #58, .T. ) ;
#175 = CARTESIAN_POINT ( 'NONE',  ( -0.2499999999999992784, 0.6250000000000000000, 0.000000000000000000 ) ) ;
#176 = VERTEX_POINT ( 'NONE', #118 ) ;
#177 = DIRECTION ( 'NONE',  ( 0.000000000000000000, 0.000000000000000000, -1.000000000000000000 ) ) ;
#178 = AXIS2_PLACEMENT_3D ( 'NONE', #135, #80, #102 ) ;
#179 = VERTEX_POINT ( 'NONE', #316 ) ;
#180 =( GEOMETRIC_REPRESENTATION_CONTEXT ( 3 ) GLOBAL_UNCERTAINTY_ASSIGNED_CONTEXT ( ( #142 ) ) GLOBAL_UNIT_ASSIGNED_CONTEXT ( ( #206, #234, #209 ) ) REPRESENTATION_CONTEXT ( 'NONE', 'WORKASPACE' ) );
#181 = SPHERICAL_SURFACE ( 'NONE', #311, 0.2500000000000000000 ) ;
#182 = ADVANCED_FACE ( 'NONE', ( #28 ), #164, .F. ) ;
#183 = FILL_AREA_STYLE ('',( #241 ) ) ;
#184 = FACE_OUTER_BOUND ( 'NONE', #268, .T. ) ;
#185 = AXIS2_PLACEMENT_3D ( 'NONE', #338, #333, #305 ) ;
#186 = ADVANCED_FACE ( 'NONE', ( #366 ), #192, .T. ) ;
#187 = ADVANCED_BREP_SHAPE_REPRESENTATION ( '17435', ( #243, #245, #3 ), #180 ) ;
#188 = FILL_AREA_STYLE ('',( #30 ) ) ;
#189 = LINE ( 'NONE', #191, #84 ) ;
#190 = CARTESIAN_POINT ( 'NONE',  ( 0.000000000000000000, 0.2500000000000000000, 0.000000000000000000 ) ) ;
#191 = CARTESIAN_POINT ( 'NONE',  ( -0.2499999999999996669, 2.500000000000000000, 0.000000000000000000 ) ) ;
#192 = CYLINDRICAL_SURFACE ( 'NONE', #272, 0.2499999999999997224 ) ;
#193 =( CONVERSION_BASED_UNIT ( 'INCH', #340 ) LENGTH_UNIT ( ) NAMED_UNIT ( #269 ) );
#194 = SURFACE_SIDE_STYLE ('',( #280 ) ) ;
#195 = DIRECTION ( 'NONE',  ( 0.000000000000000000, 0.000000000000000000, -1.000000000000000000 ) ) ;
#196 = DIRECTION ( 'NONE',  ( -1.237188477660714949E-16, 1.000000000000000000, -0.000000000000000000 ) ) ;
#197 = ORIENTED_EDGE ( 'NONE', *, *, #283, .T. ) ;
#198 = CYLINDRICAL_SURFACE ( 'NONE', #356, 0.2499999999999999167 ) ;
#199 = EDGE_CURVE ( 'NONE', #354, #296, #189, .T. ) ;
#200 = AXIS2_PLACEMENT_3D ( 'NONE', #320, #140, #168 ) ;
#201 = SURFACE_SIDE_STYLE ('',( #230 ) ) ;
#202 = ORIENTED_EDGE ( 'NONE', *, *, #103, .F. ) ;
#203 = ORIENTED_EDGE ( 'NONE', *, *, #345, .F. ) ;
#204 = CLOSED_SHELL ( 'NONE', ( #236, #182, #186, #157 ) ) ;
#205 =( NAMED_UNIT ( * ) PLANE_ANGLE_UNIT ( ) SI_UNIT ( $, .RADIAN. ) );
#206 =( CONVERSION_BASED_UNIT ( 'INCH', #13 ) LENGTH_UNIT ( ) NAMED_UNIT ( #155 ) );
#207 = CARTESIAN_POINT ( 'NONE',  ( 0.000000000000000000, 0.2500000000000000000, 0.000000000000000000 ) ) ;
#208 = APPLICATION_CONTEXT ( 'automotive_design' ) ;
#209 =( NAMED_UNIT ( * ) SI_UNIT ( $, .STERADIAN. ) SOLID_ANGLE_UNIT ( ) );
#210 = PRESENTATION_LAYER_ASSIGNMENT (  '', '', ( #231 ) ) ;
#211 = FILL_AREA_STYLE ('',( #88 ) ) ;
#212 = LENGTH_MEASURE_WITH_UNIT ( LENGTH_MEASURE( 0.02539999999999999897 ), #233 );
#213 = DIMENSIONAL_EXPONENTS ( 1.000000000000000000, 0.000000000000000000, 0.000000000000000000, 0.000000000000000000, 0.000000000000000000, 0.000000000000000000, 0.000000000000000000 ) ;
#214 = SURFACE_STYLE_FILL_AREA ( #211 ) ;
#215 = DIRECTION ( 'NONE',  ( 0.000000000000000000, -0.000000000000000000, 1.000000000000000000 ) ) ;
#216 = PRESENTATION_STYLE_ASSIGNMENT (( #308 ) ) ;
#217 = DIRECTION ( 'NONE',  ( 0.000000000000000000, 1.000000000000000000, 0.000000000000000000 ) ) ;
#218 = PRODUCT_RELATED_PRODUCT_CATEGORY ( 'part', '', ( #289 ) ) ;
#219 = STYLED_ITEM ( 'NONE', ( #327 ), #15 ) ;
#220 = SURFACE_STYLE_USAGE ( .BOTH. , #221 ) ;
#221 = SURFACE_SIDE_STYLE ('',( #82 ) ) ;
#222 = DIRECTION ( 'NONE',  ( -1.237188477660714949E-16, 1.000000000000000000, -0.000000000000000000 ) ) ;
#223 = UNCERTAINTY_MEASURE_WITH_UNIT (LENGTH_MEASURE( 1.000000000000000082E-05 ), #367, 'distance_accuracy_value', 'NONE');
#224 = ADVANCED_FACE ( 'NONE', ( #368 ), #181, .T. ) ;
#225 = CARTESIAN_POINT ( 'NONE',  ( 6.123233995736772199E-17, 2.500000000000000000, 0.000000000000000000 ) ) ;
#226 = CLOSED_SHELL ( 'NONE', ( #224, #15, #125, #54, #355 ) ) ;
#227 = CIRCLE ( 'NONE', #350, 0.2499999999999995837 ) ;
#228 = DIRECTION ( 'NONE',  ( -1.237188477660714949E-16, 1.000000000000000000, -0.000000000000000000 ) ) ;
#229 = ORIENTED_EDGE ( 'NONE', *, *, #309, .F. ) ;
#230 = SURFACE_STYLE_FILL_AREA ( #353 ) ;
#231 = STYLED_ITEM ( 'NONE', ( #137 ), #54 ) ;
#232 = DIRECTION ( 'NONE',  ( -1.000000000000000000, 0.000000000000000000, 0.000000000000000000 ) ) ;
#233 =( LENGTH_UNIT ( ) NAMED_UNIT ( * ) SI_UNIT ( $, .METRE. ) );
#234 =( NAMED_UNIT ( * ) PLANE_ANGLE_UNIT ( ) SI_UNIT ( $, .RADIAN. ) );
#235 = CARTESIAN_POINT ( 'NONE',  ( 0.2499999999999999167, 0.6250000000000000000, 3.061616997868380553E-17 ) ) ;
#236 = ADVANCED_FACE ( 'NONE', ( #165 ), #113, .T. ) ;
#237 = ORIENTED_EDGE ( 'NONE', *, *, #120, .T. ) ;
#238 = DIRECTION ( 'NONE',  ( -0.000000000000000000, -1.000000000000000000, -0.000000000000000000 ) ) ;
#239 = AXIS2_PLACEMENT_3D ( 'NONE', #65, #169, #264 ) ;
#240 = CARTESIAN_POINT ( 'NONE',  ( -3.061616997868383018E-17, 0.2500000000000000000, 0.000000000000000000 ) ) ;
#241 = FILL_AREA_STYLE_COLOUR ( '', #42 ) ;
#242 = EDGE_CURVE ( 'NONE', #62, #296, #48, .T. ) ;
#243 = MANIFOLD_SOLID_BREP ( 'Revolve - Cutting Edge', #226 ) ;
#244 = FACE_OUTER_BOUND ( 'NONE', #71, .T. ) ;
#245 = MANIFOLD_SOLID_BREP ( 'Revolve - Tool Body (Straight Shanked)', #204 ) ;
#246 = FILL_AREA_STYLE ('',( #21 ) ) ;
#247 = AXIS2_PLACEMENT_3D ( 'NONE', #240, #105, #49 ) ;
#248 =( NAMED_UNIT ( * ) SI_UNIT ( $, .STERADIAN. ) SOLID_ANGLE_UNIT ( ) );
#249 =( LENGTH_UNIT ( ) NAMED_UNIT ( * ) SI_UNIT ( $, .METRE. ) );
#250 = DIRECTION ( 'NONE',  ( -0.000000000000000000, -1.000000000000000000, -0.000000000000000000 ) ) ;
#251 = APPLICATION_CONTEXT ( 'automotive_design' ) ;
#252 = PLANE ( 'NONE',  #72 ) ;
#253 = STYLED_ITEM ( 'NONE', ( #275 ), #243 ) ;
#254 = AXIS2_PLACEMENT_3D ( 'NONE', #315, #86, #51 ) ;
#255 = COLOUR_RGB ( '',0.7921568627450980005, 0.8196078431372548767, 0.9333333333333333481 ) ;
#256 = DIRECTION ( 'NONE',  ( 0.000000000000000000, 0.000000000000000000, 1.000000000000000000 ) ) ;
#257 =( NAMED_UNIT ( * ) SI_UNIT ( $, .STERADIAN. ) SOLID_ANGLE_UNIT ( ) );
#258 = PRODUCT_DEFINITION ( 'UNKNOWN', '', #286, #314 ) ;
#259 = CARTESIAN_POINT ( 'NONE',  ( -0.2500000000000000000, 0.2500000000000000000, 3.061616997868382402E-17 ) ) ;
#260 =( GEOMETRIC_REPRESENTATION_CONTEXT ( 3 ) GLOBAL_UNCERTAINTY_ASSIGNED_CONTEXT ( ( #115 ) ) GLOBAL_UNIT_ASSIGNED_CONTEXT ( ( #166, #288, #257 ) ) REPRESENTATION_CONTEXT ( 'NONE', 'WORKASPACE' ) );
#261 = SURFACE_SIDE_STYLE ('',( #373 ) ) ;
#262 = ORIENTED_EDGE ( 'NONE', *, *, #283, .F. ) ;
#263 = EDGE_CURVE ( 'NONE', #129, #176, #306, .T. ) ;
#264 = DIRECTION ( 'NONE',  ( 0.000000000000000000, 0.000000000000000000, -1.000000000000000000 ) ) ;
#265 = ORIENTED_EDGE ( 'NONE', *, *, #37, .T. ) ;
#266 = ORIENTED_EDGE ( 'NONE', *, *, #242, .F. ) ;
#267 = PRESENTATION_LAYER_ASSIGNMENT (  '', '', ( #96 ) ) ;
#268 = EDGE_LOOP ( 'NONE', ( #270, #324, #197, #43, #203 ) ) ;
#269 = DIMENSIONAL_EXPONENTS ( 1.000000000000000000, 0.000000000000000000, 0.000000000000000000, 0.000000000000000000, 0.000000000000000000, 0.000000000000000000, 0.000000000000000000 ) ;
#270 = ORIENTED_EDGE ( 'NONE', *, *, #279, .F. ) ;
#271 = DIRECTION ( 'NONE',  ( -1.000000000000000000, 0.000000000000000000, 0.000000000000000000 ) ) ;
#272 = AXIS2_PLACEMENT_3D ( 'NONE', #225, #222, #83 ) ;
#273 =( GEOMETRIC_REPRESENTATION_CONTEXT ( 3 ) GLOBAL_UNCERTAINTY_ASSIGNED_CONTEXT ( ( #284 ) ) GLOBAL_UNIT_ASSIGNED_CONTEXT ( ( #160, #27, #248 ) ) REPRESENTATION_CONTEXT ( 'NONE', 'WORKASPACE' ) );
#274 = CARTESIAN_POINT ( 'NONE',  ( 0.000000000000000000, 0.6250000000000000000, -0.2499999999999998890 ) ) ;
#275 = PRESENTATION_STYLE_ASSIGNMENT (( #220 ) ) ;
#276 = DIRECTION ( 'NONE',  ( 0.000000000000000000, 0.000000000000000000, -1.000000000000000000 ) ) ;
#277 = PRESENTATION_LAYER_ASSIGNMENT (  '', '', ( #325 ) ) ;
#278 = COLOUR_RGB ( '',1.000000000000000000, 0.000000000000000000, 0.000000000000000000 ) ;
#279 = EDGE_CURVE ( 'NONE', #150, #176, #341, .T. ) ;
#280 = SURFACE_STYLE_FILL_AREA ( #246 ) ;
#281 = LINE ( 'NONE', #139, #153 ) ;
#282 = CARTESIAN_POINT ( 'NONE',  ( 0.000000000000000000, 0.6250000000000000000, 0.000000000000000000 ) ) ;
#283 = EDGE_CURVE ( 'NONE', #69, #179, #281, .T. ) ;
#284 = UNCERTAINTY_MEASURE_WITH_UNIT (LENGTH_MEASURE( 1.000000000000000082E-05 ), #160, 'distance_accuracy_value', 'NONE');
#285 = VECTOR ( 'NONE', #133, 39.37007874015748143 ) ;
#286 = PRODUCT_DEFINITION_FORMATION_WITH_SPECIFIED_SOURCE ( 'ANY', '', #289, .NOT_KNOWN. ) ;
#287 = SURFACE_STYLE_FILL_AREA ( #310 ) ;
#288 =( NAMED_UNIT ( * ) PLANE_ANGLE_UNIT ( ) SI_UNIT ( $, .RADIAN. ) );
#289 = PRODUCT ( '17435', '17435', '', ( #128 ) ) ;
#290 = FILL_AREA_STYLE_COLOUR ( '', #107 ) ;
#291 = EDGE_CURVE ( 'NONE', #69, #150, #357, .T. ) ;
#292 = MECHANICAL_DESIGN_GEOMETRIC_PRESENTATION_REPRESENTATION (  '', ( #219 ), #297 ) ;
#293 = PRESENTATION_LAYER_ASSIGNMENT (  '', '', ( #253 ) ) ;
#294 = ORIENTED_EDGE ( 'NONE', *, *, #295, .T. ) ;
#295 = EDGE_CURVE ( 'NONE', #296, #62, #172, .T. ) ;
#296 = VERTEX_POINT ( 'NONE', #352 ) ;
#297 =( GEOMETRIC_REPRESENTATION_CONTEXT ( 3 ) GLOBAL_UNCERTAINTY_ASSIGNED_CONTEXT ( ( #110 ) ) GLOBAL_UNIT_ASSIGNED_CONTEXT ( ( #362, #74, #106 ) ) REPRESENTATION_CONTEXT ( 'NONE', 'WORKASPACE' ) );
#298 = AXIS2_PLACEMENT_3D ( 'NONE', #167, #228, #358 ) ;
#299 = EDGE_LOOP ( 'NONE', ( #294, #329 ) ) ;
#300 =( NAMED_UNIT ( * ) SI_UNIT ( $, .STERADIAN. ) SOLID_ANGLE_UNIT ( ) );
#301 = DIRECTION ( 'NONE',  ( -0.000000000000000000, -1.000000000000000000, -0.000000000000000000 ) ) ;
#302 = CARTESIAN_POINT ( 'NONE',  ( 0.000000000000000000, 0.000000000000000000, 0.000000000000000000 ) ) ;
#303 =( LENGTH_UNIT ( ) NAMED_UNIT ( * ) SI_UNIT ( $, .METRE. ) );
#304 = AXIS2_PLACEMENT_3D ( 'NONE', #207, #301, #276 ) ;
#305 = DIRECTION ( 'NONE',  ( 1.000000000000000000, 0.000000000000000000, -1.224646799147353207E-16 ) ) ;
#306 = CIRCLE ( 'NONE', #101, 0.2500000000000000000 ) ;
#307 = SURFACE_STYLE_USAGE ( .BOTH. , #16 ) ;
#308 = SURFACE_STYLE_USAGE ( .BOTH. , #138 ) ;
#309 = EDGE_CURVE ( 'NONE', #12, #354, #112, .T. ) ;
#310 = FILL_AREA_STYLE ('',( #32 ) ) ;
#311 = AXIS2_PLACEMENT_3D ( 'NONE', #361, #256, #25 ) ;
#312 =( NAMED_UNIT ( * ) SI_UNIT ( $, .STERADIAN. ) SOLID_ANGLE_UNIT ( ) );
#313 =( NAMED_UNIT ( * ) PLANE_ANGLE_UNIT ( ) SI_UNIT ( $, .RADIAN. ) );
#314 = PRODUCT_DEFINITION_CONTEXT ( 'detailed design', #251, 'design' ) ;
#315 = CARTESIAN_POINT ( 'NONE',  ( 6.123233995736772199E-17, 2.500000000000000000, 0.000000000000000000 ) ) ;
#316 = CARTESIAN_POINT ( 'NONE',  ( 0.000000000000000000, 0.2500000000000000000, -0.2500000000000000000 ) ) ;
#317 =( NAMED_UNIT ( * ) PLANE_ANGLE_UNIT ( ) SI_UNIT ( $, .RADIAN. ) );
#318 = FACE_OUTER_BOUND ( 'NONE', #299, .T. ) ;
#319 = CIRCLE ( 'NONE', #78, 0.2500000000000000000 ) ;
#320 = CARTESIAN_POINT ( 'NONE',  ( 2.932051795187517719E-16, 0.6250000000000000000, 0.000000000000000000 ) ) ;
#321 = SURFACE_STYLE_USAGE ( .BOTH. , #261 ) ;
#322 = EDGE_CURVE ( 'NONE', #354, #12, #227, .T. ) ;
#323 = VERTEX_POINT ( 'NONE', #259 ) ;
#324 = ORIENTED_EDGE ( 'NONE', *, *, #363, .T. ) ;
#325 = STYLED_ITEM ( 'NONE', ( #114 ), #224 ) ;
#326 = CIRCLE ( 'NONE', #31, 0.2500000000000000000 ) ;
#327 = PRESENTATION_STYLE_ASSIGNMENT (( #8 ) ) ;
#328 = CARTESIAN_POINT ( 'NONE',  ( 0.000000000000000000, 0.6250000000000000000, 0.000000000000000000 ) ) ;
#329 = ORIENTED_EDGE ( 'NONE', *, *, #242, .T. ) ;
#330 = ORIENTED_EDGE ( 'NONE', *, *, #309, .T. ) ;
#331 = DIMENSIONAL_EXPONENTS ( 1.000000000000000000, 0.000000000000000000, 0.000000000000000000, 0.000000000000000000, 0.000000000000000000, 0.000000000000000000, 0.000000000000000000 ) ;
#332 = MECHANICAL_DESIGN_GEOMETRIC_PRESENTATION_REPRESENTATION (  '', ( #325 ), #336 ) ;
#333 = DIRECTION ( 'NONE',  ( 1.224646799147353207E-16, -0.000000000000000000, 1.000000000000000000 ) ) ;
#334 = CARTESIAN_POINT ( 'NONE',  ( 0.2499999999999998057, 2.500000000000000000, 3.061616997868379320E-17 ) ) ;
#335 = DIRECTION ( 'NONE',  ( -0.000000000000000000, -1.000000000000000000, -0.000000000000000000 ) ) ;
#336 =( GEOMETRIC_REPRESENTATION_CONTEXT ( 3 ) GLOBAL_UNCERTAINTY_ASSIGNED_CONTEXT ( ( #223 ) ) GLOBAL_UNIT_ASSIGNED_CONTEXT ( ( #367, #313, #11 ) ) REPRESENTATION_CONTEXT ( 'NONE', 'WORKASPACE' ) );
#337 = STYLED_ITEM ( 'NONE', ( #4 ), #355 ) ;
#338 = CARTESIAN_POINT ( 'NONE',  ( -3.061616997868383018E-17, 0.2500000000000000000, 0.000000000000000000 ) ) ;
#339 = DIRECTION ( 'NONE',  ( 0.000000000000000000, 0.000000000000000000, -1.000000000000000000 ) ) ;
#340 = LENGTH_MEASURE_WITH_UNIT ( LENGTH_MEASURE( 0.02539999999999999897 ), #81 );
#341 = LINE ( 'NONE', #55, #141 ) ;
#342 = AXIS2_PLACEMENT_3D ( 'NONE', #282, #217, #215 ) ;
#343 = UNCERTAINTY_MEASURE_WITH_UNIT (LENGTH_MEASURE( 1.000000000000000082E-05 ), #52, 'distance_accuracy_value', 'NONE');
#344 = CIRCLE ( 'NONE', #370, 0.2499999999999998890 ) ;
#345 = EDGE_CURVE ( 'NONE', #176, #323, #326, .T. ) ;
#346 = CARTESIAN_POINT ( 'NONE',  ( 3.061616997868381785E-17, 0.6250000000000000000, 0.2499999999999998890 ) ) ;
#347 = UNCERTAINTY_MEASURE_WITH_UNIT (LENGTH_MEASURE( 1.000000000000000082E-05 ), #61, 'distance_accuracy_value', 'NONE');
#348 = LENGTH_MEASURE_WITH_UNIT ( LENGTH_MEASURE( 0.02539999999999999897 ), #26 );
#349 = CARTESIAN_POINT ( 'NONE',  ( -1.530808498934191509E-17, 0.000000000000000000, 0.000000000000000000 ) ) ;
#350 = AXIS2_PLACEMENT_3D ( 'NONE', #144, #91, #232 ) ;
#351 = DIRECTION ( 'NONE',  ( -0.000000000000000000, -1.000000000000000000, -0.000000000000000000 ) ) ;
#352 = CARTESIAN_POINT ( 'NONE',  ( -0.2499999999999997502, 2.500000000000000000, 0.000000000000000000 ) ) ;
#353 = FILL_AREA_STYLE ('',( #290 ) ) ;
#354 = VERTEX_POINT ( 'NONE', #175 ) ;
#355 = ADVANCED_FACE ( 'NONE', ( #40 ), #19, .T. ) ;
#356 = AXIS2_PLACEMENT_3D ( 'NONE', #152, #109, #339 ) ;
#357 = CIRCLE ( 'NONE', #239, 0.2499999999999998890 ) ;
#358 = DIRECTION ( 'NONE',  ( -1.000000000000000000, 0.000000000000000000, 0.000000000000000000 ) ) ;
#359 = APPLICATION_PROTOCOL_DEFINITION ( 'draft international standard', 'automotive_design', 1998, #208 ) ;
#360 = ORIENTED_EDGE ( 'NONE', *, *, #199, .F. ) ;
#361 = CARTESIAN_POINT ( 'NONE',  ( -3.061616997868383018E-17, 0.2500000000000000000, 0.000000000000000000 ) ) ;
#362 =( CONVERSION_BASED_UNIT ( 'INCH', #212 ) LENGTH_UNIT ( ) NAMED_UNIT ( #64 ) );
#363 = EDGE_CURVE ( 'NONE', #150, #69, #344, .T. ) ;
#364 = PRESENTATION_LAYER_ASSIGNMENT (  '', '', ( #219 ) ) ;
#365 = DIRECTION ( 'NONE',  ( -1.000000000000000000, 0.000000000000000000, 0.000000000000000000 ) ) ;
#366 = FACE_OUTER_BOUND ( 'NONE', #98, .T. ) ;
#367 =( CONVERSION_BASED_UNIT ( 'INCH', #348 ) LENGTH_UNIT ( ) NAMED_UNIT ( #17 ) );
#368 = FACE_OUTER_BOUND ( 'NONE', #67, .T. ) ;
#369 = AXIS2_PLACEMENT_3D ( 'NONE', #159, #335, #99 ) ;
#370 = AXIS2_PLACEMENT_3D ( 'NONE', #328, #238, #177 ) ;
#371 =( LENGTH_UNIT ( ) NAMED_UNIT ( * ) SI_UNIT ( $, .METRE. ) );
#372 = UNCERTAINTY_MEASURE_WITH_UNIT (LENGTH_MEASURE( 1.000000000000000082E-05 ), #193, 'distance_accuracy_value', 'NONE');
#373 = SURFACE_STYLE_FILL_AREA ( #89 ) ;
ENDSEC;
END-ISO-10303-21;
