ISO-10303-21;
HEADER;
FILE_DESCRIPTION (( 'STEP AP214' ),
    '1' );
FILE_NAME ('84041.STEP',
    '2023-06-23T10:44:10',
    ( '' ),
    ( '' ),
    'SwSTEP 2.0',
    'SolidWorks 2023',
    '' );
FILE_SCHEMA (( 'AUTOMOTIVE_DESIGN' ));
ENDSEC;

DATA;
#1 = DIRECTION ( 'NONE',  ( -2.612524104333461037E-17, 1.000000000000000000, 0.000000000000000000 ) ) ;
#2 = MECHANICAL_DESIGN_GEOMETRIC_PRESENTATION_REPRESENTATION (  '', ( #321 ), #266 ) ;
#3 = AXIS2_PLACEMENT_3D ( 'NONE', #226, #131, #43 ) ;
#4 = ORIENTED_EDGE ( 'NONE', *, *, #91, .F. ) ;
#5 = CARTESIAN_POINT ( 'NONE',  ( -0.01559999999999999928, 0.1562000000000000888, 0.000000000000000000 ) ) ;
#6 = CARTESIAN_POINT ( 'NONE',  ( -6.123233995736766036E-17, 2.500000000000000000, 0.000000000000000000 ) ) ;
#7 = COLOUR_RGB ( '',0.7921568627450980005, 0.8196078431372548767, 0.9333333333333333481 ) ;
#8 = STYLED_ITEM ( 'NONE', ( #36 ), #305 ) ;
#9 = DIRECTION ( 'NONE',  ( -0.000000000000000000, -1.000000000000000000, -0.000000000000000000 ) ) ;
#10 = CARTESIAN_POINT ( 'NONE',  ( 0.000000000000000000, 0.000000000000000000, -0.01560000000000003224 ) ) ;
#11 = EDGE_LOOP ( 'NONE', ( #301, #196, #204, #187 ) ) ;
#12 = UNCERTAINTY_MEASURE_WITH_UNIT (LENGTH_MEASURE( 1.000000000000000082E-05 ), #25, 'distance_accuracy_value', 'NONE');
#13 = ADVANCED_FACE ( 'NONE', ( #29 ), #333, .F. ) ;
#14 = CARTESIAN_POINT ( 'NONE',  ( -1.066657952654767309E-17, 0.5644863583480339564, 0.000000000000000000 ) ) ;
#15 = ORIENTED_EDGE ( 'NONE', *, *, #352, .T. ) ;
#16 = ADVANCED_BREP_SHAPE_REPRESENTATION ( '84041', ( #305, #66, #303 ), #191 ) ;
#17 = VECTOR ( 'NONE', #315, 39.37007874015748143 ) ;
#18 =( NAMED_UNIT ( * ) PLANE_ANGLE_UNIT ( ) SI_UNIT ( $, .RADIAN. ) );
#19 = APPLICATION_CONTEXT ( 'automotive_design' ) ;
#20 = ORIENTED_EDGE ( 'NONE', *, *, #352, .F. ) ;
#21 =( CONVERSION_BASED_UNIT ( 'INCH', #289 ) LENGTH_UNIT ( ) NAMED_UNIT ( #306 ) );
#22 = ORIENTED_EDGE ( 'NONE', *, *, #299, .T. ) ;
#23 = ORIENTED_EDGE ( 'NONE', *, *, #49, .F. ) ;
#24 = LINE ( 'NONE', #80, #248 ) ;
#25 =( CONVERSION_BASED_UNIT ( 'INCH', #271 ) LENGTH_UNIT ( ) NAMED_UNIT ( #84 ) );
#26 = DIRECTION ( 'NONE',  ( -1.000000000000000000, -2.612524104333461037E-17, 0.000000000000000000 ) ) ;
#27 = CONICAL_SURFACE ( 'NONE', #242, 0.01559999999999999928, 0.2617993877991502405 ) ;
#28 = CIRCLE ( 'NONE', #135, 0.01560000000000003224 ) ;
#29 = FACE_OUTER_BOUND ( 'NONE', #279, .T. ) ;
#30 = EDGE_CURVE ( 'NONE', #239, #152, #111, .T. ) ;
#31 = CARTESIAN_POINT ( 'NONE',  ( 5.323720112664215538E-36, 0.1562000000000000055, 0.000000000000000000 ) ) ;
#32 =( CONVERSION_BASED_UNIT ( 'INCH', #122 ) LENGTH_UNIT ( ) NAMED_UNIT ( #276 ) );
#33 = AXIS2_PLACEMENT_3D ( 'NONE', #245, #139, #240 ) ;
#34 = SURFACE_SIDE_STYLE ('',( #349 ) ) ;
#35 =( NAMED_UNIT ( * ) PLANE_ANGLE_UNIT ( ) SI_UNIT ( $, .RADIAN. ) );
#36 = PRESENTATION_STYLE_ASSIGNMENT (( #280 ) ) ;
#37 = FACE_OUTER_BOUND ( 'NONE', #11, .T. ) ;
#38 = FACE_OUTER_BOUND ( 'NONE', #71, .T. ) ;
#39 = LINE ( 'NONE', #258, #159 ) ;
#40 = PLANE ( 'NONE',  #236 ) ;
#41 = APPLICATION_PROTOCOL_DEFINITION ( 'draft international standard', 'automotive_design', 1998, #19 ) ;
#42 = CARTESIAN_POINT ( 'NONE',  ( 0.000000000000000000, 0.1562000000000000888, 0.000000000000000000 ) ) ;
#43 = DIRECTION ( 'NONE',  ( 0.000000000000000000, 0.000000000000000000, -1.000000000000000000 ) ) ;
#44 = ORIENTED_EDGE ( 'NONE', *, *, #171, .T. ) ;
#45 = VECTOR ( 'NONE', #96, 39.37007874015748143 ) ;
#46 =( CONVERSION_BASED_UNIT ( 'INCH', #209 ) LENGTH_UNIT ( ) NAMED_UNIT ( #212 ) );
#47 = VERTEX_POINT ( 'NONE', #147 ) ;
#48 =( GEOMETRIC_REPRESENTATION_CONTEXT ( 3 ) GLOBAL_UNCERTAINTY_ASSIGNED_CONTEXT ( ( #207 ) ) GLOBAL_UNIT_ASSIGNED_CONTEXT ( ( #357, #169, #90 ) ) REPRESENTATION_CONTEXT ( 'NONE', 'WORKASPACE' ) );
#49 = EDGE_CURVE ( 'NONE', #178, #51, #216, .T. ) ;
#50 = UNCERTAINTY_MEASURE_WITH_UNIT (LENGTH_MEASURE( 1.000000000000000082E-05 ), #342, 'distance_accuracy_value', 'NONE');
#51 = VERTEX_POINT ( 'NONE', #143 ) ;
#52 = APPLICATION_CONTEXT ( 'automotive_design' ) ;
#53 = FACE_OUTER_BOUND ( 'NONE', #329, .T. ) ;
#54 =( NAMED_UNIT ( * ) SI_UNIT ( $, .STERADIAN. ) SOLID_ANGLE_UNIT ( ) );
#55 = ORIENTED_EDGE ( 'NONE', *, *, #313, .F. ) ;
#56 = CIRCLE ( 'NONE', #156, 0.1250000000000000555 ) ;
#57 = PRESENTATION_STYLE_ASSIGNMENT (( #213 ) ) ;
#58 = ORIENTED_EDGE ( 'NONE', *, *, #272, .F. ) ;
#59 = ORIENTED_EDGE ( 'NONE', *, *, #123, .T. ) ;
#60 =( LENGTH_UNIT ( ) NAMED_UNIT ( * ) SI_UNIT ( $, .METRE. ) );
#61 = SURFACE_STYLE_FILL_AREA ( #215 ) ;
#62 = COLOUR_RGB ( '',1.000000000000000000, 0.000000000000000000, 0.000000000000000000 ) ;
#63 = VECTOR ( 'NONE', #110, 39.37007874015748143 ) ;
#64 = ORIENTED_EDGE ( 'NONE', *, *, #171, .F. ) ;
#65 = FILL_AREA_STYLE_COLOUR ( '', #78 ) ;
#66 = MANIFOLD_SOLID_BREP ( 'Revolve - Tool Body (Reduced Cut Diameter)', #327 ) ;
#67 = SURFACE_STYLE_USAGE ( .BOTH. , #102 ) ;
#68 = CARTESIAN_POINT ( 'NONE',  ( 0.000000000000000000, 0.000000000000000000, 0.000000000000000000 ) ) ;
#69 =( NAMED_UNIT ( * ) SI_UNIT ( $, .STERADIAN. ) SOLID_ANGLE_UNIT ( ) );
#70 = ADVANCED_FACE ( 'NONE', ( #37 ), #319, .T. ) ;
#71 = EDGE_LOOP ( 'NONE', ( #44, #238, #20, #79 ) ) ;
#72 = COLOUR_RGB ( '',1.000000000000000000, 0.000000000000000000, 0.000000000000000000 ) ;
#73 =( NAMED_UNIT ( * ) PLANE_ANGLE_UNIT ( ) SI_UNIT ( $, .RADIAN. ) );
#74 = ORIENTED_EDGE ( 'NONE', *, *, #186, .F. ) ;
#75 = DIRECTION ( 'NONE',  ( -2.612524104333461037E-17, 1.000000000000000000, -0.000000000000000000 ) ) ;
#76 = DIRECTION ( 'NONE',  ( -2.612524104333461037E-17, 1.000000000000000000, -0.000000000000000000 ) ) ;
#77 = FACE_OUTER_BOUND ( 'NONE', #273, .T. ) ;
#78 = COLOUR_RGB ( '',0.7921568627450980005, 0.8196078431372548767, 0.9333333333333333481 ) ;
#79 = ORIENTED_EDGE ( 'NONE', *, *, #290, .F. ) ;
#80 = CARTESIAN_POINT ( 'NONE',  ( 1.910449006669872705E-18, 0.000000000000000000, 0.01560000000000001663 ) ) ;
#81 = VERTEX_POINT ( 'NONE', #10 ) ;
#82 = STYLED_ITEM ( 'NONE', ( #317 ), #70 ) ;
#83 = CARTESIAN_POINT ( 'NONE',  ( -0.01559999999999999928, 0.1562000000000000888, 0.000000000000000000 ) ) ;
#84 = DIMENSIONAL_EXPONENTS ( 1.000000000000000000, 0.000000000000000000, 0.000000000000000000, 0.000000000000000000, 0.000000000000000000, 0.000000000000000000, 0.000000000000000000 ) ;
#85 = PRESENTATION_STYLE_ASSIGNMENT (( #250 ) ) ;
#86 = SURFACE_STYLE_USAGE ( .BOTH. , #198 ) ;
#87 = LENGTH_MEASURE_WITH_UNIT ( LENGTH_MEASURE( 0.02539999999999999897 ), #60 );
#88 = ORIENTED_EDGE ( 'NONE', *, *, #272, .T. ) ;
#89 = DIMENSIONAL_EXPONENTS ( 1.000000000000000000, 0.000000000000000000, 0.000000000000000000, 0.000000000000000000, 0.000000000000000000, 0.000000000000000000, 0.000000000000000000 ) ;
#90 =( NAMED_UNIT ( * ) SI_UNIT ( $, .STERADIAN. ) SOLID_ANGLE_UNIT ( ) );
#91 = EDGE_CURVE ( 'NONE', #51, #239, #177, .T. ) ;
#92 = DIRECTION ( 'NONE',  ( -2.612524104333461037E-17, 1.000000000000000000, -0.000000000000000000 ) ) ;
#93 = CIRCLE ( 'NONE', #255, 0.1250000000000000278 ) ;
#94 = SURFACE_SIDE_STYLE ('',( #129 ) ) ;
#95 = PRODUCT ( '84041', '84041', '', ( #189 ) ) ;
#96 = DIRECTION ( 'NONE',  ( -2.612524104333461037E-17, 1.000000000000000000, -0.000000000000000000 ) ) ;
#97 =( NAMED_UNIT ( * ) SI_UNIT ( $, .STERADIAN. ) SOLID_ANGLE_UNIT ( ) );
#98 = ADVANCED_FACE ( 'NONE', ( #224 ), #208, .T. ) ;
#99 = CARTESIAN_POINT ( 'NONE',  ( -0.1250000000000001388, 2.500000000000000000, 0.000000000000000000 ) ) ;
#100 = SURFACE_STYLE_FILL_AREA ( #340 ) ;
#101 = CARTESIAN_POINT ( 'NONE',  ( 0.000000000000000000, 0.000000000000000000, 0.000000000000000000 ) ) ;
#102 = SURFACE_SIDE_STYLE ('',( #263 ) ) ;
#103 = PRESENTATION_LAYER_ASSIGNMENT (  '', '', ( #82 ) ) ;
#104 = LINE ( 'NONE', #125, #45 ) ;
#105 = DIRECTION ( 'NONE',  ( 0.000000000000000000, 0.000000000000000000, -1.000000000000000000 ) ) ;
#106 = PRODUCT_DEFINITION_CONTEXT ( 'detailed design', #52, 'design' ) ;
#107 = AXIS2_PLACEMENT_3D ( 'NONE', #337, #339, #105 ) ;
#108 = PRODUCT_DEFINITION ( 'UNKNOWN', '', #138, #106 ) ;
#109 = UNCERTAINTY_MEASURE_WITH_UNIT (LENGTH_MEASURE( 1.000000000000000082E-05 ), #46, 'distance_accuracy_value', 'NONE');
#110 = DIRECTION ( 'NONE',  ( -0.000000000000000000, -1.000000000000000000, -0.000000000000000000 ) ) ;
#111 = CIRCLE ( 'NONE', #291, 0.1250000000000000278 ) ;
#112 = ORIENTED_EDGE ( 'NONE', *, *, #161, .F. ) ;
#113 = CIRCLE ( 'NONE', #302, 0.01560000000000003224 ) ;
#114 = AXIS2_PLACEMENT_3D ( 'NONE', #293, #210, #180 ) ;
#115 = APPLICATION_PROTOCOL_DEFINITION ( 'draft international standard', 'automotive_design', 1998, #52 ) ;
#116 = VERTEX_POINT ( 'NONE', #99 ) ;
#117 = CARTESIAN_POINT ( 'NONE',  ( -1.066657952654767309E-17, 0.5644863583480339564, 0.000000000000000000 ) ) ;
#118 = CARTESIAN_POINT ( 'NONE',  ( 0.000000000000000000, 0.1562000000000000888, 0.000000000000000000 ) ) ;
#119 = DIRECTION ( 'NONE',  ( -1.000000000000000000, 0.000000000000000000, 0.000000000000000000 ) ) ;
#120 = MECHANICAL_DESIGN_GEOMETRIC_PRESENTATION_REPRESENTATION (  '', ( #278 ), #211 ) ;
#121 = SURFACE_SIDE_STYLE ('',( #194 ) ) ;
#122 = LENGTH_MEASURE_WITH_UNIT ( LENGTH_MEASURE( 0.02539999999999999897 ), #356 );
#123 = EDGE_CURVE ( 'NONE', #239, #297, #39, .T. ) ;
#124 =( LENGTH_UNIT ( ) NAMED_UNIT ( * ) SI_UNIT ( $, .METRE. ) );
#125 = CARTESIAN_POINT ( 'NONE',  ( -0.1250000000000001110, 2.500000000000000000, 0.000000000000000000 ) ) ;
#126 = AXIS2_PLACEMENT_3D ( 'NONE', #31, #1, #26 ) ;
#127 = DIRECTION ( 'NONE',  ( 0.000000000000000000, 0.000000000000000000, -1.000000000000000000 ) ) ;
#128 = CARTESIAN_POINT ( 'NONE',  ( 0.000000000000000000, 0.1562000000000000888, 0.000000000000000000 ) ) ;
#129 = SURFACE_STYLE_FILL_AREA ( #256 ) ;
#130 = CARTESIAN_POINT ( 'NONE',  ( 0.000000000000000000, 0.000000000000000000, 0.000000000000000000 ) ) ;
#131 = DIRECTION ( 'NONE',  ( -0.000000000000000000, -1.000000000000000000, -0.000000000000000000 ) ) ;
#132 =( NAMED_UNIT ( * ) SI_UNIT ( $, .STERADIAN. ) SOLID_ANGLE_UNIT ( ) );
#133 = MECHANICAL_DESIGN_GEOMETRIC_PRESENTATION_REPRESENTATION (  '', ( #82 ), #206 ) ;
#134 = PRESENTATION_LAYER_ASSIGNMENT (  '', '', ( #278 ) ) ;
#135 = AXIS2_PLACEMENT_3D ( 'NONE', #101, #260, #347 ) ;
#136 = DIRECTION ( 'NONE',  ( -2.612524104333461037E-17, 1.000000000000000000, -0.000000000000000000 ) ) ;
#137 = PLANE ( 'NONE',  #264 ) ;
#138 = PRODUCT_DEFINITION_FORMATION_WITH_SPECIFIED_SOURCE ( 'ANY', '', #95, .NOT_KNOWN. ) ;
#139 = DIRECTION ( 'NONE',  ( 0.000000000000000000, -1.000000000000000000, -0.000000000000000000 ) ) ;
#140 = ORIENTED_EDGE ( 'NONE', *, *, #30, .F. ) ;
#141 = ADVANCED_FACE ( 'NONE', ( #231 ), #27, .T. ) ;
#142 = AXIS2_PLACEMENT_3D ( 'NONE', #244, #92, #119 ) ;
#143 = CARTESIAN_POINT ( 'NONE',  ( 0.01559999999999999928, 0.1562000000000000888, 8.609266998005893705E-18 ) ) ;
#144 =( LENGTH_UNIT ( ) NAMED_UNIT ( * ) SI_UNIT ( $, .METRE. ) );
#145 =( GEOMETRIC_REPRESENTATION_CONTEXT ( 3 ) GLOBAL_UNCERTAINTY_ASSIGNED_CONTEXT ( ( #50 ) ) GLOBAL_UNIT_ASSIGNED_CONTEXT ( ( #342, #252, #97 ) ) REPRESENTATION_CONTEXT ( 'NONE', 'WORKASPACE' ) );
#146 = DIRECTION ( 'NONE',  ( -0.2588190451025215166, 0.9659258262890679791, 0.000000000000000000 ) ) ;
#147 = CARTESIAN_POINT ( 'NONE',  ( 0.000000000000000000, 0.1562000000000000055, -0.01559999999999999928 ) ) ;
#148 = DIRECTION ( 'NONE',  ( -1.000000000000000000, 0.000000000000000000, 0.000000000000000000 ) ) ;
#149 = ORIENTED_EDGE ( 'NONE', *, *, #30, .T. ) ;
#150 = STYLED_ITEM ( 'NONE', ( #57 ), #282 ) ;
#151 = SURFACE_STYLE_USAGE ( .BOTH. , #277 ) ;
#152 = VERTEX_POINT ( 'NONE', #175 ) ;
#153 = DIMENSIONAL_EXPONENTS ( 1.000000000000000000, 0.000000000000000000, 0.000000000000000000, 0.000000000000000000, 0.000000000000000000, 0.000000000000000000, 0.000000000000000000 ) ;
#154 = DIRECTION ( 'NONE',  ( -0.000000000000000000, -1.000000000000000000, -0.000000000000000000 ) ) ;
#155 = LENGTH_MEASURE_WITH_UNIT ( LENGTH_MEASURE( 0.02539999999999999897 ), #205 );
#156 = AXIS2_PLACEMENT_3D ( 'NONE', #6, #334, #281 ) ;
#157 = DIRECTION ( 'NONE',  ( -1.000000000000000000, 0.000000000000000000, 0.000000000000000000 ) ) ;
#158 = DIRECTION ( 'NONE',  ( -2.612524104333461037E-17, 1.000000000000000000, -0.000000000000000000 ) ) ;
#159 = VECTOR ( 'NONE', #136, 39.37007874015748143 ) ;
#160 = AXIS2_PLACEMENT_3D ( 'NONE', #118, #202, #338 ) ;
#161 = EDGE_CURVE ( 'NONE', #152, #239, #93, .T. ) ;
#162 = CIRCLE ( 'NONE', #3, 0.01559999999999999928 ) ;
#163 = AXIS2_PLACEMENT_3D ( 'NONE', #292, #234, #235 ) ;
#164 = ORIENTED_EDGE ( 'NONE', *, *, #49, .T. ) ;
#165 = PRODUCT_RELATED_PRODUCT_CATEGORY ( 'part', '', ( #95 ) ) ;
#166 = VERTEX_POINT ( 'NONE', #344 ) ;
#167 = ORIENTED_EDGE ( 'NONE', *, *, #308, .F. ) ;
#168 = MECHANICAL_DESIGN_GEOMETRIC_PRESENTATION_REPRESENTATION (  '', ( #150 ), #48 ) ;
#169 =( NAMED_UNIT ( * ) PLANE_ANGLE_UNIT ( ) SI_UNIT ( $, .RADIAN. ) );
#170 = DIRECTION ( 'NONE',  ( 0.000000000000000000, 1.000000000000000000, 0.000000000000000000 ) ) ;
#171 = EDGE_CURVE ( 'NONE', #47, #166, #331, .T. ) ;
#172 = FILL_AREA_STYLE_COLOUR ( '', #223 ) ;
#173 = DIRECTION ( 'NONE',  ( 0.000000000000000000, 0.000000000000000000, -1.000000000000000000 ) ) ;
#174 = DIRECTION ( 'NONE',  ( -2.612524104333461037E-17, 1.000000000000000000, -0.000000000000000000 ) ) ;
#175 = CARTESIAN_POINT ( 'NONE',  ( -0.1250000000000000000, 0.5644863583480339564, 0.000000000000000000 ) ) ;
#176 = CYLINDRICAL_SURFACE ( 'NONE', #114, 0.01560000000000001663 ) ;
#177 = LINE ( 'NONE', #181, #17 ) ;
#178 = VERTEX_POINT ( 'NONE', #5 ) ;
#179 = UNCERTAINTY_MEASURE_WITH_UNIT (LENGTH_MEASURE( 1.000000000000000082E-05 ), #32, 'distance_accuracy_value', 'NONE');
#180 = DIRECTION ( 'NONE',  ( 0.000000000000000000, 0.000000000000000000, -1.000000000000000000 ) ) ;
#181 = CARTESIAN_POINT ( 'NONE',  ( 0.01559999999999999928, 0.1562000000000000888, 1.910449006669871164E-18 ) ) ;
#182 = PRODUCT_DEFINITION_SHAPE ( 'NONE', 'NONE',  #108 ) ;
#183 = CYLINDRICAL_SURFACE ( 'NONE', #163, 0.1250000000000000278 ) ;
#184 = COLOUR_RGB ( '',1.000000000000000000, 0.000000000000000000, 0.000000000000000000 ) ;
#185 = FILL_AREA_STYLE ('',( #320 ) ) ;
#186 = EDGE_CURVE ( 'NONE', #152, #116, #104, .T. ) ;
#187 = ORIENTED_EDGE ( 'NONE', *, *, #299, .F. ) ;
#188 = VERTEX_POINT ( 'NONE', #203 ) ;
#189 = PRODUCT_CONTEXT ( 'NONE', #19, 'mechanical' ) ;
#190 = ORIENTED_EDGE ( 'NONE', *, *, #186, .T. ) ;
#191 =( GEOMETRIC_REPRESENTATION_CONTEXT ( 3 ) GLOBAL_UNCERTAINTY_ASSIGNED_CONTEXT ( ( #229 ) ) GLOBAL_UNIT_ASSIGNED_CONTEXT ( ( #21, #18, #286 ) ) REPRESENTATION_CONTEXT ( 'NONE', 'WORKASPACE' ) );
#192 = ORIENTED_EDGE ( 'NONE', *, *, #91, .T. ) ;
#193 = EDGE_LOOP ( 'NONE', ( #164, #192, #112, #58 ) ) ;
#194 = SURFACE_STYLE_FILL_AREA ( #247 ) ;
#195 = AXIS2_PLACEMENT_3D ( 'NONE', #283, #75, #221 ) ;
#196 = ORIENTED_EDGE ( 'NONE', *, *, #251, .T. ) ;
#197 = STYLED_ITEM ( 'NONE', ( #249 ), #318 ) ;
#198 = SURFACE_SIDE_STYLE ('',( #61 ) ) ;
#199 = ADVANCED_FACE ( 'NONE', ( #285 ), #40, .F. ) ;
#200 = MECHANICAL_DESIGN_GEOMETRIC_PRESENTATION_REPRESENTATION (  '', ( #8 ), #145 ) ;
#201 = DIRECTION ( 'NONE',  ( -1.000000000000000000, 0.000000000000000000, 0.000000000000000000 ) ) ;
#202 = DIRECTION ( 'NONE',  ( -2.612524104333461037E-17, 1.000000000000000000, -0.000000000000000000 ) ) ;
#203 = CARTESIAN_POINT ( 'NONE',  ( 1.910449006669875016E-18, 0.000000000000000000, 0.01560000000000003224 ) ) ;
#204 = ORIENTED_EDGE ( 'NONE', *, *, #290, .T. ) ;
#205 =( LENGTH_UNIT ( ) NAMED_UNIT ( * ) SI_UNIT ( $, .METRE. ) );
#206 =( GEOMETRIC_REPRESENTATION_CONTEXT ( 3 ) GLOBAL_UNCERTAINTY_ASSIGNED_CONTEXT ( ( #346 ) ) GLOBAL_UNIT_ASSIGNED_CONTEXT ( ( #316, #73, #132 ) ) REPRESENTATION_CONTEXT ( 'NONE', 'WORKASPACE' ) );
#207 = UNCERTAINTY_MEASURE_WITH_UNIT (LENGTH_MEASURE( 1.000000000000000082E-05 ), #357, 'distance_accuracy_value', 'NONE');
#208 = CYLINDRICAL_SURFACE ( 'NONE', #353, 0.1250000000000000278 ) ;
#209 = LENGTH_MEASURE_WITH_UNIT ( LENGTH_MEASURE( 0.02539999999999999897 ), #144 );
#210 = DIRECTION ( 'NONE',  ( -0.000000000000000000, -1.000000000000000000, -0.000000000000000000 ) ) ;
#211 =( GEOMETRIC_REPRESENTATION_CONTEXT ( 3 ) GLOBAL_UNCERTAINTY_ASSIGNED_CONTEXT ( ( #12 ) ) GLOBAL_UNIT_ASSIGNED_CONTEXT ( ( #25, #243, #54 ) ) REPRESENTATION_CONTEXT ( 'NONE', 'WORKASPACE' ) );
#212 = DIMENSIONAL_EXPONENTS ( 1.000000000000000000, 0.000000000000000000, 0.000000000000000000, 0.000000000000000000, 0.000000000000000000, 0.000000000000000000, 0.000000000000000000 ) ;
#213 = SURFACE_STYLE_USAGE ( .BOTH. , #121 ) ;
#214 = EDGE_LOOP ( 'NONE', ( #64, #219 ) ) ;
#215 = FILL_AREA_STYLE ('',( #358 ) ) ;
#216 = CIRCLE ( 'NONE', #142, 0.01559999999999999928 ) ;
#217 = DIRECTION ( 'NONE',  ( -2.612524104333461037E-17, 1.000000000000000000, -0.000000000000000000 ) ) ;
#218 =( LENGTH_UNIT ( ) NAMED_UNIT ( * ) SI_UNIT ( $, .METRE. ) );
#219 = ORIENTED_EDGE ( 'NONE', *, *, #251, .F. ) ;
#220 = ADVANCED_FACE ( 'NONE', ( #241 ), #137, .T. ) ;
#221 = DIRECTION ( 'NONE',  ( -1.000000000000000000, 0.000000000000000000, 0.000000000000000000 ) ) ;
#222 = CARTESIAN_POINT ( 'NONE',  ( 0.000000000000000000, 0.1562000000000000055, 0.000000000000000000 ) ) ;
#223 = COLOUR_RGB ( '',1.000000000000000000, 0.000000000000000000, 0.000000000000000000 ) ;
#224 = FACE_OUTER_BOUND ( 'NONE', #300, .T. ) ;
#225 = FILL_AREA_STYLE_COLOUR ( '', #72 ) ;
#226 = CARTESIAN_POINT ( 'NONE',  ( 0.000000000000000000, 0.1562000000000000055, 0.000000000000000000 ) ) ;
#227 = CARTESIAN_POINT ( 'NONE',  ( -6.123233995736766036E-17, 2.500000000000000000, 0.000000000000000000 ) ) ;
#228 = LENGTH_MEASURE_WITH_UNIT ( LENGTH_MEASURE( 0.02539999999999999897 ), #218 );
#229 = UNCERTAINTY_MEASURE_WITH_UNIT (LENGTH_MEASURE( 1.000000000000000082E-05 ), #21, 'distance_accuracy_value', 'NONE');
#230 = DIRECTION ( 'NONE',  ( 0.000000000000000000, 0.000000000000000000, 1.000000000000000000 ) ) ;
#231 = FACE_OUTER_BOUND ( 'NONE', #269, .T. ) ;
#232 = EDGE_LOOP ( 'NONE', ( #325, #326 ) ) ;
#233 = PRESENTATION_LAYER_ASSIGNMENT (  '', '', ( #321 ) ) ;
#234 = DIRECTION ( 'NONE',  ( -2.612524104333461037E-17, 1.000000000000000000, -0.000000000000000000 ) ) ;
#235 = DIRECTION ( 'NONE',  ( -1.000000000000000000, 0.000000000000000000, 0.000000000000000000 ) ) ;
#236 = AXIS2_PLACEMENT_3D ( 'NONE', #341, #323, #270 ) ;
#237 = CIRCLE ( 'NONE', #312, 0.01559999999999999928 ) ;
#238 = ORIENTED_EDGE ( 'NONE', *, *, #257, .T. ) ;
#239 = VERTEX_POINT ( 'NONE', #314 ) ;
#240 = DIRECTION ( 'NONE',  ( 0.000000000000000000, 0.000000000000000000, -1.000000000000000000 ) ) ;
#241 = FACE_OUTER_BOUND ( 'NONE', #214, .T. ) ;
#242 = AXIS2_PLACEMENT_3D ( 'NONE', #128, #348, #201 ) ;
#243 =( NAMED_UNIT ( * ) PLANE_ANGLE_UNIT ( ) SI_UNIT ( $, .RADIAN. ) );
#244 = CARTESIAN_POINT ( 'NONE',  ( 0.000000000000000000, 0.1562000000000000888, 0.000000000000000000 ) ) ;
#245 = CARTESIAN_POINT ( 'NONE',  ( 0.000000000000000000, 0.000000000000000000, 0.000000000000000000 ) ) ;
#246 = FILL_AREA_STYLE_COLOUR ( '', #62 ) ;
#247 = FILL_AREA_STYLE ('',( #172 ) ) ;
#248 = VECTOR ( 'NONE', #296, 39.37007874015748143 ) ;
#249 = PRESENTATION_STYLE_ASSIGNMENT (( #151 ) ) ;
#250 = SURFACE_STYLE_USAGE ( .BOTH. , #34 ) ;
#251 = EDGE_CURVE ( 'NONE', #166, #47, #162, .T. ) ;
#252 =( NAMED_UNIT ( * ) PLANE_ANGLE_UNIT ( ) SI_UNIT ( $, .RADIAN. ) );
#253 = DIMENSIONAL_EXPONENTS ( 1.000000000000000000, 0.000000000000000000, 0.000000000000000000, 0.000000000000000000, 0.000000000000000000, 0.000000000000000000, 0.000000000000000000 ) ;
#254 = DIRECTION ( 'NONE',  ( -1.000000000000000000, 0.000000000000000000, 0.000000000000000000 ) ) ;
#255 = AXIS2_PLACEMENT_3D ( 'NONE', #14, #174, #254 ) ;
#256 = FILL_AREA_STYLE ('',( #65 ) ) ;
#257 = EDGE_CURVE ( 'NONE', #166, #188, #24, .T. ) ;
#258 = CARTESIAN_POINT ( 'NONE',  ( 0.1249999999999999584, 2.500000000000000000, 1.530808498934191817E-17 ) ) ;
#259 = ORIENTED_EDGE ( 'NONE', *, *, #161, .T. ) ;
#260 = DIRECTION ( 'NONE',  ( -0.000000000000000000, -1.000000000000000000, -0.000000000000000000 ) ) ;
#261 = DIRECTION ( 'NONE',  ( -1.000000000000000000, 0.000000000000000000, 0.000000000000000000 ) ) ;
#262 =( LENGTH_UNIT ( ) NAMED_UNIT ( * ) SI_UNIT ( $, .METRE. ) );
#263 = SURFACE_STYLE_FILL_AREA ( #287 ) ;
#264 = AXIS2_PLACEMENT_3D ( 'NONE', #328, #170, #275 ) ;
#265 =( GEOMETRIC_REPRESENTATION_CONTEXT ( 3 ) GLOBAL_UNCERTAINTY_ASSIGNED_CONTEXT ( ( #109 ) ) GLOBAL_UNIT_ASSIGNED_CONTEXT ( ( #46, #288, #330 ) ) REPRESENTATION_CONTEXT ( 'NONE', 'WORKASPACE' ) );
#266 =( GEOMETRIC_REPRESENTATION_CONTEXT ( 3 ) GLOBAL_UNCERTAINTY_ASSIGNED_CONTEXT ( ( #179 ) ) GLOBAL_UNIT_ASSIGNED_CONTEXT ( ( #32, #35, #69 ) ) REPRESENTATION_CONTEXT ( 'NONE', 'WORKASPACE' ) );
#267 = AXIS2_PLACEMENT_3D ( 'NONE', #222, #9, #127 ) ;
#268 = MECHANICAL_DESIGN_GEOMETRIC_PRESENTATION_REPRESENTATION (  '', ( #197 ), #265 ) ;
#269 = EDGE_LOOP ( 'NONE', ( #4, #311, #88, #140 ) ) ;
#270 = DIRECTION ( 'NONE',  ( 1.000000000000000000, 2.612524104333461037E-17, 0.000000000000000000 ) ) ;
#271 = LENGTH_MEASURE_WITH_UNIT ( LENGTH_MEASURE( 0.02539999999999999897 ), #124 );
#272 = EDGE_CURVE ( 'NONE', #178, #152, #351, .T. ) ;
#273 = EDGE_LOOP ( 'NONE', ( #332, #149, #190, #167 ) ) ;
#274 = PLANE ( 'NONE',  #33 ) ;
#275 = DIRECTION ( 'NONE',  ( 0.000000000000000000, -0.000000000000000000, 1.000000000000000000 ) ) ;
#276 = DIMENSIONAL_EXPONENTS ( 1.000000000000000000, 0.000000000000000000, 0.000000000000000000, 0.000000000000000000, 0.000000000000000000, 0.000000000000000000, 0.000000000000000000 ) ;
#277 = SURFACE_SIDE_STYLE ('',( #100 ) ) ;
#278 = STYLED_ITEM ( 'NONE', ( #85 ), #220 ) ;
#279 = EDGE_LOOP ( 'NONE', ( #23, #307 ) ) ;
#280 = SURFACE_STYLE_USAGE ( .BOTH. , #94 ) ;
#281 = DIRECTION ( 'NONE',  ( -1.000000000000000000, 0.000000000000000000, 0.000000000000000000 ) ) ;
#282 = ADVANCED_FACE ( 'NONE', ( #53 ), #274, .T. ) ;
#283 = CARTESIAN_POINT ( 'NONE',  ( -6.123233995736766036E-17, 2.500000000000000000, 0.000000000000000000 ) ) ;
#284 = DIRECTION ( 'NONE',  ( 1.000000000000000000, 0.000000000000000000, 0.000000000000000000 ) ) ;
#285 = FACE_OUTER_BOUND ( 'NONE', #232, .T. ) ;
#286 =( NAMED_UNIT ( * ) SI_UNIT ( $, .STERADIAN. ) SOLID_ANGLE_UNIT ( ) );
#287 = FILL_AREA_STYLE ('',( #246 ) ) ;
#288 =( NAMED_UNIT ( * ) PLANE_ANGLE_UNIT ( ) SI_UNIT ( $, .RADIAN. ) );
#289 = LENGTH_MEASURE_WITH_UNIT ( LENGTH_MEASURE( 0.02539999999999999897 ), #262 );
#290 = EDGE_CURVE ( 'NONE', #47, #81, #298, .T. ) ;
#291 = AXIS2_PLACEMENT_3D ( 'NONE', #117, #217, #148 ) ;
#292 = CARTESIAN_POINT ( 'NONE',  ( -6.123233995736766036E-17, 2.500000000000000000, 0.000000000000000000 ) ) ;
#293 = CARTESIAN_POINT ( 'NONE',  ( 0.000000000000000000, 0.000000000000000000, 0.000000000000000000 ) ) ;
#294 = ADVANCED_FACE ( 'NONE', ( #359 ), #310, .T. ) ;
#295 = SHAPE_DEFINITION_REPRESENTATION ( #182, #16 ) ;
#296 = DIRECTION ( 'NONE',  ( -0.000000000000000000, -1.000000000000000000, -0.000000000000000000 ) ) ;
#297 = VERTEX_POINT ( 'NONE', #309 ) ;
#298 = LINE ( 'NONE', #355, #63 ) ;
#299 = EDGE_CURVE ( 'NONE', #188, #81, #113, .T. ) ;
#300 = EDGE_LOOP ( 'NONE', ( #259, #59, #55, #74 ) ) ;
#301 = ORIENTED_EDGE ( 'NONE', *, *, #257, .F. ) ;
#302 = AXIS2_PLACEMENT_3D ( 'NONE', #68, #154, #173 ) ;
#303 = AXIS2_PLACEMENT_3D ( 'NONE', #130, #230, #284 ) ;
#304 = PRESENTATION_STYLE_ASSIGNMENT (( #86 ) ) ;
#305 = MANIFOLD_SOLID_BREP ( 'Revolve - Cutting Edge', #343 ) ;
#306 = DIMENSIONAL_EXPONENTS ( 1.000000000000000000, 0.000000000000000000, 0.000000000000000000, 0.000000000000000000, 0.000000000000000000, 0.000000000000000000, 0.000000000000000000 ) ;
#307 = ORIENTED_EDGE ( 'NONE', *, *, #335, .F. ) ;
#308 = EDGE_CURVE ( 'NONE', #297, #116, #336, .T. ) ;
#309 = CARTESIAN_POINT ( 'NONE',  ( 0.1250000000000000278, 2.500000000000000000, 1.530808498934192125E-17 ) ) ;
#310 = CONICAL_SURFACE ( 'NONE', #160, 0.01559999999999999928, 0.2617993877991502405 ) ;
#311 = ORIENTED_EDGE ( 'NONE', *, *, #335, .T. ) ;
#312 = AXIS2_PLACEMENT_3D ( 'NONE', #42, #76, #157 ) ;
#313 = EDGE_CURVE ( 'NONE', #116, #297, #56, .T. ) ;
#314 = CARTESIAN_POINT ( 'NONE',  ( 0.1250000000000000000, 0.5644863583480339564, 1.530808498934191509E-17 ) ) ;
#315 = DIRECTION ( 'NONE',  ( 0.2588190451025215166, 0.9659258262890679791, 3.169619151431774186E-17 ) ) ;
#316 =( CONVERSION_BASED_UNIT ( 'INCH', #155 ) LENGTH_UNIT ( ) NAMED_UNIT ( #153 ) );
#317 = PRESENTATION_STYLE_ASSIGNMENT (( #67 ) ) ;
#318 = ADVANCED_FACE ( 'NONE', ( #38 ), #176, .T. ) ;
#319 = CYLINDRICAL_SURFACE ( 'NONE', #107, 0.01560000000000001663 ) ;
#320 = FILL_AREA_STYLE_COLOUR ( '', #184 ) ;
#321 = STYLED_ITEM ( 'NONE', ( #304 ), #66 ) ;
#322 = VECTOR ( 'NONE', #146, 39.37007874015748143 ) ;
#323 = DIRECTION ( 'NONE',  ( 2.612524104333461037E-17, -1.000000000000000000, 0.000000000000000000 ) ) ;
#324 = ADVANCED_FACE ( 'NONE', ( #77 ), #183, .T. ) ;
#325 = ORIENTED_EDGE ( 'NONE', *, *, #313, .T. ) ;
#326 = ORIENTED_EDGE ( 'NONE', *, *, #308, .T. ) ;
#327 = CLOSED_SHELL ( 'NONE', ( #98, #294, #13, #141, #324, #199 ) ) ;
#328 = CARTESIAN_POINT ( 'NONE',  ( 0.000000000000000000, 0.1562000000000000055, 0.000000000000000000 ) ) ;
#329 = EDGE_LOOP ( 'NONE', ( #15, #22 ) ) ;
#330 =( NAMED_UNIT ( * ) SI_UNIT ( $, .STERADIAN. ) SOLID_ANGLE_UNIT ( ) );
#331 = CIRCLE ( 'NONE', #267, 0.01559999999999999928 ) ;
#332 = ORIENTED_EDGE ( 'NONE', *, *, #123, .F. ) ;
#333 = PLANE ( 'NONE',  #126 ) ;
#334 = DIRECTION ( 'NONE',  ( -2.612524104333461037E-17, 1.000000000000000000, -0.000000000000000000 ) ) ;
#335 = EDGE_CURVE ( 'NONE', #51, #178, #237, .T. ) ;
#336 = CIRCLE ( 'NONE', #195, 0.1250000000000000555 ) ;
#337 = CARTESIAN_POINT ( 'NONE',  ( 0.000000000000000000, 0.000000000000000000, 0.000000000000000000 ) ) ;
#338 = DIRECTION ( 'NONE',  ( -1.000000000000000000, 0.000000000000000000, 0.000000000000000000 ) ) ;
#339 = DIRECTION ( 'NONE',  ( -0.000000000000000000, -1.000000000000000000, -0.000000000000000000 ) ) ;
#340 = FILL_AREA_STYLE ('',( #225 ) ) ;
#341 = CARTESIAN_POINT ( 'NONE',  ( 0.1250000000000000000, 2.500000000000000000, 0.000000000000000000 ) ) ;
#342 =( CONVERSION_BASED_UNIT ( 'INCH', #228 ) LENGTH_UNIT ( ) NAMED_UNIT ( #89 ) );
#343 = CLOSED_SHELL ( 'NONE', ( #318, #220, #70, #282 ) ) ;
#344 = CARTESIAN_POINT ( 'NONE',  ( 1.910449006669871934E-18, 0.1562000000000000055, 0.01559999999999999928 ) ) ;
#345 = PRESENTATION_LAYER_ASSIGNMENT (  '', '', ( #150 ) ) ;
#346 = UNCERTAINTY_MEASURE_WITH_UNIT (LENGTH_MEASURE( 1.000000000000000082E-05 ), #316, 'distance_accuracy_value', 'NONE');
#347 = DIRECTION ( 'NONE',  ( 0.000000000000000000, 0.000000000000000000, -1.000000000000000000 ) ) ;
#348 = DIRECTION ( 'NONE',  ( -2.612524104333461037E-17, 1.000000000000000000, -0.000000000000000000 ) ) ;
#349 = SURFACE_STYLE_FILL_AREA ( #185 ) ;
#350 = PRESENTATION_LAYER_ASSIGNMENT (  '', '', ( #197 ) ) ;
#351 = LINE ( 'NONE', #83, #322 ) ;
#352 = EDGE_CURVE ( 'NONE', #81, #188, #28, .T. ) ;
#353 = AXIS2_PLACEMENT_3D ( 'NONE', #227, #158, #261 ) ;
#354 = PRESENTATION_LAYER_ASSIGNMENT (  '', '', ( #8 ) ) ;
#355 = CARTESIAN_POINT ( 'NONE',  ( 0.000000000000000000, 0.000000000000000000, -0.01560000000000001663 ) ) ;
#356 =( LENGTH_UNIT ( ) NAMED_UNIT ( * ) SI_UNIT ( $, .METRE. ) );
#357 =( CONVERSION_BASED_UNIT ( 'INCH', #87 ) LENGTH_UNIT ( ) NAMED_UNIT ( #253 ) );
#358 = FILL_AREA_STYLE_COLOUR ( '', #7 ) ;
#359 = FACE_OUTER_BOUND ( 'NONE', #193, .T. ) ;
ENDSEC;
END-ISO-10303-21;
