ISO-10303-21;
HEADER;
FILE_DESCRIPTION (( 'STEP AP214' ),
    '1' );
FILE_NAME ('05262.STEP',
    '2023-06-22T16:00:00',
    ( '' ),
    ( '' ),
    'SwSTEP 2.0',
    'SolidWorks 2023',
    '' );
FILE_SCHEMA (( 'AUTOMOTIVE_DESIGN' ));
ENDSEC;

DATA;
#1 = CARTESIAN_POINT ( 'NONE',  ( 1.913510623667739463E-17, 0.000000000000000000, 0.1562500000000000000 ) ) ;
#2 = DIRECTION ( 'NONE',  ( -6.531449595452546658E-17, 1.000000000000000000, -0.000000000000000000 ) ) ;
#3 = VERTEX_POINT ( 'NONE', #49 ) ;
#4 = EDGE_CURVE ( 'NONE', #234, #3, #186, .T. ) ;
#5 =( LENGTH_UNIT ( ) NAMED_UNIT ( * ) SI_UNIT ( $, .METRE. ) );
#6 = DIRECTION ( 'NONE',  ( -1.000000000000000000, 0.000000000000000000, 0.000000000000000000 ) ) ;
#7 =( NAMED_UNIT ( * ) SI_UNIT ( $, .STERADIAN. ) SOLID_ANGLE_UNIT ( ) );
#8 =( GEOMETRIC_REPRESENTATION_CONTEXT ( 3 ) GLOBAL_UNCERTAINTY_ASSIGNED_CONTEXT ( ( #228 ) ) GLOBAL_UNIT_ASSIGNED_CONTEXT ( ( #222, #272, #88 ) ) REPRESENTATION_CONTEXT ( 'NONE', 'WORKASPACE' ) );
#9 = CARTESIAN_POINT ( 'NONE',  ( 0.000000000000000000, 2.125000000000000000, 0.000000000000000000 ) ) ;
#10 = DIRECTION ( 'NONE',  ( -1.000000000000000000, -6.531449595452546658E-17, 0.000000000000000000 ) ) ;
#11 = EDGE_CURVE ( 'NONE', #203, #234, #73, .T. ) ;
#12 = SURFACE_STYLE_FILL_AREA ( #14 ) ;
#13 = STYLED_ITEM ( 'NONE', ( #89 ), #106 ) ;
#14 = FILL_AREA_STYLE ('',( #83 ) ) ;
#15 = ADVANCED_FACE ( 'NONE', ( #93 ), #128, .F. ) ;
#16 = PRODUCT_CONTEXT ( 'NONE', #211, 'mechanical' ) ;
#17 = FILL_AREA_STYLE_COLOUR ( '', #287 ) ;
#18 = ADVANCED_FACE ( 'NONE', ( #145 ), #126, .T. ) ;
#19 = CARTESIAN_POINT ( 'NONE',  ( 1.913510623667739463E-17, 0.000000000000000000, 0.1562500000000000000 ) ) ;
#20 = CYLINDRICAL_SURFACE ( 'NONE', #96, 0.1562500000000000833 ) ;
#21 = AXIS2_PLACEMENT_3D ( 'NONE', #100, #183, #71 ) ;
#22 = ORIENTED_EDGE ( 'NONE', *, *, #246, .T. ) ;
#23 = AXIS2_PLACEMENT_3D ( 'NONE', #289, #147, #30 ) ;
#24 =( NAMED_UNIT ( * ) PLANE_ANGLE_UNIT ( ) SI_UNIT ( $, .RADIAN. ) );
#25 = FILL_AREA_STYLE ('',( #98 ) ) ;
#26 = EDGE_LOOP ( 'NONE', ( #291, #164 ) ) ;
#27 = DIRECTION ( 'NONE',  ( -6.531449595452546658E-17, 1.000000000000000000, -0.000000000000000000 ) ) ;
#28 = PRESENTATION_STYLE_ASSIGNMENT (( #240 ) ) ;
#29 = ORIENTED_EDGE ( 'NONE', *, *, #220, .T. ) ;
#30 = DIRECTION ( 'NONE',  ( 0.000000000000000000, 0.000000000000000000, -1.000000000000000000 ) ) ;
#31 = EDGE_CURVE ( 'NONE', #203, #214, #254, .T. ) ;
#32 = SURFACE_STYLE_FILL_AREA ( #267 ) ;
#33 = CARTESIAN_POINT ( 'NONE',  ( 0.1562500000000000000, 2.125000000000000000, 1.913510623667740388E-17 ) ) ;
#34 = STYLED_ITEM ( 'NONE', ( #300 ), #158 ) ;
#35 = CIRCLE ( 'NONE', #309, 0.1562500000000001388 ) ;
#36 = ADVANCED_FACE ( 'NONE', ( #68 ), #20, .T. ) ;
#37 =( NAMED_UNIT ( * ) PLANE_ANGLE_UNIT ( ) SI_UNIT ( $, .RADIAN. ) );
#38 = STYLED_ITEM ( 'NONE', ( #121 ), #177 ) ;
#39 = SURFACE_STYLE_FILL_AREA ( #194 ) ;
#40 = UNCERTAINTY_MEASURE_WITH_UNIT (LENGTH_MEASURE( 1.000000000000000082E-05 ), #95, 'distance_accuracy_value', 'NONE');
#41 = DIMENSIONAL_EXPONENTS ( 1.000000000000000000, 0.000000000000000000, 0.000000000000000000, 0.000000000000000000, 0.000000000000000000, 0.000000000000000000, 0.000000000000000000 ) ;
#42 =( LENGTH_UNIT ( ) NAMED_UNIT ( * ) SI_UNIT ( $, .METRE. ) );
#43 = MECHANICAL_DESIGN_GEOMETRIC_PRESENTATION_REPRESENTATION (  '', ( #13 ), #111 ) ;
#44 = LENGTH_MEASURE_WITH_UNIT ( LENGTH_MEASURE( 0.02539999999999999897 ), #229 );
#45 =( NAMED_UNIT ( * ) SI_UNIT ( $, .STERADIAN. ) SOLID_ANGLE_UNIT ( ) );
#46 = DIRECTION ( 'NONE',  ( -6.531449595452546658E-17, 1.000000000000000000, -0.000000000000000000 ) ) ;
#47 = ORIENTED_EDGE ( 'NONE', *, *, #247, .T. ) ;
#48 = SURFACE_SIDE_STYLE ('',( #204 ) ) ;
#49 = CARTESIAN_POINT ( 'NONE',  ( -0.1562500000000002776, 4.000000000000000000, 0.000000000000000000 ) ) ;
#50 = VERTEX_POINT ( 'NONE', #181 ) ;
#51 = FILL_AREA_STYLE_COLOUR ( '', #196 ) ;
#52 = ORIENTED_EDGE ( 'NONE', *, *, #90, .F. ) ;
#53 = CARTESIAN_POINT ( 'NONE',  ( 0.1562500000000000000, 4.000000000000000000, 1.913510623667740388E-17 ) ) ;
#54 = CIRCLE ( 'NONE', #133, 0.1562500000000000000 ) ;
#55 =( CONVERSION_BASED_UNIT ( 'INCH', #218 ) LENGTH_UNIT ( ) NAMED_UNIT ( #115 ) );
#56 =( NAMED_UNIT ( * ) SI_UNIT ( $, .STERADIAN. ) SOLID_ANGLE_UNIT ( ) );
#57 = ADVANCED_FACE ( 'NONE', ( #182 ), #281, .F. ) ;
#58 = APPLICATION_PROTOCOL_DEFINITION ( 'draft international standard', 'automotive_design', 1998, #211 ) ;
#59 = APPLICATION_PROTOCOL_DEFINITION ( 'draft international standard', 'automotive_design', 1998, #77 ) ;
#60 = COLOUR_RGB ( '',0.7921568627450980005, 0.8196078431372548767, 0.9333333333333333481 ) ;
#61 = STYLED_ITEM ( 'NONE', ( #141 ), #197 ) ;
#62 = UNCERTAINTY_MEASURE_WITH_UNIT (LENGTH_MEASURE( 1.000000000000000082E-05 ), #137, 'distance_accuracy_value', 'NONE');
#63 = DIRECTION ( 'NONE',  ( -0.000000000000000000, -1.000000000000000000, -0.000000000000000000 ) ) ;
#64 = CARTESIAN_POINT ( 'NONE',  ( 0.000000000000000000, 2.125000000000000000, 0.000000000000000000 ) ) ;
#65 = PRODUCT_DEFINITION_SHAPE ( 'NONE', 'NONE',  #209 ) ;
#66 = PRESENTATION_LAYER_ASSIGNMENT (  '', '', ( #38 ) ) ;
#67 = PRESENTATION_LAYER_ASSIGNMENT (  '', '', ( #74 ) ) ;
#68 = FACE_OUTER_BOUND ( 'NONE', #129, .T. ) ;
#69 = CARTESIAN_POINT ( 'NONE',  ( 3.332799517026346248E-34, 2.125000000000000000, 0.000000000000000000 ) ) ;
#70 = LINE ( 'NONE', #19, #192 ) ;
#71 = DIRECTION ( 'NONE',  ( 0.000000000000000000, 0.000000000000000000, -1.000000000000000000 ) ) ;
#72 = DIRECTION ( 'NONE',  ( 1.000000000000000000, 6.531449595452546658E-17, 0.000000000000000000 ) ) ;
#73 = CIRCLE ( 'NONE', #304, 0.1562500000000000000 ) ;
#74 = STYLED_ITEM ( 'NONE', ( #127 ), #268 ) ;
#75 = ORIENTED_EDGE ( 'NONE', *, *, #290, .F. ) ;
#76 = CARTESIAN_POINT ( 'NONE',  ( -0.1562500000000000000, 2.125000000000000000, 0.000000000000000000 ) ) ;
#77 = APPLICATION_CONTEXT ( 'automotive_design' ) ;
#78 = MECHANICAL_DESIGN_GEOMETRIC_PRESENTATION_REPRESENTATION (  '', ( #132 ), #224 ) ;
#79 = ORIENTED_EDGE ( 'NONE', *, *, #4, .T. ) ;
#80 = DIRECTION ( 'NONE',  ( 0.000000000000000000, 0.000000000000000000, -1.000000000000000000 ) ) ;
#81 = EDGE_LOOP ( 'NONE', ( #286, #138, #52, #103 ) ) ;
#82 = CARTESIAN_POINT ( 'NONE',  ( 0.000000000000000000, 0.000000000000000000, 0.000000000000000000 ) ) ;
#83 = FILL_AREA_STYLE_COLOUR ( '', #60 ) ;
#84 = CIRCLE ( 'NONE', #249, 0.1562500000000000000 ) ;
#85 =( GEOMETRIC_REPRESENTATION_CONTEXT ( 3 ) GLOBAL_UNCERTAINTY_ASSIGNED_CONTEXT ( ( #119 ) ) GLOBAL_UNIT_ASSIGNED_CONTEXT ( ( #237, #277, #56 ) ) REPRESENTATION_CONTEXT ( 'NONE', 'WORKASPACE' ) );
#86 = DIMENSIONAL_EXPONENTS ( 1.000000000000000000, 0.000000000000000000, 0.000000000000000000, 0.000000000000000000, 0.000000000000000000, 0.000000000000000000, 0.000000000000000000 ) ;
#87 =( LENGTH_UNIT ( ) NAMED_UNIT ( * ) SI_UNIT ( $, .METRE. ) );
#88 =( NAMED_UNIT ( * ) SI_UNIT ( $, .STERADIAN. ) SOLID_ANGLE_UNIT ( ) );
#89 = PRESENTATION_STYLE_ASSIGNMENT (( #226 ) ) ;
#90 = EDGE_CURVE ( 'NONE', #3, #214, #178, .T. ) ;
#91 = PRODUCT ( '05262', '05262', '', ( #16 ) ) ;
#92 = SURFACE_STYLE_FILL_AREA ( #260 ) ;
#93 = FACE_OUTER_BOUND ( 'NONE', #26, .T. ) ;
#94 = ORIENTED_EDGE ( 'NONE', *, *, #31, .F. ) ;
#95 =( CONVERSION_BASED_UNIT ( 'INCH', #139 ) LENGTH_UNIT ( ) NAMED_UNIT ( #120 ) );
#96 = AXIS2_PLACEMENT_3D ( 'NONE', #122, #205, #307 ) ;
#97 =( GEOMETRIC_REPRESENTATION_CONTEXT ( 3 ) GLOBAL_UNCERTAINTY_ASSIGNED_CONTEXT ( ( #284 ) ) GLOBAL_UNIT_ASSIGNED_CONTEXT ( ( #55, #169, #7 ) ) REPRESENTATION_CONTEXT ( 'NONE', 'WORKASPACE' ) );
#98 = FILL_AREA_STYLE_COLOUR ( '', #172 ) ;
#99 = ORIENTED_EDGE ( 'NONE', *, *, #220, .F. ) ;
#100 = CARTESIAN_POINT ( 'NONE',  ( 0.000000000000000000, 0.000000000000000000, 0.000000000000000000 ) ) ;
#101 =( NAMED_UNIT ( * ) SI_UNIT ( $, .STERADIAN. ) SOLID_ANGLE_UNIT ( ) );
#102 = DIMENSIONAL_EXPONENTS ( 1.000000000000000000, 0.000000000000000000, 0.000000000000000000, 0.000000000000000000, 0.000000000000000000, 0.000000000000000000, 0.000000000000000000 ) ;
#103 = ORIENTED_EDGE ( 'NONE', *, *, #4, .F. ) ;
#104 = SURFACE_STYLE_FILL_AREA ( #25 ) ;
#105 = DIRECTION ( 'NONE',  ( 0.000000000000000000, 0.000000000000000000, -1.000000000000000000 ) ) ;
#106 = MANIFOLD_SOLID_BREP ( 'Revolve - Cutting Edge', #271 ) ;
#107 = DIRECTION ( 'NONE',  ( -1.000000000000000000, 0.000000000000000000, 0.000000000000000000 ) ) ;
#108 = AXIS2_PLACEMENT_3D ( 'NONE', #230, #262, #72 ) ;
#109 = CIRCLE ( 'NONE', #167, 0.1562500000000000000 ) ;
#110 = DIRECTION ( 'NONE',  ( -1.000000000000000000, 0.000000000000000000, 0.000000000000000000 ) ) ;
#111 =( GEOMETRIC_REPRESENTATION_CONTEXT ( 3 ) GLOBAL_UNCERTAINTY_ASSIGNED_CONTEXT ( ( #215 ) ) GLOBAL_UNIT_ASSIGNED_CONTEXT ( ( #155, #37, #159 ) ) REPRESENTATION_CONTEXT ( 'NONE', 'WORKASPACE' ) );
#112 = FACE_OUTER_BOUND ( 'NONE', #81, .T. ) ;
#113 = EDGE_LOOP ( 'NONE', ( #75, #283 ) ) ;
#114 = MECHANICAL_DESIGN_GEOMETRIC_PRESENTATION_REPRESENTATION (  '', ( #74 ), #97 ) ;
#115 = DIMENSIONAL_EXPONENTS ( 1.000000000000000000, 0.000000000000000000, 0.000000000000000000, 0.000000000000000000, 0.000000000000000000, 0.000000000000000000, 0.000000000000000000 ) ;
#116 = CLOSED_SHELL ( 'NONE', ( #302, #57, #36, #15 ) ) ;
#117 = AXIS2_PLACEMENT_3D ( 'NONE', #263, #191, #105 ) ;
#118 = FILL_AREA_STYLE ('',( #51 ) ) ;
#119 = UNCERTAINTY_MEASURE_WITH_UNIT (LENGTH_MEASURE( 1.000000000000000082E-05 ), #237, 'distance_accuracy_value', 'NONE');
#120 = DIMENSIONAL_EXPONENTS ( 1.000000000000000000, 0.000000000000000000, 0.000000000000000000, 0.000000000000000000, 0.000000000000000000, 0.000000000000000000, 0.000000000000000000 ) ;
#121 = PRESENTATION_STYLE_ASSIGNMENT (( #185 ) ) ;
#122 = CARTESIAN_POINT ( 'NONE',  ( -1.224646799147352714E-16, 4.000000000000000000, 0.000000000000000000 ) ) ;
#123 = ORIENTED_EDGE ( 'NONE', *, *, #146, .F. ) ;
#124 = DIRECTION ( 'NONE',  ( -6.531449595452546658E-17, 1.000000000000000000, -0.000000000000000000 ) ) ;
#125 =( GEOMETRIC_REPRESENTATION_CONTEXT ( 3 ) GLOBAL_UNCERTAINTY_ASSIGNED_CONTEXT ( ( #40 ) ) GLOBAL_UNIT_ASSIGNED_CONTEXT ( ( #95, #280, #231 ) ) REPRESENTATION_CONTEXT ( 'NONE', 'WORKASPACE' ) );
#126 = PLANE ( 'NONE',  #236 ) ;
#127 = PRESENTATION_STYLE_ASSIGNMENT (( #243 ) ) ;
#128 = PLANE ( 'NONE',  #108 ) ;
#129 = EDGE_LOOP ( 'NONE', ( #94, #279, #79, #301 ) ) ;
#130 = FILL_AREA_STYLE_COLOUR ( '', #157 ) ;
#131 = CARTESIAN_POINT ( 'NONE',  ( -1.224646799147352714E-16, 4.000000000000000000, 0.000000000000000000 ) ) ;
#132 = STYLED_ITEM ( 'NONE', ( #28 ), #18 ) ;
#133 = AXIS2_PLACEMENT_3D ( 'NONE', #163, #245, #270 ) ;
#134 = DIRECTION ( 'NONE',  ( -0.000000000000000000, -1.000000000000000000, -0.000000000000000000 ) ) ;
#135 = PRODUCT_RELATED_PRODUCT_CATEGORY ( 'part', '', ( #91 ) ) ;
#136 = VECTOR ( 'NONE', #124, 39.37007874015748143 ) ;
#137 =( CONVERSION_BASED_UNIT ( 'INCH', #44 ) LENGTH_UNIT ( ) NAMED_UNIT ( #102 ) );
#138 = ORIENTED_EDGE ( 'NONE', *, *, #31, .T. ) ;
#139 = LENGTH_MEASURE_WITH_UNIT ( LENGTH_MEASURE( 0.02539999999999999897 ), #87 );
#140 = VERTEX_POINT ( 'NONE', #248 ) ;
#141 = PRESENTATION_STYLE_ASSIGNMENT (( #144 ) ) ;
#142 = MECHANICAL_DESIGN_GEOMETRIC_PRESENTATION_REPRESENTATION (  '', ( #61 ), #85 ) ;
#143 = EDGE_LOOP ( 'NONE', ( #171, #29 ) ) ;
#144 = SURFACE_STYLE_USAGE ( .BOTH. , #306 ) ;
#145 = FACE_OUTER_BOUND ( 'NONE', #113, .T. ) ;
#146 = EDGE_CURVE ( 'NONE', #140, #168, #84, .T. ) ;
#147 = DIRECTION ( 'NONE',  ( -0.000000000000000000, -1.000000000000000000, -0.000000000000000000 ) ) ;
#148 = ORIENTED_EDGE ( 'NONE', *, *, #11, .F. ) ;
#149 = CIRCLE ( 'NONE', #225, 0.1562500000000000000 ) ;
#150 = CARTESIAN_POINT ( 'NONE',  ( 0.000000000000000000, 2.125000000000000000, 0.000000000000000000 ) ) ;
#151 = CARTESIAN_POINT ( 'NONE',  ( 0.000000000000000000, 0.000000000000000000, -0.1562500000000000000 ) ) ;
#152 = DIRECTION ( 'NONE',  ( -6.531449595452546658E-17, 1.000000000000000000, -0.000000000000000000 ) ) ;
#153 = DIMENSIONAL_EXPONENTS ( 1.000000000000000000, 0.000000000000000000, 0.000000000000000000, 0.000000000000000000, 0.000000000000000000, 0.000000000000000000, 0.000000000000000000 ) ;
#154 = SHAPE_DEFINITION_REPRESENTATION ( #65, #297 ) ;
#155 =( CONVERSION_BASED_UNIT ( 'INCH', #303 ) LENGTH_UNIT ( ) NAMED_UNIT ( #195 ) );
#156 = MECHANICAL_DESIGN_GEOMETRIC_PRESENTATION_REPRESENTATION (  '', ( #38 ), #266 ) ;
#157 = COLOUR_RGB ( '',1.000000000000000000, 0.000000000000000000, 0.000000000000000000 ) ;
#158 = ADVANCED_FACE ( 'NONE', ( #273 ), #198, .T. ) ;
#159 =( NAMED_UNIT ( * ) SI_UNIT ( $, .STERADIAN. ) SOLID_ANGLE_UNIT ( ) );
#160 = DIRECTION ( 'NONE',  ( 0.000000000000000000, 1.000000000000000000, 0.000000000000000000 ) ) ;
#161 = CARTESIAN_POINT ( 'NONE',  ( 0.000000000000000000, 0.000000000000000000, 0.000000000000000000 ) ) ;
#162 =( NAMED_UNIT ( * ) PLANE_ANGLE_UNIT ( ) SI_UNIT ( $, .RADIAN. ) );
#163 = CARTESIAN_POINT ( 'NONE',  ( 0.000000000000000000, 0.000000000000000000, 0.000000000000000000 ) ) ;
#164 = ORIENTED_EDGE ( 'NONE', *, *, #252, .T. ) ;
#165 = AXIS2_PLACEMENT_3D ( 'NONE', #296, #152, #170 ) ;
#166 = DIRECTION ( 'NONE',  ( -0.000000000000000000, -1.000000000000000000, -0.000000000000000000 ) ) ;
#167 = AXIS2_PLACEMENT_3D ( 'NONE', #150, #190, #269 ) ;
#168 = VERTEX_POINT ( 'NONE', #1 ) ;
#169 =( NAMED_UNIT ( * ) PLANE_ANGLE_UNIT ( ) SI_UNIT ( $, .RADIAN. ) );
#170 = DIRECTION ( 'NONE',  ( -1.000000000000000000, 0.000000000000000000, 0.000000000000000000 ) ) ;
#171 = ORIENTED_EDGE ( 'NONE', *, *, #146, .T. ) ;
#172 = COLOUR_RGB ( '',1.000000000000000000, 0.000000000000000000, 0.000000000000000000 ) ;
#173 = PRODUCT_DEFINITION_FORMATION_WITH_SPECIFIED_SOURCE ( 'ANY', '', #91, .NOT_KNOWN. ) ;
#174 = PLANE ( 'NONE',  #117 ) ;
#175 = FACE_OUTER_BOUND ( 'NONE', #143, .T. ) ;
#176 = SURFACE_SIDE_STYLE ('',( #39 ) ) ;
#177 = ADVANCED_FACE ( 'NONE', ( #180 ), #305, .T. ) ;
#178 = CIRCLE ( 'NONE', #165, 0.1562500000000001388 ) ;
#179 = VECTOR ( 'NONE', #219, 39.37007874015748143 ) ;
#180 = FACE_OUTER_BOUND ( 'NONE', #210, .T. ) ;
#181 = CARTESIAN_POINT ( 'NONE',  ( 0.000000000000000000, 2.125000000000000000, -0.1562500000000000000 ) ) ;
#182 = FACE_OUTER_BOUND ( 'NONE', #308, .T. ) ;
#183 = DIRECTION ( 'NONE',  ( -0.000000000000000000, -1.000000000000000000, -0.000000000000000000 ) ) ;
#184 = EDGE_CURVE ( 'NONE', #233, #168, #70, .T. ) ;
#185 = SURFACE_STYLE_USAGE ( .BOTH. , #48 ) ;
#186 = LINE ( 'NONE', #282, #235 ) ;
#187 = PRESENTATION_LAYER_ASSIGNMENT (  '', '', ( #34 ) ) ;
#188 = ORIENTED_EDGE ( 'NONE', *, *, #232, .F. ) ;
#189 =( LENGTH_UNIT ( ) NAMED_UNIT ( * ) SI_UNIT ( $, .METRE. ) );
#190 = DIRECTION ( 'NONE',  ( -6.531449595452546658E-17, 1.000000000000000000, -0.000000000000000000 ) ) ;
#191 = DIRECTION ( 'NONE',  ( 0.000000000000000000, -1.000000000000000000, -0.000000000000000000 ) ) ;
#192 = VECTOR ( 'NONE', #166, 39.37007874015748143 ) ;
#193 = DIRECTION ( 'NONE',  ( -6.531449595452546658E-17, 1.000000000000000000, -0.000000000000000000 ) ) ;
#194 = FILL_AREA_STYLE ('',( #17 ) ) ;
#195 = DIMENSIONAL_EXPONENTS ( 1.000000000000000000, 0.000000000000000000, 0.000000000000000000, 0.000000000000000000, 0.000000000000000000, 0.000000000000000000, 0.000000000000000000 ) ;
#196 = COLOUR_RGB ( '',1.000000000000000000, 0.000000000000000000, 0.000000000000000000 ) ;
#197 = MANIFOLD_SOLID_BREP ( 'Revolve - Tool Body (Straight Shanked)', #116 ) ;
#198 = CYLINDRICAL_SURFACE ( 'NONE', #255, 0.1562500000000000000 ) ;
#199 = SURFACE_STYLE_USAGE ( .BOTH. , #176 ) ;
#200 = ORIENTED_EDGE ( 'NONE', *, *, #184, .T. ) ;
#201 = FILL_AREA_STYLE_COLOUR ( '', #207 ) ;
#202 = CARTESIAN_POINT ( 'NONE',  ( 0.000000000000000000, 2.125000000000000000, 0.000000000000000000 ) ) ;
#203 = VERTEX_POINT ( 'NONE', #33 ) ;
#204 = SURFACE_STYLE_FILL_AREA ( #118 ) ;
#205 = DIRECTION ( 'NONE',  ( -6.531449595452546658E-17, 1.000000000000000000, -0.000000000000000000 ) ) ;
#206 = ORIENTED_EDGE ( 'NONE', *, *, #290, .T. ) ;
#207 = COLOUR_RGB ( '',0.7921568627450980005, 0.8196078431372548767, 0.9333333333333333481 ) ;
#208 = AXIS2_PLACEMENT_3D ( 'NONE', #216, #193, #6 ) ;
#209 = PRODUCT_DEFINITION ( 'UNKNOWN', '', #173, #292 ) ;
#210 = EDGE_LOOP ( 'NONE', ( #206, #200, #123, #264 ) ) ;
#211 = APPLICATION_CONTEXT ( 'automotive_design' ) ;
#212 =( CONVERSION_BASED_UNIT ( 'INCH', #256 ) LENGTH_UNIT ( ) NAMED_UNIT ( #86 ) );
#213 = DIRECTION ( 'NONE',  ( 0.000000000000000000, -0.000000000000000000, 1.000000000000000000 ) ) ;
#214 = VERTEX_POINT ( 'NONE', #53 ) ;
#215 = UNCERTAINTY_MEASURE_WITH_UNIT (LENGTH_MEASURE( 1.000000000000000082E-05 ), #155, 'distance_accuracy_value', 'NONE');
#216 = CARTESIAN_POINT ( 'NONE',  ( -1.224646799147352714E-16, 4.000000000000000000, 0.000000000000000000 ) ) ;
#217 = SURFACE_SIDE_STYLE ('',( #32 ) ) ;
#218 = LENGTH_MEASURE_WITH_UNIT ( LENGTH_MEASURE( 0.02539999999999999897 ), #5 );
#219 = DIRECTION ( 'NONE',  ( -0.000000000000000000, -1.000000000000000000, -0.000000000000000000 ) ) ;
#220 = EDGE_CURVE ( 'NONE', #168, #140, #54, .T. ) ;
#221 = DIRECTION ( 'NONE',  ( 0.000000000000000000, 0.000000000000000000, 1.000000000000000000 ) ) ;
#222 =( CONVERSION_BASED_UNIT ( 'INCH', #265 ) LENGTH_UNIT ( ) NAMED_UNIT ( #153 ) );
#223 = SURFACE_SIDE_STYLE ('',( #12 ) ) ;
#224 =( GEOMETRIC_REPRESENTATION_CONTEXT ( 3 ) GLOBAL_UNCERTAINTY_ASSIGNED_CONTEXT ( ( #62 ) ) GLOBAL_UNIT_ASSIGNED_CONTEXT ( ( #137, #162, #101 ) ) REPRESENTATION_CONTEXT ( 'NONE', 'WORKASPACE' ) );
#225 = AXIS2_PLACEMENT_3D ( 'NONE', #9, #293, #80 ) ;
#226 = SURFACE_STYLE_USAGE ( .BOTH. , #223 ) ;
#227 = PRESENTATION_LAYER_ASSIGNMENT (  '', '', ( #132 ) ) ;
#228 = UNCERTAINTY_MEASURE_WITH_UNIT (LENGTH_MEASURE( 1.000000000000000082E-05 ), #222, 'distance_accuracy_value', 'NONE');
#229 =( LENGTH_UNIT ( ) NAMED_UNIT ( * ) SI_UNIT ( $, .METRE. ) );
#230 = CARTESIAN_POINT ( 'NONE',  ( 0.1562500000000000000, 4.000000000000000000, 0.000000000000000000 ) ) ;
#231 =( NAMED_UNIT ( * ) SI_UNIT ( $, .STERADIAN. ) SOLID_ANGLE_UNIT ( ) );
#232 = EDGE_CURVE ( 'NONE', #234, #203, #109, .T. ) ;
#233 = VERTEX_POINT ( 'NONE', #244 ) ;
#234 = VERTEX_POINT ( 'NONE', #76 ) ;
#235 = VECTOR ( 'NONE', #2, 39.37007874015748143 ) ;
#236 = AXIS2_PLACEMENT_3D ( 'NONE', #64, #160, #213 ) ;
#237 =( CONVERSION_BASED_UNIT ( 'INCH', #239 ) LENGTH_UNIT ( ) NAMED_UNIT ( #41 ) );
#238 = EDGE_LOOP ( 'NONE', ( #241, #47, #22, #99 ) ) ;
#239 = LENGTH_MEASURE_WITH_UNIT ( LENGTH_MEASURE( 0.02539999999999999897 ), #278 );
#240 = SURFACE_STYLE_USAGE ( .BOTH. , #285 ) ;
#241 = ORIENTED_EDGE ( 'NONE', *, *, #184, .F. ) ;
#242 = LINE ( 'NONE', #151, #179 ) ;
#243 = SURFACE_STYLE_USAGE ( .BOTH. , #217 ) ;
#244 = CARTESIAN_POINT ( 'NONE',  ( 1.913510623667739463E-17, 2.125000000000000000, 0.1562500000000000000 ) ) ;
#245 = DIRECTION ( 'NONE',  ( -0.000000000000000000, -1.000000000000000000, -0.000000000000000000 ) ) ;
#246 = EDGE_CURVE ( 'NONE', #50, #140, #242, .T. ) ;
#247 = EDGE_CURVE ( 'NONE', #233, #50, #149, .T. ) ;
#248 = CARTESIAN_POINT ( 'NONE',  ( 0.000000000000000000, 0.000000000000000000, -0.1562500000000000000 ) ) ;
#249 = AXIS2_PLACEMENT_3D ( 'NONE', #251, #134, #298 ) ;
#250 = PRESENTATION_LAYER_ASSIGNMENT (  '', '', ( #61 ) ) ;
#251 = CARTESIAN_POINT ( 'NONE',  ( 0.000000000000000000, 0.000000000000000000, 0.000000000000000000 ) ) ;
#252 = EDGE_CURVE ( 'NONE', #214, #3, #35, .T. ) ;
#253 = DIRECTION ( 'NONE',  ( 0.000000000000000000, 0.000000000000000000, -1.000000000000000000 ) ) ;
#254 = LINE ( 'NONE', #257, #136 ) ;
#255 = AXIS2_PLACEMENT_3D ( 'NONE', #161, #63, #253 ) ;
#256 = LENGTH_MEASURE_WITH_UNIT ( LENGTH_MEASURE( 0.02539999999999999897 ), #42 );
#257 = CARTESIAN_POINT ( 'NONE',  ( 0.1562499999999999445, 4.000000000000000000, 1.913510623667740080E-17 ) ) ;
#258 = DIRECTION ( 'NONE',  ( -6.531449595452546658E-17, 1.000000000000000000, 0.000000000000000000 ) ) ;
#259 = UNCERTAINTY_MEASURE_WITH_UNIT (LENGTH_MEASURE( 1.000000000000000082E-05 ), #212, 'distance_accuracy_value', 'NONE');
#260 = FILL_AREA_STYLE ('',( #201 ) ) ;
#261 = AXIS2_PLACEMENT_3D ( 'NONE', #69, #258, #10 ) ;
#262 = DIRECTION ( 'NONE',  ( 6.531449595452546658E-17, -1.000000000000000000, 0.000000000000000000 ) ) ;
#263 = CARTESIAN_POINT ( 'NONE',  ( 0.000000000000000000, 0.000000000000000000, 0.000000000000000000 ) ) ;
#264 = ORIENTED_EDGE ( 'NONE', *, *, #246, .F. ) ;
#265 = LENGTH_MEASURE_WITH_UNIT ( LENGTH_MEASURE( 0.02539999999999999897 ), #189 );
#266 =( GEOMETRIC_REPRESENTATION_CONTEXT ( 3 ) GLOBAL_UNCERTAINTY_ASSIGNED_CONTEXT ( ( #259 ) ) GLOBAL_UNIT_ASSIGNED_CONTEXT ( ( #212, #24, #45 ) ) REPRESENTATION_CONTEXT ( 'NONE', 'WORKASPACE' ) );
#267 = FILL_AREA_STYLE ('',( #130 ) ) ;
#268 = ADVANCED_FACE ( 'NONE', ( #175 ), #174, .T. ) ;
#269 = DIRECTION ( 'NONE',  ( -1.000000000000000000, 0.000000000000000000, 0.000000000000000000 ) ) ;
#270 = DIRECTION ( 'NONE',  ( 0.000000000000000000, 0.000000000000000000, -1.000000000000000000 ) ) ;
#271 = CLOSED_SHELL ( 'NONE', ( #177, #18, #158, #268 ) ) ;
#272 =( NAMED_UNIT ( * ) PLANE_ANGLE_UNIT ( ) SI_UNIT ( $, .RADIAN. ) );
#273 = FACE_OUTER_BOUND ( 'NONE', #238, .T. ) ;
#274 = MECHANICAL_DESIGN_GEOMETRIC_PRESENTATION_REPRESENTATION (  '', ( #34 ), #125 ) ;
#275 = CIRCLE ( 'NONE', #23, 0.1562500000000000000 ) ;
#276 = DIRECTION ( 'NONE',  ( 1.000000000000000000, 0.000000000000000000, 0.000000000000000000 ) ) ;
#277 =( NAMED_UNIT ( * ) PLANE_ANGLE_UNIT ( ) SI_UNIT ( $, .RADIAN. ) );
#278 =( LENGTH_UNIT ( ) NAMED_UNIT ( * ) SI_UNIT ( $, .METRE. ) );
#279 = ORIENTED_EDGE ( 'NONE', *, *, #11, .T. ) ;
#280 =( NAMED_UNIT ( * ) PLANE_ANGLE_UNIT ( ) SI_UNIT ( $, .RADIAN. ) );
#281 = PLANE ( 'NONE',  #261 ) ;
#282 = CARTESIAN_POINT ( 'NONE',  ( -0.1562500000000002220, 4.000000000000000000, 0.000000000000000000 ) ) ;
#283 = ORIENTED_EDGE ( 'NONE', *, *, #247, .F. ) ;
#284 = UNCERTAINTY_MEASURE_WITH_UNIT (LENGTH_MEASURE( 1.000000000000000082E-05 ), #55, 'distance_accuracy_value', 'NONE');
#285 = SURFACE_SIDE_STYLE ('',( #104 ) ) ;
#286 = ORIENTED_EDGE ( 'NONE', *, *, #232, .T. ) ;
#287 = COLOUR_RGB ( '',1.000000000000000000, 0.000000000000000000, 0.000000000000000000 ) ;
#288 = AXIS2_PLACEMENT_3D ( 'NONE', #82, #221, #276 ) ;
#289 = CARTESIAN_POINT ( 'NONE',  ( 0.000000000000000000, 2.125000000000000000, 0.000000000000000000 ) ) ;
#290 = EDGE_CURVE ( 'NONE', #50, #233, #275, .T. ) ;
#291 = ORIENTED_EDGE ( 'NONE', *, *, #90, .T. ) ;
#292 = PRODUCT_DEFINITION_CONTEXT ( 'detailed design', #77, 'design' ) ;
#293 = DIRECTION ( 'NONE',  ( -0.000000000000000000, -1.000000000000000000, -0.000000000000000000 ) ) ;
#294 = PRESENTATION_LAYER_ASSIGNMENT (  '', '', ( #13 ) ) ;
#295 = CYLINDRICAL_SURFACE ( 'NONE', #208, 0.1562500000000000833 ) ;
#296 = CARTESIAN_POINT ( 'NONE',  ( -1.224646799147352714E-16, 4.000000000000000000, 0.000000000000000000 ) ) ;
#297 = ADVANCED_BREP_SHAPE_REPRESENTATION ( '05262', ( #106, #197, #288 ), #8 ) ;
#298 = DIRECTION ( 'NONE',  ( 0.000000000000000000, 0.000000000000000000, -1.000000000000000000 ) ) ;
#299 =( LENGTH_UNIT ( ) NAMED_UNIT ( * ) SI_UNIT ( $, .METRE. ) );
#300 = PRESENTATION_STYLE_ASSIGNMENT (( #199 ) ) ;
#301 = ORIENTED_EDGE ( 'NONE', *, *, #252, .F. ) ;
#302 = ADVANCED_FACE ( 'NONE', ( #112 ), #295, .T. ) ;
#303 = LENGTH_MEASURE_WITH_UNIT ( LENGTH_MEASURE( 0.02539999999999999897 ), #299 );
#304 = AXIS2_PLACEMENT_3D ( 'NONE', #202, #46, #107 ) ;
#305 = CYLINDRICAL_SURFACE ( 'NONE', #21, 0.1562500000000000000 ) ;
#306 = SURFACE_SIDE_STYLE ('',( #92 ) ) ;
#307 = DIRECTION ( 'NONE',  ( -1.000000000000000000, 0.000000000000000000, 0.000000000000000000 ) ) ;
#308 = EDGE_LOOP ( 'NONE', ( #188, #148 ) ) ;
#309 = AXIS2_PLACEMENT_3D ( 'NONE', #131, #27, #110 ) ;
ENDSEC;
END-ISO-10303-21;
