ISO-10303-21;
HEADER;
FILE_DESCRIPTION (( 'STEP AP214' ),
    '1' );
FILE_NAME ('59546.STEP',
    '2023-07-24T15:48:46',
    ( '' ),
    ( '' ),
    'SwSTEP 2.0',
    'SolidWorks 2023',
    '' );
FILE_SCHEMA (( 'AUTOMOTIVE_DESIGN' ));
ENDSEC;

DATA;
#1 = APPLICATION_CONTEXT ( 'automotive_design' ) ;
#2 = EDGE_CURVE ( 'NONE', #63, #68, #232, .T. ) ;
#3 = LINE ( 'NONE', #259, #107 ) ;
#4 = DIRECTION ( 'NONE',  ( 0.000000000000000000, 0.000000000000000000, -1.000000000000000000 ) ) ;
#5 = FILL_AREA_STYLE ('',( #207 ) ) ;
#6 = SURFACE_SIDE_STYLE ('',( #118 ) ) ;
#7 = UNCERTAINTY_MEASURE_WITH_UNIT (LENGTH_MEASURE( 1.000000000000000082E-05 ), #206, 'distance_accuracy_value', 'NONE');
#8 = AXIS2_PLACEMENT_3D ( 'NONE', #69, #287, #220 ) ;
#9 = PRESENTATION_STYLE_ASSIGNMENT (( #121 ) ) ;
#10 = EDGE_CURVE ( 'NONE', #93, #120, #273, .T. ) ;
#11 =( LENGTH_UNIT ( ) NAMED_UNIT ( * ) SI_UNIT ( .MILLI., .METRE. ) );
#12 = DIRECTION ( 'NONE',  ( -3.007904418958410489E-17, 1.000000000000000000, -0.000000000000000000 ) ) ;
#13 = CIRCLE ( 'NONE', #44, 8.000000000000000000 ) ;
#14 = UNCERTAINTY_MEASURE_WITH_UNIT (LENGTH_MEASURE( 1.000000000000000082E-05 ), #152, 'distance_accuracy_value', 'NONE');
#15 = MECHANICAL_DESIGN_GEOMETRIC_PRESENTATION_REPRESENTATION (  '', ( #123 ), #225 ) ;
#16 = DIRECTION ( 'NONE',  ( -0.000000000000000000, -1.000000000000000000, -0.000000000000000000 ) ) ;
#17 = ADVANCED_FACE ( 'NONE', ( #208 ), #266, .T. ) ;
#18 = AXIS2_PLACEMENT_3D ( 'NONE', #128, #16, #167 ) ;
#19 = SURFACE_STYLE_FILL_AREA ( #64 ) ;
#20 = ORIENTED_EDGE ( 'NONE', *, *, #230, .T. ) ;
#21 = COLOUR_RGB ( '',1.000000000000000000, 0.000000000000000000, 0.000000000000000000 ) ;
#22 = MECHANICAL_DESIGN_GEOMETRIC_PRESENTATION_REPRESENTATION (  '', ( #146 ), #188 ) ;
#23 = VECTOR ( 'NONE', #271, 1000.000000000000000 ) ;
#24 = ADVANCED_FACE ( 'NONE', ( #54 ), #100, .F. ) ;
#25 = DIRECTION ( 'NONE',  ( 0.000000000000000000, 0.000000000000000000, -1.000000000000000000 ) ) ;
#26 = SURFACE_STYLE_USAGE ( .BOTH. , #6 ) ;
#27 = APPLICATION_PROTOCOL_DEFINITION ( 'draft international standard', 'automotive_design', 1998, #1 ) ;
#28 = FACE_OUTER_BOUND ( 'NONE', #98, .T. ) ;
#29 = DIRECTION ( 'NONE',  ( -0.000000000000000000, -1.000000000000000000, -0.000000000000000000 ) ) ;
#30 = CARTESIAN_POINT ( 'NONE',  ( 0.000000000000000000, 0.000000000000000000, -8.000000000000000000 ) ) ;
#31 =( NAMED_UNIT ( * ) PLANE_ANGLE_UNIT ( ) SI_UNIT ( $, .RADIAN. ) );
#32 = EDGE_CURVE ( 'NONE', #51, #276, #13, .T. ) ;
#33 = AXIS2_PLACEMENT_3D ( 'NONE', #163, #244, #221 ) ;
#34 =( GEOMETRIC_REPRESENTATION_CONTEXT ( 3 ) GLOBAL_UNCERTAINTY_ASSIGNED_CONTEXT ( ( #191 ) ) GLOBAL_UNIT_ASSIGNED_CONTEXT ( ( #133, #130, #88 ) ) REPRESENTATION_CONTEXT ( 'NONE', 'WORKASPACE' ) );
#35 = ORIENTED_EDGE ( 'NONE', *, *, #78, .T. ) ;
#36 = DIRECTION ( 'NONE',  ( -1.000000000000000000, 0.000000000000000000, 0.000000000000000000 ) ) ;
#37 = EDGE_LOOP ( 'NONE', ( #75, #202 ) ) ;
#38 = DIRECTION ( 'NONE',  ( -1.000000000000000000, 0.000000000000000000, 0.000000000000000000 ) ) ;
#39 = PRESENTATION_STYLE_ASSIGNMENT (( #139 ) ) ;
#40 = ADVANCED_FACE ( 'NONE', ( #161 ), #115, .T. ) ;
#41 = FILL_AREA_STYLE ('',( #103 ) ) ;
#42 = CARTESIAN_POINT ( 'NONE',  ( 9.797174393178825657E-16, 0.000000000000000000, 8.000000000000000000 ) ) ;
#43 = EDGE_LOOP ( 'NONE', ( #175, #246, #254, #214 ) ) ;
#44 = AXIS2_PLACEMENT_3D ( 'NONE', #239, #29, #4 ) ;
#45 =( GEOMETRIC_REPRESENTATION_CONTEXT ( 3 ) GLOBAL_UNCERTAINTY_ASSIGNED_CONTEXT ( ( #216 ) ) GLOBAL_UNIT_ASSIGNED_CONTEXT ( ( #272, #275, #127 ) ) REPRESENTATION_CONTEXT ( 'NONE', 'WORKASPACE' ) );
#46 = SURFACE_SIDE_STYLE ('',( #19 ) ) ;
#47 = AXIS2_PLACEMENT_3D ( 'NONE', #215, #186, #180 ) ;
#48 = DIRECTION ( 'NONE',  ( 0.000000000000000000, 0.000000000000000000, -1.000000000000000000 ) ) ;
#49 = MECHANICAL_DESIGN_GEOMETRIC_PRESENTATION_REPRESENTATION (  '', ( #288 ), #86 ) ;
#50 = CARTESIAN_POINT ( 'NONE',  ( 9.797174393178825657E-16, 32.00000000000000000, 8.000000000000000000 ) ) ;
#51 = VERTEX_POINT ( 'NONE', #211 ) ;
#52 = DIRECTION ( 'NONE',  ( -3.007904418958410489E-17, 1.000000000000000000, 0.000000000000000000 ) ) ;
#53 = DIRECTION ( 'NONE',  ( 0.000000000000000000, 1.000000000000000000, 0.000000000000000000 ) ) ;
#54 = FACE_OUTER_BOUND ( 'NONE', #97, .T. ) ;
#55 = CYLINDRICAL_SURFACE ( 'NONE', #249, 8.000000000000000000 ) ;
#56 = SURFACE_SIDE_STYLE ('',( #160 ) ) ;
#57 = COLOUR_RGB ( '',1.000000000000000000, 0.000000000000000000, 0.000000000000000000 ) ;
#58 = EDGE_CURVE ( 'NONE', #276, #51, #205, .T. ) ;
#59 = PRESENTATION_LAYER_ASSIGNMENT (  '', '', ( #181 ) ) ;
#60 = FACE_OUTER_BOUND ( 'NONE', #235, .T. ) ;
#61 = DIRECTION ( 'NONE',  ( 0.000000000000000000, 0.000000000000000000, -1.000000000000000000 ) ) ;
#62 = ADVANCED_FACE ( 'NONE', ( #60 ), #140, .T. ) ;
#63 = VERTEX_POINT ( 'NONE', #151 ) ;
#64 = FILL_AREA_STYLE ('',( #229 ) ) ;
#65 = APPLICATION_CONTEXT ( 'automotive_design' ) ;
#66 = AXIS2_PLACEMENT_3D ( 'NONE', #213, #172, #173 ) ;
#67 = PRODUCT_CONTEXT ( 'NONE', #1, 'mechanical' ) ;
#68 = VERTEX_POINT ( 'NONE', #199 ) ;
#69 = CARTESIAN_POINT ( 'NONE',  ( 0.000000000000000000, 32.00000000000000000, 0.000000000000000000 ) ) ;
#70 = CARTESIAN_POINT ( 'NONE',  ( 0.000000000000000000, 32.00000000000000000, -8.000000000000000000 ) ) ;
#71 =( NAMED_UNIT ( * ) SI_UNIT ( $, .STERADIAN. ) SOLID_ANGLE_UNIT ( ) );
#72 = CARTESIAN_POINT ( 'NONE',  ( 0.000000000000000000, 0.000000000000000000, 0.000000000000000000 ) ) ;
#73 = PRODUCT_DEFINITION_CONTEXT ( 'detailed design', #65, 'design' ) ;
#74 = PLANE ( 'NONE',  #268 ) ;
#75 = ORIENTED_EDGE ( 'NONE', *, *, #10, .F. ) ;
#76 = LINE ( 'NONE', #30, #197 ) ;
#77 = DIRECTION ( 'NONE',  ( 0.000000000000000000, -0.000000000000000000, 1.000000000000000000 ) ) ;
#78 = EDGE_CURVE ( 'NONE', #68, #63, #279, .T. ) ;
#79 = PRESENTATION_LAYER_ASSIGNMENT (  '', '', ( #85 ) ) ;
#80 = UNCERTAINTY_MEASURE_WITH_UNIT (LENGTH_MEASURE( 1.000000000000000082E-05 ), #83, 'distance_accuracy_value', 'NONE');
#81 = EDGE_CURVE ( 'NONE', #101, #149, #187, .T. ) ;
#82 =( NAMED_UNIT ( * ) PLANE_ANGLE_UNIT ( ) SI_UNIT ( $, .RADIAN. ) );
#83 =( LENGTH_UNIT ( ) NAMED_UNIT ( * ) SI_UNIT ( .MILLI., .METRE. ) );
#84 =( NAMED_UNIT ( * ) SI_UNIT ( $, .STERADIAN. ) SOLID_ANGLE_UNIT ( ) );
#85 = STYLED_ITEM ( 'NONE', ( #114 ), #17 ) ;
#86 =( GEOMETRIC_REPRESENTATION_CONTEXT ( 3 ) GLOBAL_UNCERTAINTY_ASSIGNED_CONTEXT ( ( #14 ) ) GLOBAL_UNIT_ASSIGNED_CONTEXT ( ( #152, #282, #201 ) ) REPRESENTATION_CONTEXT ( 'NONE', 'WORKASPACE' ) );
#87 = ORIENTED_EDGE ( 'NONE', *, *, #32, .T. ) ;
#88 =( NAMED_UNIT ( * ) SI_UNIT ( $, .STERADIAN. ) SOLID_ANGLE_UNIT ( ) );
#89 = MANIFOLD_SOLID_BREP ( 'Revolve - Tool Body (Straight Shanked)', #112 ) ;
#90 = EDGE_CURVE ( 'NONE', #101, #63, #3, .T. ) ;
#91 =( GEOMETRIC_REPRESENTATION_CONTEXT ( 3 ) GLOBAL_UNCERTAINTY_ASSIGNED_CONTEXT ( ( #80 ) ) GLOBAL_UNIT_ASSIGNED_CONTEXT ( ( #83, #125, #84 ) ) REPRESENTATION_CONTEXT ( 'NONE', 'WORKASPACE' ) );
#92 = MECHANICAL_DESIGN_GEOMETRIC_PRESENTATION_REPRESENTATION (  '', ( #181 ), #45 ) ;
#93 = VERTEX_POINT ( 'NONE', #70 ) ;
#94 = FILL_AREA_STYLE ('',( #131 ) ) ;
#95 =( NAMED_UNIT ( * ) PLANE_ANGLE_UNIT ( ) SI_UNIT ( $, .RADIAN. ) );
#96 = FILL_AREA_STYLE_COLOUR ( '', #129 ) ;
#97 = EDGE_LOOP ( 'NONE', ( #35, #183 ) ) ;
#98 = EDGE_LOOP ( 'NONE', ( #135, #227 ) ) ;
#99 = DIRECTION ( 'NONE',  ( -0.000000000000000000, -1.000000000000000000, -0.000000000000000000 ) ) ;
#100 = PLANE ( 'NONE',  #126 ) ;
#101 = VERTEX_POINT ( 'NONE', #237 ) ;
#102 = PRESENTATION_LAYER_ASSIGNMENT (  '', '', ( #288 ) ) ;
#103 = FILL_AREA_STYLE_COLOUR ( '', #21 ) ;
#104 = FILL_AREA_STYLE_COLOUR ( '', #238 ) ;
#105 = STYLED_ITEM ( 'NONE', ( #168 ), #62 ) ;
#106 = CARTESIAN_POINT ( 'NONE',  ( 0.000000000000000000, 0.000000000000000000, 0.000000000000000000 ) ) ;
#107 = VECTOR ( 'NONE', #178, 1000.000000000000000 ) ;
#108 = ORIENTED_EDGE ( 'NONE', *, *, #90, .T. ) ;
#109 = PRODUCT_DEFINITION ( 'UNKNOWN', '', #137, #73 ) ;
#110 = APPLICATION_PROTOCOL_DEFINITION ( 'draft international standard', 'automotive_design', 1998, #65 ) ;
#111 = ORIENTED_EDGE ( 'NONE', *, *, #212, .F. ) ;
#112 = CLOSED_SHELL ( 'NONE', ( #40, #171, #222, #24 ) ) ;
#113 =( NAMED_UNIT ( * ) SI_UNIT ( $, .STERADIAN. ) SOLID_ANGLE_UNIT ( ) );
#114 = PRESENTATION_STYLE_ASSIGNMENT (( #26 ) ) ;
#115 = CYLINDRICAL_SURFACE ( 'NONE', #33, 8.000000000000000000 ) ;
#116 = LINE ( 'NONE', #204, #132 ) ;
#117 = CARTESIAN_POINT ( 'NONE',  ( -1.714505518806293849E-15, 89.00000000000000000, 0.000000000000000000 ) ) ;
#118 = SURFACE_STYLE_FILL_AREA ( #94 ) ;
#119 = DIRECTION ( 'NONE',  ( -0.000000000000000000, -1.000000000000000000, -0.000000000000000000 ) ) ;
#120 = VERTEX_POINT ( 'NONE', #50 ) ;
#121 = SURFACE_STYLE_USAGE ( .BOTH. , #142 ) ;
#122 = AXIS2_PLACEMENT_3D ( 'NONE', #156, #258, #179 ) ;
#123 = STYLED_ITEM ( 'NONE', ( #9 ), #245 ) ;
#124 = SURFACE_STYLE_FILL_AREA ( #250 ) ;
#125 =( NAMED_UNIT ( * ) PLANE_ANGLE_UNIT ( ) SI_UNIT ( $, .RADIAN. ) );
#126 = AXIS2_PLACEMENT_3D ( 'NONE', #158, #219, #153 ) ;
#127 =( NAMED_UNIT ( * ) SI_UNIT ( $, .STERADIAN. ) SOLID_ANGLE_UNIT ( ) );
#128 = CARTESIAN_POINT ( 'NONE',  ( 0.000000000000000000, 32.00000000000000000, 0.000000000000000000 ) ) ;
#129 = COLOUR_RGB ( '',0.7921568627450980005, 0.8196078431372548767, 0.9333333333333333481 ) ;
#130 =( NAMED_UNIT ( * ) PLANE_ANGLE_UNIT ( ) SI_UNIT ( $, .RADIAN. ) );
#131 = FILL_AREA_STYLE_COLOUR ( '', #57 ) ;
#132 = VECTOR ( 'NONE', #261, 1000.000000000000000 ) ;
#133 =( LENGTH_UNIT ( ) NAMED_UNIT ( * ) SI_UNIT ( .MILLI., .METRE. ) );
#134 = DIRECTION ( 'NONE',  ( -1.000000000000000000, -3.007904418958410489E-17, 0.000000000000000000 ) ) ;
#135 = ORIENTED_EDGE ( 'NONE', *, *, #230, .F. ) ;
#136 = MECHANICAL_DESIGN_GEOMETRIC_PRESENTATION_REPRESENTATION (  '', ( #105 ), #91 ) ;
#137 = PRODUCT_DEFINITION_FORMATION_WITH_SPECIFIED_SOURCE ( 'ANY', '', #138, .NOT_KNOWN. ) ;
#138 = PRODUCT ( '59546', '59546', '', ( #67 ) ) ;
#139 = SURFACE_STYLE_USAGE ( .BOTH. , #56 ) ;
#140 = CYLINDRICAL_SURFACE ( 'NONE', #162, 8.000000000000000000 ) ;
#141 = CIRCLE ( 'NONE', #18, 8.000000000000000000 ) ;
#142 = SURFACE_SIDE_STYLE ('',( #124 ) ) ;
#143 =( NAMED_UNIT ( * ) SI_UNIT ( $, .STERADIAN. ) SOLID_ANGLE_UNIT ( ) );
#144 = AXIS2_PLACEMENT_3D ( 'NONE', #117, #256, #36 ) ;
#145 = LINE ( 'NONE', #42, #23 ) ;
#146 = STYLED_ITEM ( 'NONE', ( #257 ), #286 ) ;
#147 = AXIS2_PLACEMENT_3D ( 'NONE', #218, #184, #223 ) ;
#148 = SURFACE_STYLE_USAGE ( .BOTH. , #46 ) ;
#149 = VERTEX_POINT ( 'NONE', #157 ) ;
#150 = SHAPE_DEFINITION_REPRESENTATION ( #164, #166 ) ;
#151 = CARTESIAN_POINT ( 'NONE',  ( 8.000000000000000000, 89.00000000000000000, 9.797174393178825657E-16 ) ) ;
#152 =( LENGTH_UNIT ( ) NAMED_UNIT ( * ) SI_UNIT ( .MILLI., .METRE. ) );
#153 = DIRECTION ( 'NONE',  ( 1.000000000000000000, 3.007904418958410489E-17, 0.000000000000000000 ) ) ;
#154 = MECHANICAL_DESIGN_GEOMETRIC_PRESENTATION_REPRESENTATION (  '', ( #85 ), #270 ) ;
#155 = CARTESIAN_POINT ( 'NONE',  ( 3.618995597435813748E-33, 32.00000000000000000, 0.000000000000000000 ) ) ;
#156 = CARTESIAN_POINT ( 'NONE',  ( 0.000000000000000000, 32.00000000000000000, 0.000000000000000000 ) ) ;
#157 = CARTESIAN_POINT ( 'NONE',  ( -8.000000000000000000, 32.00000000000000000, 0.000000000000000000 ) ) ;
#158 = CARTESIAN_POINT ( 'NONE',  ( 8.000000000000000000, 89.00000000000000000, 0.000000000000000000 ) ) ;
#159 = FACE_OUTER_BOUND ( 'NONE', #43, .T. ) ;
#160 = SURFACE_STYLE_FILL_AREA ( #262 ) ;
#161 = FACE_OUTER_BOUND ( 'NONE', #267, .T. ) ;
#162 = AXIS2_PLACEMENT_3D ( 'NONE', #182, #119, #25 ) ;
#163 = CARTESIAN_POINT ( 'NONE',  ( -1.714505518806293849E-15, 89.00000000000000000, 0.000000000000000000 ) ) ;
#164 = PRODUCT_DEFINITION_SHAPE ( 'NONE', 'NONE',  #109 ) ;
#165 = AXIS2_PLACEMENT_3D ( 'NONE', #263, #53, #77 ) ;
#166 = ADVANCED_BREP_SHAPE_REPRESENTATION ( '59546', ( #277, #89, #66 ), #34 ) ;
#167 = DIRECTION ( 'NONE',  ( 0.000000000000000000, 0.000000000000000000, -1.000000000000000000 ) ) ;
#168 = PRESENTATION_STYLE_ASSIGNMENT (( #195 ) ) ;
#169 = FACE_OUTER_BOUND ( 'NONE', #284, .T. ) ;
#170 = COLOUR_RGB ( '',0.7921568627450980005, 0.8196078431372548767, 0.9333333333333333481 ) ;
#171 = ADVANCED_FACE ( 'NONE', ( #28 ), #74, .F. ) ;
#172 = DIRECTION ( 'NONE',  ( 0.000000000000000000, 0.000000000000000000, 1.000000000000000000 ) ) ;
#173 = DIRECTION ( 'NONE',  ( 1.000000000000000000, 0.000000000000000000, 0.000000000000000000 ) ) ;
#174 = COLOUR_RGB ( '',1.000000000000000000, 0.000000000000000000, 0.000000000000000000 ) ;
#175 = ORIENTED_EDGE ( 'NONE', *, *, #90, .F. ) ;
#176 = DIRECTION ( 'NONE',  ( 0.000000000000000000, -1.000000000000000000, -0.000000000000000000 ) ) ;
#177 = SURFACE_STYLE_FILL_AREA ( #5 ) ;
#178 = DIRECTION ( 'NONE',  ( -3.007904418958410489E-17, 1.000000000000000000, -0.000000000000000000 ) ) ;
#179 = DIRECTION ( 'NONE',  ( 0.000000000000000000, 0.000000000000000000, -1.000000000000000000 ) ) ;
#180 = DIRECTION ( 'NONE',  ( -1.000000000000000000, 0.000000000000000000, 0.000000000000000000 ) ) ;
#181 = STYLED_ITEM ( 'NONE', ( #39 ), #277 ) ;
#182 = CARTESIAN_POINT ( 'NONE',  ( 0.000000000000000000, 0.000000000000000000, 0.000000000000000000 ) ) ;
#183 = ORIENTED_EDGE ( 'NONE', *, *, #2, .T. ) ;
#184 = DIRECTION ( 'NONE',  ( -3.007904418958410489E-17, 1.000000000000000000, -0.000000000000000000 ) ) ;
#185 = ORIENTED_EDGE ( 'NONE', *, *, #78, .F. ) ;
#186 = DIRECTION ( 'NONE',  ( -3.007904418958410489E-17, 1.000000000000000000, -0.000000000000000000 ) ) ;
#187 = CIRCLE ( 'NONE', #8, 8.000000000000000000 ) ;
#188 =( GEOMETRIC_REPRESENTATION_CONTEXT ( 3 ) GLOBAL_UNCERTAINTY_ASSIGNED_CONTEXT ( ( #203 ) ) GLOBAL_UNIT_ASSIGNED_CONTEXT ( ( #231, #95, #113 ) ) REPRESENTATION_CONTEXT ( 'NONE', 'WORKASPACE' ) );
#189 = CARTESIAN_POINT ( 'NONE',  ( 0.000000000000000000, 32.00000000000000000, 0.000000000000000000 ) ) ;
#190 = SURFACE_STYLE_FILL_AREA ( #41 ) ;
#191 = UNCERTAINTY_MEASURE_WITH_UNIT (LENGTH_MEASURE( 1.000000000000000082E-05 ), #133, 'distance_accuracy_value', 'NONE');
#192 = AXIS2_PLACEMENT_3D ( 'NONE', #226, #251, #247 ) ;
#193 = ORIENTED_EDGE ( 'NONE', *, *, #58, .T. ) ;
#194 = DIRECTION ( 'NONE',  ( -0.000000000000000000, -1.000000000000000000, -0.000000000000000000 ) ) ;
#195 = SURFACE_STYLE_USAGE ( .BOTH. , #210 ) ;
#196 = EDGE_CURVE ( 'NONE', #93, #51, #76, .T. ) ;
#197 = VECTOR ( 'NONE', #99, 1000.000000000000000 ) ;
#198 = ORIENTED_EDGE ( 'NONE', *, *, #196, .T. ) ;
#199 = CARTESIAN_POINT ( 'NONE',  ( -8.000000000000003553, 89.00000000000000000, 0.000000000000000000 ) ) ;
#200 = ORIENTED_EDGE ( 'NONE', *, *, #248, .T. ) ;
#201 =( NAMED_UNIT ( * ) SI_UNIT ( $, .STERADIAN. ) SOLID_ANGLE_UNIT ( ) );
#202 = ORIENTED_EDGE ( 'NONE', *, *, #265, .F. ) ;
#203 = UNCERTAINTY_MEASURE_WITH_UNIT (LENGTH_MEASURE( 1.000000000000000082E-05 ), #231, 'distance_accuracy_value', 'NONE');
#204 = CARTESIAN_POINT ( 'NONE',  ( -8.000000000000001776, 89.00000000000000000, 0.000000000000000000 ) ) ;
#205 = CIRCLE ( 'NONE', #192, 8.000000000000000000 ) ;
#206 =( LENGTH_UNIT ( ) NAMED_UNIT ( * ) SI_UNIT ( .MILLI., .METRE. ) );
#207 = FILL_AREA_STYLE_COLOUR ( '', #170 ) ;
#208 = FACE_OUTER_BOUND ( 'NONE', #37, .T. ) ;
#209 = PRODUCT_RELATED_PRODUCT_CATEGORY ( 'part', '', ( #138 ) ) ;
#210 = SURFACE_SIDE_STYLE ('',( #190 ) ) ;
#211 = CARTESIAN_POINT ( 'NONE',  ( 0.000000000000000000, 0.000000000000000000, -8.000000000000000000 ) ) ;
#212 = EDGE_CURVE ( 'NONE', #149, #68, #116, .T. ) ;
#213 = CARTESIAN_POINT ( 'NONE',  ( 0.000000000000000000, 0.000000000000000000, 0.000000000000000000 ) ) ;
#214 = ORIENTED_EDGE ( 'NONE', *, *, #2, .F. ) ;
#215 = CARTESIAN_POINT ( 'NONE',  ( -1.714505518806293849E-15, 89.00000000000000000, 0.000000000000000000 ) ) ;
#216 = UNCERTAINTY_MEASURE_WITH_UNIT (LENGTH_MEASURE( 1.000000000000000082E-05 ), #272, 'distance_accuracy_value', 'NONE');
#217 = ORIENTED_EDGE ( 'NONE', *, *, #265, .T. ) ;
#218 = CARTESIAN_POINT ( 'NONE',  ( -1.714505518806293849E-15, 89.00000000000000000, 0.000000000000000000 ) ) ;
#219 = DIRECTION ( 'NONE',  ( 3.007904418958410489E-17, -1.000000000000000000, 0.000000000000000000 ) ) ;
#220 = DIRECTION ( 'NONE',  ( -1.000000000000000000, 0.000000000000000000, 0.000000000000000000 ) ) ;
#221 = DIRECTION ( 'NONE',  ( -1.000000000000000000, 0.000000000000000000, 0.000000000000000000 ) ) ;
#222 = ADVANCED_FACE ( 'NONE', ( #159 ), #242, .T. ) ;
#223 = DIRECTION ( 'NONE',  ( -1.000000000000000000, 0.000000000000000000, 0.000000000000000000 ) ) ;
#224 = CLOSED_SHELL ( 'NONE', ( #245, #17, #62, #286 ) ) ;
#225 =( GEOMETRIC_REPRESENTATION_CONTEXT ( 3 ) GLOBAL_UNCERTAINTY_ASSIGNED_CONTEXT ( ( #252 ) ) GLOBAL_UNIT_ASSIGNED_CONTEXT ( ( #11, #82, #143 ) ) REPRESENTATION_CONTEXT ( 'NONE', 'WORKASPACE' ) );
#226 = CARTESIAN_POINT ( 'NONE',  ( 0.000000000000000000, 0.000000000000000000, 0.000000000000000000 ) ) ;
#227 = ORIENTED_EDGE ( 'NONE', *, *, #81, .F. ) ;
#228 = PRESENTATION_LAYER_ASSIGNMENT (  '', '', ( #146 ) ) ;
#229 = FILL_AREA_STYLE_COLOUR ( '', #174 ) ;
#230 = EDGE_CURVE ( 'NONE', #149, #101, #260, .T. ) ;
#231 =( LENGTH_UNIT ( ) NAMED_UNIT ( * ) SI_UNIT ( .MILLI., .METRE. ) );
#232 = CIRCLE ( 'NONE', #47, 8.000000000000001776 ) ;
#233 = AXIS2_PLACEMENT_3D ( 'NONE', #72, #176, #48 ) ;
#234 = ORIENTED_EDGE ( 'NONE', *, *, #32, .F. ) ;
#235 = EDGE_LOOP ( 'NONE', ( #241, #217, #198, #281 ) ) ;
#236 = PRESENTATION_STYLE_ASSIGNMENT (( #240 ) ) ;
#237 = CARTESIAN_POINT ( 'NONE',  ( 8.000000000000000000, 32.00000000000000000, 9.797174393178825657E-16 ) ) ;
#238 = COLOUR_RGB ( '',1.000000000000000000, 0.000000000000000000, 0.000000000000000000 ) ;
#239 = CARTESIAN_POINT ( 'NONE',  ( 0.000000000000000000, 0.000000000000000000, 0.000000000000000000 ) ) ;
#240 = SURFACE_STYLE_USAGE ( .BOTH. , #264 ) ;
#241 = ORIENTED_EDGE ( 'NONE', *, *, #248, .F. ) ;
#242 = CYLINDRICAL_SURFACE ( 'NONE', #147, 8.000000000000000000 ) ;
#243 = EDGE_LOOP ( 'NONE', ( #285, #200, #234, #278 ) ) ;
#244 = DIRECTION ( 'NONE',  ( -3.007904418958410489E-17, 1.000000000000000000, -0.000000000000000000 ) ) ;
#245 = ADVANCED_FACE ( 'NONE', ( #269 ), #55, .T. ) ;
#246 = ORIENTED_EDGE ( 'NONE', *, *, #81, .T. ) ;
#247 = DIRECTION ( 'NONE',  ( 0.000000000000000000, 0.000000000000000000, -1.000000000000000000 ) ) ;
#248 = EDGE_CURVE ( 'NONE', #120, #276, #145, .T. ) ;
#249 = AXIS2_PLACEMENT_3D ( 'NONE', #106, #194, #61 ) ;
#250 = FILL_AREA_STYLE ('',( #104 ) ) ;
#251 = DIRECTION ( 'NONE',  ( -0.000000000000000000, -1.000000000000000000, -0.000000000000000000 ) ) ;
#252 = UNCERTAINTY_MEASURE_WITH_UNIT (LENGTH_MEASURE( 1.000000000000000082E-05 ), #11, 'distance_accuracy_value', 'NONE');
#253 = CARTESIAN_POINT ( 'NONE',  ( 9.797174393178825657E-16, 0.000000000000000000, 8.000000000000000000 ) ) ;
#254 = ORIENTED_EDGE ( 'NONE', *, *, #212, .T. ) ;
#255 = PRESENTATION_LAYER_ASSIGNMENT (  '', '', ( #105 ) ) ;
#256 = DIRECTION ( 'NONE',  ( -3.007904418958410489E-17, 1.000000000000000000, -0.000000000000000000 ) ) ;
#257 = PRESENTATION_STYLE_ASSIGNMENT (( #148 ) ) ;
#258 = DIRECTION ( 'NONE',  ( -0.000000000000000000, -1.000000000000000000, -0.000000000000000000 ) ) ;
#259 = CARTESIAN_POINT ( 'NONE',  ( 7.999999999999998224, 89.00000000000000000, 9.797174393178825657E-16 ) ) ;
#260 = CIRCLE ( 'NONE', #274, 8.000000000000000000 ) ;
#261 = DIRECTION ( 'NONE',  ( -3.007904418958410489E-17, 1.000000000000000000, -0.000000000000000000 ) ) ;
#262 = FILL_AREA_STYLE ('',( #96 ) ) ;
#263 = CARTESIAN_POINT ( 'NONE',  ( 0.000000000000000000, 32.00000000000000000, 0.000000000000000000 ) ) ;
#264 = SURFACE_SIDE_STYLE ('',( #177 ) ) ;
#265 = EDGE_CURVE ( 'NONE', #120, #93, #141, .T. ) ;
#266 = PLANE ( 'NONE',  #165 ) ;
#267 = EDGE_LOOP ( 'NONE', ( #20, #108, #185, #111 ) ) ;
#268 = AXIS2_PLACEMENT_3D ( 'NONE', #155, #52, #134 ) ;
#269 = FACE_OUTER_BOUND ( 'NONE', #243, .T. ) ;
#270 =( GEOMETRIC_REPRESENTATION_CONTEXT ( 3 ) GLOBAL_UNCERTAINTY_ASSIGNED_CONTEXT ( ( #7 ) ) GLOBAL_UNIT_ASSIGNED_CONTEXT ( ( #206, #31, #71 ) ) REPRESENTATION_CONTEXT ( 'NONE', 'WORKASPACE' ) );
#271 = DIRECTION ( 'NONE',  ( -0.000000000000000000, -1.000000000000000000, -0.000000000000000000 ) ) ;
#272 =( LENGTH_UNIT ( ) NAMED_UNIT ( * ) SI_UNIT ( .MILLI., .METRE. ) );
#273 = CIRCLE ( 'NONE', #122, 8.000000000000000000 ) ;
#274 = AXIS2_PLACEMENT_3D ( 'NONE', #189, #12, #38 ) ;
#275 =( NAMED_UNIT ( * ) PLANE_ANGLE_UNIT ( ) SI_UNIT ( $, .RADIAN. ) );
#276 = VERTEX_POINT ( 'NONE', #253 ) ;
#277 = MANIFOLD_SOLID_BREP ( 'Revolve - Cutting Edge', #224 ) ;
#278 = ORIENTED_EDGE ( 'NONE', *, *, #196, .F. ) ;
#279 = CIRCLE ( 'NONE', #144, 8.000000000000001776 ) ;
#280 = PRESENTATION_LAYER_ASSIGNMENT (  '', '', ( #123 ) ) ;
#281 = ORIENTED_EDGE ( 'NONE', *, *, #58, .F. ) ;
#282 =( NAMED_UNIT ( * ) PLANE_ANGLE_UNIT ( ) SI_UNIT ( $, .RADIAN. ) );
#283 = PLANE ( 'NONE',  #233 ) ;
#284 = EDGE_LOOP ( 'NONE', ( #87, #193 ) ) ;
#285 = ORIENTED_EDGE ( 'NONE', *, *, #10, .T. ) ;
#286 = ADVANCED_FACE ( 'NONE', ( #169 ), #283, .T. ) ;
#287 = DIRECTION ( 'NONE',  ( -3.007904418958410489E-17, 1.000000000000000000, -0.000000000000000000 ) ) ;
#288 = STYLED_ITEM ( 'NONE', ( #236 ), #89 ) ;
ENDSEC;
END-ISO-10303-21;
