ISO-10303-21;
HEADER;
FILE_DESCRIPTION (( 'STEP AP214' ),
    '1' );
FILE_NAME ('59759.STEP',
    '2023-07-24T15:34:47',
    ( '' ),
    ( '' ),
    'SwSTEP 2.0',
    'SolidWorks 2023',
    '' );
FILE_SCHEMA (( 'AUTOMOTIVE_DESIGN' ));
ENDSEC;

DATA;
#1 = DIRECTION ( 'NONE',  ( 1.000000000000000000, 0.000000000000000000, 0.000000000000000000 ) ) ;
#2 = PRODUCT ( '59759', '59759', '', ( #141 ) ) ;
#3 = FILL_AREA_STYLE ('',( #140 ) ) ;
#4 = SURFACE_STYLE_USAGE ( .BOTH. , #40 ) ;
#5 = CARTESIAN_POINT ( 'NONE',  ( -1.347111479062090180E-15, 100.0000000000000000, 0.000000000000000000 ) ) ;
#6 = AXIS2_PLACEMENT_3D ( 'NONE', #312, #288, #26 ) ;
#7 = CARTESIAN_POINT ( 'NONE',  ( 0.000000000000000000, 0.5000000000000000000, 0.000000000000000000 ) ) ;
#8 = FACE_OUTER_BOUND ( 'NONE', #243, .T. ) ;
#9 = DIRECTION ( 'NONE',  ( -0.000000000000000000, -1.000000000000000000, -0.000000000000000000 ) ) ;
#10 = SURFACE_STYLE_USAGE ( .BOTH. , #182 ) ;
#11 = CARTESIAN_POINT ( 'NONE',  ( 0.000000000000000000, 0.000000000000000000, 0.000000000000000000 ) ) ;
#12 =( GEOMETRIC_REPRESENTATION_CONTEXT ( 3 ) GLOBAL_UNCERTAINTY_ASSIGNED_CONTEXT ( ( #275 ) ) GLOBAL_UNIT_ASSIGNED_CONTEXT ( ( #351, #301, #98 ) ) REPRESENTATION_CONTEXT ( 'NONE', 'WORKASPACE' ) );
#13 = PRESENTATION_LAYER_ASSIGNMENT (  '', '', ( #257 ) ) ;
#14 = DIRECTION ( 'NONE',  ( 0.000000000000000000, 0.000000000000000000, -1.000000000000000000 ) ) ;
#15 = PRESENTATION_STYLE_ASSIGNMENT (( #280 ) ) ;
#16 = VERTEX_POINT ( 'NONE', #27 ) ;
#17 = SURFACE_STYLE_USAGE ( .BOTH. , #337 ) ;
#18 = EDGE_LOOP ( 'NONE', ( #120, #103 ) ) ;
#19 = CIRCLE ( 'NONE', #196, 10.00000000000000000 ) ;
#20 = SURFACE_STYLE_FILL_AREA ( #168 ) ;
#21 = DIRECTION ( 'NONE',  ( 0.000000000000000000, 0.000000000000000000, -1.000000000000000000 ) ) ;
#22 = EDGE_CURVE ( 'NONE', #92, #16, #106, .T. ) ;
#23 = AXIS2_PLACEMENT_3D ( 'NONE', #11, #9, #37 ) ;
#24 = AXIS2_PLACEMENT_3D ( 'NONE', #237, #133, #309 ) ;
#25 = DIRECTION ( 'NONE',  ( 0.000000000000000000, 0.000000000000000000, -1.000000000000000000 ) ) ;
#26 = DIRECTION ( 'NONE',  ( 0.000000000000000000, 0.000000000000000000, -1.000000000000000000 ) ) ;
#27 = CARTESIAN_POINT ( 'NONE',  ( 10.00000000000000355, 100.0000000000000000, 1.224646799147353651E-15 ) ) ;
#28 = DIRECTION ( 'NONE',  ( -1.000000000000000000, 0.000000000000000000, 0.000000000000000000 ) ) ;
#29 = LINE ( 'NONE', #95, #100 ) ;
#30 = CARTESIAN_POINT ( 'NONE',  ( -9.999999999999987566, 40.00000000000000000, 0.000000000000000000 ) ) ;
#31 = FACE_OUTER_BOUND ( 'NONE', #317, .T. ) ;
#32 = MECHANICAL_DESIGN_GEOMETRIC_PRESENTATION_REPRESENTATION (  '', ( #232 ), #122 ) ;
#33 = AXIS2_PLACEMENT_3D ( 'NONE', #213, #300, #14 ) ;
#34 = FILL_AREA_STYLE_COLOUR ( '', #310 ) ;
#35 = SURFACE_SIDE_STYLE ('',( #81 ) ) ;
#36 =( NAMED_UNIT ( * ) SI_UNIT ( $, .STERADIAN. ) SOLID_ANGLE_UNIT ( ) );
#37 = DIRECTION ( 'NONE',  ( 0.000000000000000000, 0.000000000000000000, -1.000000000000000000 ) ) ;
#38 = AXIS2_PLACEMENT_3D ( 'NONE', #295, #139, #119 ) ;
#39 =( NAMED_UNIT ( * ) SI_UNIT ( $, .STERADIAN. ) SOLID_ANGLE_UNIT ( ) );
#40 = SURFACE_SIDE_STYLE ('',( #305 ) ) ;
#41 = DIRECTION ( 'NONE',  ( -1.000000000000000000, -1.236440607496819135E-16, 0.000000000000000000 ) ) ;
#42 = FILL_AREA_STYLE_COLOUR ( '', #299 ) ;
#43 = FACE_OUTER_BOUND ( 'NONE', #267, .T. ) ;
#44 = PRESENTATION_LAYER_ASSIGNMENT (  '', '', ( #184 ) ) ;
#45 = FACE_OUTER_BOUND ( 'NONE', #201, .T. ) ;
#46 = DIRECTION ( 'NONE',  ( -1.000000000000000000, 0.000000000000000000, 0.000000000000000000 ) ) ;
#47 = ORIENTED_EDGE ( 'NONE', *, *, #158, .T. ) ;
#48 = LINE ( 'NONE', #166, #315 ) ;
#49 = CLOSED_SHELL ( 'NONE', ( #116, #121, #302, #360 ) ) ;
#50 = STYLED_ITEM ( 'NONE', ( #214 ), #145 ) ;
#51 = SURFACE_SIDE_STYLE ('',( #254 ) ) ;
#52 = ADVANCED_BREP_SHAPE_REPRESENTATION ( '59759', ( #200, #199, #86 ), #357 ) ;
#53 = SURFACE_STYLE_USAGE ( .BOTH. , #193 ) ;
#54 = UNCERTAINTY_MEASURE_WITH_UNIT (LENGTH_MEASURE( 1.000000000000000082E-05 ), #186, 'distance_accuracy_value', 'NONE');
#55 = DIRECTION ( 'NONE',  ( -0.000000000000000000, -1.000000000000000000, -0.000000000000000000 ) ) ;
#56 = CIRCLE ( 'NONE', #272, 10.00000000000000000 ) ;
#57 = CARTESIAN_POINT ( 'NONE',  ( 1.194030629168669469E-15, 0.000000000000000000, 9.500000000000000000 ) ) ;
#58 = CARTESIAN_POINT ( 'NONE',  ( -1.347111479062090180E-15, 100.0000000000000000, 0.000000000000000000 ) ) ;
#59 = ADVANCED_FACE ( 'NONE', ( #349 ), #268, .T. ) ;
#60 = CARTESIAN_POINT ( 'NONE',  ( 0.000000000000000000, 0.5000000000000000000, -10.00000000000000000 ) ) ;
#61 = CYLINDRICAL_SURFACE ( 'NONE', #33, 10.00000000000000000 ) ;
#62 = ORIENTED_EDGE ( 'NONE', *, *, #290, .T. ) ;
#63 = PRESENTATION_LAYER_ASSIGNMENT (  '', '', ( #232 ) ) ;
#64 = AXIS2_PLACEMENT_3D ( 'NONE', #125, #238, #99 ) ;
#65 = CARTESIAN_POINT ( 'NONE',  ( 0.000000000000000000, 0.5000000000000000000, -9.500000000000000000 ) ) ;
#66 = ORIENTED_EDGE ( 'NONE', *, *, #105, .T. ) ;
#67 = PRODUCT_RELATED_PRODUCT_CATEGORY ( 'part', '', ( #2 ) ) ;
#68 = STYLED_ITEM ( 'NONE', ( #154 ), #316 ) ;
#69 = UNCERTAINTY_MEASURE_WITH_UNIT (LENGTH_MEASURE( 1.000000000000000082E-05 ), #255, 'distance_accuracy_value', 'NONE');
#70 = EDGE_LOOP ( 'NONE', ( #118, #66, #253, #338 ) ) ;
#71 = PRESENTATION_LAYER_ASSIGNMENT (  '', '', ( #83 ) ) ;
#72 = ORIENTED_EDGE ( 'NONE', *, *, #244, .T. ) ;
#73 = CYLINDRICAL_SURFACE ( 'NONE', #336, 10.00000000000000000 ) ;
#74 = EDGE_CURVE ( 'NONE', #314, #108, #149, .T. ) ;
#75 = ORIENTED_EDGE ( 'NONE', *, *, #252, .T. ) ;
#76 = UNCERTAINTY_MEASURE_WITH_UNIT (LENGTH_MEASURE( 1.000000000000000082E-05 ), #187, 'distance_accuracy_value', 'NONE');
#77 = SURFACE_STYLE_FILL_AREA ( #138 ) ;
#78 = AXIS2_PLACEMENT_3D ( 'NONE', #367, #87, #230 ) ;
#79 = PRESENTATION_LAYER_ASSIGNMENT (  '', '', ( #68 ) ) ;
#80 =( NAMED_UNIT ( * ) SI_UNIT ( $, .STERADIAN. ) SOLID_ANGLE_UNIT ( ) );
#81 = SURFACE_STYLE_FILL_AREA ( #93 ) ;
#82 = VERTEX_POINT ( 'NONE', #60 ) ;
#83 = STYLED_ITEM ( 'NONE', ( #15 ), #131 ) ;
#84 = AXIS2_PLACEMENT_3D ( 'NONE', #65, #28, #262 ) ;
#85 = CARTESIAN_POINT ( 'NONE',  ( 0.000000000000000000, 0.000000000000000000, -9.500000000000000000 ) ) ;
#86 = AXIS2_PLACEMENT_3D ( 'NONE', #90, #363, #1 ) ;
#87 = DIRECTION ( 'NONE',  ( -1.236440607496819135E-16, 1.000000000000000000, -0.000000000000000000 ) ) ;
#88 = FILL_AREA_STYLE_COLOUR ( '', #129 ) ;
#89 = CARTESIAN_POINT ( 'NONE',  ( 6.071532165918824830E-15, 40.00000000000000000, 0.000000000000000000 ) ) ;
#90 = CARTESIAN_POINT ( 'NONE',  ( 0.000000000000000000, 0.000000000000000000, 0.000000000000000000 ) ) ;
#91 = CARTESIAN_POINT ( 'NONE',  ( 0.000000000000000000, 40.00000000000000000, 0.000000000000000000 ) ) ;
#92 = VERTEX_POINT ( 'NONE', #291 ) ;
#93 = FILL_AREA_STYLE ('',( #88 ) ) ;
#94 = PRESENTATION_LAYER_ASSIGNMENT (  '', '', ( #256 ) ) ;
#95 = CARTESIAN_POINT ( 'NONE',  ( 1.224646799147353256E-15, 0.000000000000000000, 10.00000000000000000 ) ) ;
#96 = FILL_AREA_STYLE ('',( #34 ) ) ;
#97 = SURFACE_STYLE_FILL_AREA ( #3 ) ;
#98 =( NAMED_UNIT ( * ) SI_UNIT ( $, .STERADIAN. ) SOLID_ANGLE_UNIT ( ) );
#99 = DIRECTION ( 'NONE',  ( 1.000000000000000000, 1.236440607496819135E-16, 0.000000000000000000 ) ) ;
#100 = VECTOR ( 'NONE', #293, 1000.000000000000000 ) ;
#101 = PRESENTATION_LAYER_ASSIGNMENT (  '', '', ( #50 ) ) ;
#102 = FACE_OUTER_BOUND ( 'NONE', #216, .T. ) ;
#103 = ORIENTED_EDGE ( 'NONE', *, *, #269, .F. ) ;
#104 = FILL_AREA_STYLE ('',( #307 ) ) ;
#105 = EDGE_CURVE ( 'NONE', #282, #176, #29, .T. ) ;
#106 = CIRCLE ( 'NONE', #78, 10.00000000000000355 ) ;
#107 =( GEOMETRIC_REPRESENTATION_CONTEXT ( 3 ) GLOBAL_UNCERTAINTY_ASSIGNED_CONTEXT ( ( #198 ) ) GLOBAL_UNIT_ASSIGNED_CONTEXT ( ( #163, #361, #114 ) ) REPRESENTATION_CONTEXT ( 'NONE', 'WORKASPACE' ) );
#108 = VERTEX_POINT ( 'NONE', #181 ) ;
#109 = CARTESIAN_POINT ( 'NONE',  ( 1.224646799147353256E-15, 0.5000000000000000000, 10.00000000000000000 ) ) ;
#110 = CARTESIAN_POINT ( 'NONE',  ( 0.000000000000000000, 0.000000000000000000, 0.000000000000000000 ) ) ;
#111 = DIRECTION ( 'NONE',  ( -0.000000000000000000, -1.000000000000000000, -0.000000000000000000 ) ) ;
#112 = CLOSED_SHELL ( 'NONE', ( #316, #131, #194, #325, #145, #59 ) ) ;
#113 =( GEOMETRIC_REPRESENTATION_CONTEXT ( 3 ) GLOBAL_UNCERTAINTY_ASSIGNED_CONTEXT ( ( #76 ) ) GLOBAL_UNIT_ASSIGNED_CONTEXT ( ( #187, #326, #39 ) ) REPRESENTATION_CONTEXT ( 'NONE', 'WORKASPACE' ) );
#114 =( NAMED_UNIT ( * ) SI_UNIT ( $, .STERADIAN. ) SOLID_ANGLE_UNIT ( ) );
#115 = DIRECTION ( 'NONE',  ( 0.000000000000000000, 0.000000000000000000, -1.000000000000000000 ) ) ;
#116 = ADVANCED_FACE ( 'NONE', ( #31 ), #144, .T. ) ;
#117 = DIRECTION ( 'NONE',  ( -1.236440607496819135E-16, 1.000000000000000000, -0.000000000000000000 ) ) ;
#118 = ORIENTED_EDGE ( 'NONE', *, *, #221, .T. ) ;
#119 = DIRECTION ( 'NONE',  ( -1.224646799147353454E-16, 0.000000000000000000, -1.000000000000000000 ) ) ;
#120 = ORIENTED_EDGE ( 'NONE', *, *, #221, .F. ) ;
#121 = ADVANCED_FACE ( 'NONE', ( #102 ), #153, .F. ) ;
#122 =( GEOMETRIC_REPRESENTATION_CONTEXT ( 3 ) GLOBAL_UNCERTAINTY_ASSIGNED_CONTEXT ( ( #134 ) ) GLOBAL_UNIT_ASSIGNED_CONTEXT ( ( #174, #231, #346 ) ) REPRESENTATION_CONTEXT ( 'NONE', 'WORKASPACE' ) );
#123 = DIRECTION ( 'NONE',  ( -1.236440607496819135E-16, 1.000000000000000000, -0.000000000000000000 ) ) ;
#124 = CARTESIAN_POINT ( 'NONE',  ( 0.000000000000000000, 0.5000000000000000000, 0.000000000000000000 ) ) ;
#125 = CARTESIAN_POINT ( 'NONE',  ( 10.00000000000000178, 100.0000000000000000, 0.000000000000000000 ) ) ;
#126 = SURFACE_STYLE_FILL_AREA ( #128 ) ;
#127 = EDGE_CURVE ( 'NONE', #278, #206, #162, .T. ) ;
#128 = FILL_AREA_STYLE ('',( #356 ) ) ;
#129 = COLOUR_RGB ( '',0.7921568627450980005, 0.8196078431372548767, 0.9333333333333333481 ) ;
#130 = ORIENTED_EDGE ( 'NONE', *, *, #164, .F. ) ;
#131 = ADVANCED_FACE ( 'NONE', ( #327 ), #208, .T. ) ;
#132 = CIRCLE ( 'NONE', #333, 10.00000000000000355 ) ;
#133 = DIRECTION ( 'NONE',  ( -0.000000000000000000, -1.000000000000000000, -0.000000000000000000 ) ) ;
#134 = UNCERTAINTY_MEASURE_WITH_UNIT (LENGTH_MEASURE( 1.000000000000000082E-05 ), #174, 'distance_accuracy_value', 'NONE');
#135 = PRESENTATION_STYLE_ASSIGNMENT (( #17 ) ) ;
#136 = DIRECTION ( 'NONE',  ( -1.000000000000000000, 0.000000000000000000, 0.000000000000000000 ) ) ;
#137 = AXIS2_PLACEMENT_3D ( 'NONE', #286, #192, #21 ) ;
#138 = FILL_AREA_STYLE ('',( #334 ) ) ;
#139 = DIRECTION ( 'NONE',  ( 1.000000000000000000, 0.000000000000000000, -1.224646799147353207E-16 ) ) ;
#140 = FILL_AREA_STYLE_COLOUR ( '', #362 ) ;
#141 = PRODUCT_CONTEXT ( 'NONE', #273, 'mechanical' ) ;
#142 = LINE ( 'NONE', #180, #341 ) ;
#143 = ORIENTED_EDGE ( 'NONE', *, *, #234, .T. ) ;
#144 = CYLINDRICAL_SURFACE ( 'NONE', #204, 9.999999999999998224 ) ;
#145 = ADVANCED_FACE ( 'NONE', ( #43 ), #73, .T. ) ;
#146 = PRESENTATION_STYLE_ASSIGNMENT (( #260 ) ) ;
#147 = ORIENTED_EDGE ( 'NONE', *, *, #355, .T. ) ;
#148 = ORIENTED_EDGE ( 'NONE', *, *, #355, .F. ) ;
#149 = CIRCLE ( 'NONE', #156, 9.999999999999994671 ) ;
#150 = AXIS2_PLACEMENT_3D ( 'NONE', #335, #219, #25 ) ;
#151 =( NAMED_UNIT ( * ) PLANE_ANGLE_UNIT ( ) SI_UNIT ( $, .RADIAN. ) );
#152 = DIRECTION ( 'NONE',  ( -1.236440607496819135E-16, 1.000000000000000000, -0.000000000000000000 ) ) ;
#153 = PLANE ( 'NONE',  #294 ) ;
#154 = PRESENTATION_STYLE_ASSIGNMENT (( #4 ) ) ;
#155 = PLANE ( 'NONE',  #64 ) ;
#156 = AXIS2_PLACEMENT_3D ( 'NONE', #89, #347, #224 ) ;
#157 = PRODUCT_DEFINITION_FORMATION_WITH_SPECIFIED_SOURCE ( 'ANY', '', #2, .NOT_KNOWN. ) ;
#158 = EDGE_CURVE ( 'NONE', #190, #82, #48, .T. ) ;
#159 = ORIENTED_EDGE ( 'NONE', *, *, #164, .T. ) ;
#160 = ORIENTED_EDGE ( 'NONE', *, *, #22, .T. ) ;
#161 = CARTESIAN_POINT ( 'NONE',  ( 0.000000000000000000, 40.00000000000000000, -10.00000000000000000 ) ) ;
#162 = CIRCLE ( 'NONE', #23, 9.500000000000000000 ) ;
#163 =( LENGTH_UNIT ( ) NAMED_UNIT ( * ) SI_UNIT ( .MILLI., .METRE. ) );
#164 = EDGE_CURVE ( 'NONE', #206, #278, #209, .T. ) ;
#165 = PRODUCT_DEFINITION_CONTEXT ( 'detailed design', #331, 'design' ) ;
#166 = CARTESIAN_POINT ( 'NONE',  ( 0.000000000000000000, 0.000000000000000000, -10.00000000000000000 ) ) ;
#167 = APPLICATION_PROTOCOL_DEFINITION ( 'draft international standard', 'automotive_design', 1998, #331 ) ;
#168 = FILL_AREA_STYLE ('',( #217 ) ) ;
#169 = AXIS2_PLACEMENT_3D ( 'NONE', #261, #343, #289 ) ;
#170 =( GEOMETRIC_REPRESENTATION_CONTEXT ( 3 ) GLOBAL_UNCERTAINTY_ASSIGNED_CONTEXT ( ( #69 ) ) GLOBAL_UNIT_ASSIGNED_CONTEXT ( ( #255, #250, #80 ) ) REPRESENTATION_CONTEXT ( 'NONE', 'WORKASPACE' ) );
#171 = UNCERTAINTY_MEASURE_WITH_UNIT (LENGTH_MEASURE( 1.000000000000000082E-05 ), #246, 'distance_accuracy_value', 'NONE');
#172 =( NAMED_UNIT ( * ) PLANE_ANGLE_UNIT ( ) SI_UNIT ( $, .RADIAN. ) );
#173 =( LENGTH_UNIT ( ) NAMED_UNIT ( * ) SI_UNIT ( .MILLI., .METRE. ) );
#174 =( LENGTH_UNIT ( ) NAMED_UNIT ( * ) SI_UNIT ( .MILLI., .METRE. ) );
#175 = DIRECTION ( 'NONE',  ( -1.236440607496819135E-16, 1.000000000000000000, -0.000000000000000000 ) ) ;
#176 = VERTEX_POINT ( 'NONE', #109 ) ;
#177 = DIRECTION ( 'NONE',  ( -0.000000000000000000, -1.000000000000000000, -0.000000000000000000 ) ) ;
#178 = SURFACE_STYLE_USAGE ( .BOTH. , #227 ) ;
#179 = PRODUCT_DEFINITION ( 'UNKNOWN', '', #157, #165 ) ;
#180 = CARTESIAN_POINT ( 'NONE',  ( 9.999999999999996447, 100.0000000000000000, 1.224646799147353059E-15 ) ) ;
#181 = CARTESIAN_POINT ( 'NONE',  ( 10.00000000000000178, 40.00000000000000000, 1.224646799147353651E-15 ) ) ;
#182 = SURFACE_SIDE_STYLE ('',( #276 ) ) ;
#183 = EDGE_CURVE ( 'NONE', #16, #92, #132, .T. ) ;
#184 = STYLED_ITEM ( 'NONE', ( #135 ), #194 ) ;
#185 = CIRCLE ( 'NONE', #353, 10.00000000000000000 ) ;
#186 =( LENGTH_UNIT ( ) NAMED_UNIT ( * ) SI_UNIT ( .MILLI., .METRE. ) );
#187 =( LENGTH_UNIT ( ) NAMED_UNIT ( * ) SI_UNIT ( .MILLI., .METRE. ) );
#188 = MECHANICAL_DESIGN_GEOMETRIC_PRESENTATION_REPRESENTATION (  '', ( #256 ), #265 ) ;
#189 = TOROIDAL_SURFACE ( 'NONE', #322, 9.500000000000000000, 0.5000000000000002220 ) ;
#190 = VERTEX_POINT ( 'NONE', #161 ) ;
#191 = DIRECTION ( 'NONE',  ( 0.000000000000000000, 0.000000000000000000, -1.000000000000000000 ) ) ;
#192 = DIRECTION ( 'NONE',  ( -0.000000000000000000, -1.000000000000000000, -0.000000000000000000 ) ) ;
#193 = SURFACE_SIDE_STYLE ('',( #77 ) ) ;
#194 = ADVANCED_FACE ( 'NONE', ( #283 ), #259, .T. ) ;
#195 = STYLED_ITEM ( 'NONE', ( #235 ), #59 ) ;
#196 = AXIS2_PLACEMENT_3D ( 'NONE', #91, #177, #115 ) ;
#197 = VECTOR ( 'NONE', #152, 1000.000000000000000 ) ;
#198 = UNCERTAINTY_MEASURE_WITH_UNIT (LENGTH_MEASURE( 1.000000000000000082E-05 ), #163, 'distance_accuracy_value', 'NONE');
#199 = MANIFOLD_SOLID_BREP ( 'Revolve - Tool Body (Straight Shanked)', #49 ) ;
#200 = MANIFOLD_SOLID_BREP ( 'Revolve - Cutting Edge', #112 ) ;
#201 = EDGE_LOOP ( 'NONE', ( #332, #203, #75, #130 ) ) ;
#202 = DIRECTION ( 'NONE',  ( 0.000000000000000000, 0.000000000000000000, -1.000000000000000000 ) ) ;
#203 = ORIENTED_EDGE ( 'NONE', *, *, #228, .T. ) ;
#204 = AXIS2_PLACEMENT_3D ( 'NONE', #5, #123, #46 ) ;
#205 =( NAMED_UNIT ( * ) SI_UNIT ( $, .STERADIAN. ) SOLID_ANGLE_UNIT ( ) );
#206 = VERTEX_POINT ( 'NONE', #57 ) ;
#207 = CARTESIAN_POINT ( 'NONE',  ( 6.071532165918824830E-15, 40.00000000000000000, 0.000000000000000000 ) ) ;
#208 = TOROIDAL_SURFACE ( 'NONE', #24, 9.500000000000000000, 0.5000000000000002220 ) ;
#209 = CIRCLE ( 'NONE', #137, 9.500000000000000000 ) ;
#210 =( NAMED_UNIT ( * ) SI_UNIT ( $, .STERADIAN. ) SOLID_ANGLE_UNIT ( ) );
#211 =( NAMED_UNIT ( * ) PLANE_ANGLE_UNIT ( ) SI_UNIT ( $, .RADIAN. ) );
#212 = ORIENTED_EDGE ( 'NONE', *, *, #127, .F. ) ;
#213 = CARTESIAN_POINT ( 'NONE',  ( 0.000000000000000000, 0.000000000000000000, 0.000000000000000000 ) ) ;
#214 = PRESENTATION_STYLE_ASSIGNMENT (( #359 ) ) ;
#215 = AXIS2_PLACEMENT_3D ( 'NONE', #339, #364, #223 ) ;
#216 = EDGE_LOOP ( 'NONE', ( #247, #340 ) ) ;
#217 = FILL_AREA_STYLE_COLOUR ( '', #348 ) ;
#218 = UNCERTAINTY_MEASURE_WITH_UNIT (LENGTH_MEASURE( 1.000000000000000082E-05 ), #173, 'distance_accuracy_value', 'NONE');
#219 = DIRECTION ( 'NONE',  ( 0.000000000000000000, -1.000000000000000000, -0.000000000000000000 ) ) ;
#220 = CARTESIAN_POINT ( 'NONE',  ( -1.347111479062089982E-15, 100.0000000000000000, 0.000000000000000000 ) ) ;
#221 = EDGE_CURVE ( 'NONE', #190, #282, #19, .T. ) ;
#222 = APPLICATION_PROTOCOL_DEFINITION ( 'draft international standard', 'automotive_design', 1998, #273 ) ;
#223 = DIRECTION ( 'NONE',  ( -1.000000000000000000, 0.000000000000000000, 0.000000000000000000 ) ) ;
#224 = DIRECTION ( 'NONE',  ( -1.000000000000000000, 0.000000000000000000, 0.000000000000000000 ) ) ;
#225 = COLOUR_RGB ( '',0.7921568627450980005, 0.8196078431372548767, 0.9333333333333333481 ) ;
#226 = FACE_OUTER_BOUND ( 'NONE', #320, .T. ) ;
#227 = SURFACE_SIDE_STYLE ('',( #97 ) ) ;
#228 = EDGE_CURVE ( 'NONE', #176, #82, #241, .T. ) ;
#229 = CARTESIAN_POINT ( 'NONE',  ( 0.000000000000000000, 40.00000000000000000, 0.000000000000000000 ) ) ;
#230 = DIRECTION ( 'NONE',  ( -1.000000000000000000, 0.000000000000000000, 0.000000000000000000 ) ) ;
#231 =( NAMED_UNIT ( * ) PLANE_ANGLE_UNIT ( ) SI_UNIT ( $, .RADIAN. ) );
#232 = STYLED_ITEM ( 'NONE', ( #146 ), #200 ) ;
#233 = PRESENTATION_STYLE_ASSIGNMENT (( #10 ) ) ;
#234 = EDGE_CURVE ( 'NONE', #176, #206, #352, .T. ) ;
#235 = PRESENTATION_STYLE_ASSIGNMENT (( #178 ) ) ;
#236 = DIRECTION ( 'NONE',  ( -0.000000000000000000, -1.000000000000000000, -0.000000000000000000 ) ) ;
#237 = CARTESIAN_POINT ( 'NONE',  ( 0.000000000000000000, 0.5000000000000000000, 0.000000000000000000 ) ) ;
#238 = DIRECTION ( 'NONE',  ( 1.236440607496819135E-16, -1.000000000000000000, 0.000000000000000000 ) ) ;
#239 =( GEOMETRIC_REPRESENTATION_CONTEXT ( 3 ) GLOBAL_UNCERTAINTY_ASSIGNED_CONTEXT ( ( #218 ) ) GLOBAL_UNIT_ASSIGNED_CONTEXT ( ( #173, #345, #36 ) ) REPRESENTATION_CONTEXT ( 'NONE', 'WORKASPACE' ) );
#240 = LINE ( 'NONE', #350, #197 ) ;
#241 = CIRCLE ( 'NONE', #6, 10.00000000000000000 ) ;
#242 = UNCERTAINTY_MEASURE_WITH_UNIT (LENGTH_MEASURE( 1.000000000000000082E-05 ), #266, 'distance_accuracy_value', 'NONE');
#243 = EDGE_LOOP ( 'NONE', ( #160, #248 ) ) ;
#244 = EDGE_CURVE ( 'NONE', #108, #314, #321, .T. ) ;
#245 = DIRECTION ( 'NONE',  ( 0.000000000000000000, 0.000000000000000000, -1.000000000000000000 ) ) ;
#246 =( LENGTH_UNIT ( ) NAMED_UNIT ( * ) SI_UNIT ( .MILLI., .METRE. ) );
#247 = ORIENTED_EDGE ( 'NONE', *, *, #74, .F. ) ;
#248 = ORIENTED_EDGE ( 'NONE', *, *, #183, .T. ) ;
#249 = COLOUR_RGB ( '',1.000000000000000000, 0.000000000000000000, 0.000000000000000000 ) ;
#250 =( NAMED_UNIT ( * ) PLANE_ANGLE_UNIT ( ) SI_UNIT ( $, .RADIAN. ) );
#251 = CIRCLE ( 'NONE', #84, 0.5000000000000004441 ) ;
#252 = EDGE_CURVE ( 'NONE', #82, #278, #251, .T. ) ;
#253 = ORIENTED_EDGE ( 'NONE', *, *, #330, .F. ) ;
#254 = SURFACE_STYLE_FILL_AREA ( #104 ) ;
#255 =( LENGTH_UNIT ( ) NAMED_UNIT ( * ) SI_UNIT ( .MILLI., .METRE. ) );
#256 = STYLED_ITEM ( 'NONE', ( #369 ), #199 ) ;
#257 = STYLED_ITEM ( 'NONE', ( #233 ), #325 ) ;
#258 = MECHANICAL_DESIGN_GEOMETRIC_PRESENTATION_REPRESENTATION (  '', ( #257 ), #113 ) ;
#259 = PLANE ( 'NONE',  #150 ) ;
#260 = SURFACE_STYLE_USAGE ( .BOTH. , #35 ) ;
#261 = CARTESIAN_POINT ( 'NONE',  ( 0.000000000000000000, 40.00000000000000000, 0.000000000000000000 ) ) ;
#262 = DIRECTION ( 'NONE',  ( 0.000000000000000000, 0.000000000000000000, 1.000000000000000000 ) ) ;
#263 = EDGE_LOOP ( 'NONE', ( #298, #143, #212, #271 ) ) ;
#264 = PRESENTATION_LAYER_ASSIGNMENT (  '', '', ( #195 ) ) ;
#265 =( GEOMETRIC_REPRESENTATION_CONTEXT ( 3 ) GLOBAL_UNCERTAINTY_ASSIGNED_CONTEXT ( ( #242 ) ) GLOBAL_UNIT_ASSIGNED_CONTEXT ( ( #266, #172, #205 ) ) REPRESENTATION_CONTEXT ( 'NONE', 'WORKASPACE' ) );
#266 =( LENGTH_UNIT ( ) NAMED_UNIT ( * ) SI_UNIT ( .MILLI., .METRE. ) );
#267 = EDGE_LOOP ( 'NONE', ( #306, #285, #47, #370 ) ) ;
#268 = PLANE ( 'NONE',  #169 ) ;
#269 = EDGE_CURVE ( 'NONE', #282, #190, #56, .T. ) ;
#270 = DIRECTION ( 'NONE',  ( 0.000000000000000000, 0.000000000000000000, -1.000000000000000000 ) ) ;
#271 = ORIENTED_EDGE ( 'NONE', *, *, #252, .F. ) ;
#272 = AXIS2_PLACEMENT_3D ( 'NONE', #229, #344, #202 ) ;
#273 = APPLICATION_CONTEXT ( 'automotive_design' ) ;
#274 = DIRECTION ( 'NONE',  ( -0.000000000000000000, -1.000000000000000000, -0.000000000000000000 ) ) ;
#275 = UNCERTAINTY_MEASURE_WITH_UNIT (LENGTH_MEASURE( 1.000000000000000082E-05 ), #351, 'distance_accuracy_value', 'NONE');
#276 = SURFACE_STYLE_FILL_AREA ( #354 ) ;
#277 = DIRECTION ( 'NONE',  ( -1.236440607496819135E-16, 1.000000000000000000, 0.000000000000000000 ) ) ;
#278 = VERTEX_POINT ( 'NONE', #85 ) ;
#279 = MECHANICAL_DESIGN_GEOMETRIC_PRESENTATION_REPRESENTATION (  '', ( #184 ), #170 ) ;
#280 = SURFACE_STYLE_USAGE ( .BOTH. , #329 ) ;
#281 = EDGE_LOOP ( 'NONE', ( #323, #159 ) ) ;
#282 = VERTEX_POINT ( 'NONE', #342 ) ;
#283 = FACE_OUTER_BOUND ( 'NONE', #281, .T. ) ;
#284 = AXIS2_PLACEMENT_3D ( 'NONE', #58, #175, #292 ) ;
#285 = ORIENTED_EDGE ( 'NONE', *, *, #269, .T. ) ;
#286 = CARTESIAN_POINT ( 'NONE',  ( 0.000000000000000000, 0.000000000000000000, 0.000000000000000000 ) ) ;
#287 = MECHANICAL_DESIGN_GEOMETRIC_PRESENTATION_REPRESENTATION (  '', ( #83 ), #366 ) ;
#288 = DIRECTION ( 'NONE',  ( -0.000000000000000000, -1.000000000000000000, -0.000000000000000000 ) ) ;
#289 = DIRECTION ( 'NONE',  ( 0.000000000000000000, -0.000000000000000000, 1.000000000000000000 ) ) ;
#290 = EDGE_CURVE ( 'NONE', #108, #16, #142, .T. ) ;
#291 = CARTESIAN_POINT ( 'NONE',  ( -10.00000000000000533, 100.0000000000000000, 0.000000000000000000 ) ) ;
#292 = DIRECTION ( 'NONE',  ( -1.000000000000000000, 0.000000000000000000, 0.000000000000000000 ) ) ;
#293 = DIRECTION ( 'NONE',  ( -0.000000000000000000, -1.000000000000000000, -0.000000000000000000 ) ) ;
#294 = AXIS2_PLACEMENT_3D ( 'NONE', #207, #277, #41 ) ;
#295 = CARTESIAN_POINT ( 'NONE',  ( 1.163414459189985485E-15, 0.5000000000000000000, 9.500000000000000000 ) ) ;
#296 = ORIENTED_EDGE ( 'NONE', *, *, #290, .F. ) ;
#297 = PRODUCT_DEFINITION_SHAPE ( 'NONE', 'NONE',  #179 ) ;
#298 = ORIENTED_EDGE ( 'NONE', *, *, #330, .T. ) ;
#299 = COLOUR_RGB ( '',1.000000000000000000, 0.000000000000000000, 0.000000000000000000 ) ;
#300 = DIRECTION ( 'NONE',  ( -0.000000000000000000, -1.000000000000000000, -0.000000000000000000 ) ) ;
#301 =( NAMED_UNIT ( * ) PLANE_ANGLE_UNIT ( ) SI_UNIT ( $, .RADIAN. ) );
#302 = ADVANCED_FACE ( 'NONE', ( #226 ), #318, .T. ) ;
#303 =( NAMED_UNIT ( * ) SI_UNIT ( $, .STERADIAN. ) SOLID_ANGLE_UNIT ( ) );
#304 = COLOUR_RGB ( '',1.000000000000000000, 0.000000000000000000, 0.000000000000000000 ) ;
#305 = SURFACE_STYLE_FILL_AREA ( #96 ) ;
#306 = ORIENTED_EDGE ( 'NONE', *, *, #105, .F. ) ;
#307 = FILL_AREA_STYLE_COLOUR ( '', #304 ) ;
#308 = ORIENTED_EDGE ( 'NONE', *, *, #74, .T. ) ;
#309 = DIRECTION ( 'NONE',  ( 0.000000000000000000, 0.000000000000000000, -1.000000000000000000 ) ) ;
#310 = COLOUR_RGB ( '',1.000000000000000000, 0.000000000000000000, 0.000000000000000000 ) ;
#311 = DIRECTION ( 'NONE',  ( -1.236440607496819135E-16, 1.000000000000000000, -0.000000000000000000 ) ) ;
#312 = CARTESIAN_POINT ( 'NONE',  ( 0.000000000000000000, 0.5000000000000000000, 0.000000000000000000 ) ) ;
#313 = MECHANICAL_DESIGN_GEOMETRIC_PRESENTATION_REPRESENTATION (  '', ( #195 ), #239 ) ;
#314 = VERTEX_POINT ( 'NONE', #30 ) ;
#315 = VECTOR ( 'NONE', #111, 1000.000000000000000 ) ;
#316 = ADVANCED_FACE ( 'NONE', ( #319 ), #61, .T. ) ;
#317 = EDGE_LOOP ( 'NONE', ( #308, #62, #358, #148 ) ) ;
#318 = CYLINDRICAL_SURFACE ( 'NONE', #284, 9.999999999999998224 ) ;
#319 = FACE_OUTER_BOUND ( 'NONE', #70, .T. ) ;
#320 = EDGE_LOOP ( 'NONE', ( #296, #72, #147, #328 ) ) ;
#321 = CIRCLE ( 'NONE', #215, 9.999999999999994671 ) ;
#322 = AXIS2_PLACEMENT_3D ( 'NONE', #7, #274, #270 ) ;
#323 = ORIENTED_EDGE ( 'NONE', *, *, #127, .T. ) ;
#324 = MECHANICAL_DESIGN_GEOMETRIC_PRESENTATION_REPRESENTATION (  '', ( #68 ), #12 ) ;
#325 = ADVANCED_FACE ( 'NONE', ( #45 ), #189, .T. ) ;
#326 =( NAMED_UNIT ( * ) PLANE_ANGLE_UNIT ( ) SI_UNIT ( $, .RADIAN. ) );
#327 = FACE_OUTER_BOUND ( 'NONE', #263, .T. ) ;
#328 = ORIENTED_EDGE ( 'NONE', *, *, #183, .F. ) ;
#329 = SURFACE_SIDE_STYLE ('',( #126 ) ) ;
#330 = EDGE_CURVE ( 'NONE', #82, #176, #185, .T. ) ;
#331 = APPLICATION_CONTEXT ( 'automotive_design' ) ;
#332 = ORIENTED_EDGE ( 'NONE', *, *, #234, .F. ) ;
#333 = AXIS2_PLACEMENT_3D ( 'NONE', #220, #311, #136 ) ;
#334 = FILL_AREA_STYLE_COLOUR ( '', #225 ) ;
#335 = CARTESIAN_POINT ( 'NONE',  ( 0.000000000000000000, 0.000000000000000000, 0.000000000000000000 ) ) ;
#336 = AXIS2_PLACEMENT_3D ( 'NONE', #110, #55, #191 ) ;
#337 = SURFACE_SIDE_STYLE ('',( #20 ) ) ;
#338 = ORIENTED_EDGE ( 'NONE', *, *, #158, .F. ) ;
#339 = CARTESIAN_POINT ( 'NONE',  ( 6.071532165918824830E-15, 40.00000000000000000, 0.000000000000000000 ) ) ;
#340 = ORIENTED_EDGE ( 'NONE', *, *, #244, .F. ) ;
#341 = VECTOR ( 'NONE', #117, 1000.000000000000000 ) ;
#342 = CARTESIAN_POINT ( 'NONE',  ( 1.224646799147353256E-15, 40.00000000000000000, 10.00000000000000000 ) ) ;
#343 = DIRECTION ( 'NONE',  ( 0.000000000000000000, 1.000000000000000000, 0.000000000000000000 ) ) ;
#344 = DIRECTION ( 'NONE',  ( -0.000000000000000000, -1.000000000000000000, -0.000000000000000000 ) ) ;
#345 =( NAMED_UNIT ( * ) PLANE_ANGLE_UNIT ( ) SI_UNIT ( $, .RADIAN. ) );
#346 =( NAMED_UNIT ( * ) SI_UNIT ( $, .STERADIAN. ) SOLID_ANGLE_UNIT ( ) );
#347 = DIRECTION ( 'NONE',  ( -1.236440607496819135E-16, 1.000000000000000000, -0.000000000000000000 ) ) ;
#348 = COLOUR_RGB ( '',1.000000000000000000, 0.000000000000000000, 0.000000000000000000 ) ;
#349 = FACE_OUTER_BOUND ( 'NONE', #18, .T. ) ;
#350 = CARTESIAN_POINT ( 'NONE',  ( -10.00000000000000000, 100.0000000000000000, 0.000000000000000000 ) ) ;
#351 =( LENGTH_UNIT ( ) NAMED_UNIT ( * ) SI_UNIT ( .MILLI., .METRE. ) );
#352 = CIRCLE ( 'NONE', #38, 0.5000000000000004441 ) ;
#353 = AXIS2_PLACEMENT_3D ( 'NONE', #124, #236, #245 ) ;
#354 = FILL_AREA_STYLE ('',( #42 ) ) ;
#355 = EDGE_CURVE ( 'NONE', #314, #92, #240, .T. ) ;
#356 = FILL_AREA_STYLE_COLOUR ( '', #249 ) ;
#357 =( GEOMETRIC_REPRESENTATION_CONTEXT ( 3 ) GLOBAL_UNCERTAINTY_ASSIGNED_CONTEXT ( ( #54 ) ) GLOBAL_UNIT_ASSIGNED_CONTEXT ( ( #186, #211, #303 ) ) REPRESENTATION_CONTEXT ( 'NONE', 'WORKASPACE' ) );
#358 = ORIENTED_EDGE ( 'NONE', *, *, #22, .F. ) ;
#359 = SURFACE_STYLE_USAGE ( .BOTH. , #51 ) ;
#360 = ADVANCED_FACE ( 'NONE', ( #8 ), #155, .F. ) ;
#361 =( NAMED_UNIT ( * ) PLANE_ANGLE_UNIT ( ) SI_UNIT ( $, .RADIAN. ) );
#362 = COLOUR_RGB ( '',1.000000000000000000, 0.000000000000000000, 0.000000000000000000 ) ;
#363 = DIRECTION ( 'NONE',  ( 0.000000000000000000, 0.000000000000000000, 1.000000000000000000 ) ) ;
#364 = DIRECTION ( 'NONE',  ( -1.236440607496819135E-16, 1.000000000000000000, -0.000000000000000000 ) ) ;
#365 = SHAPE_DEFINITION_REPRESENTATION ( #297, #52 ) ;
#366 =( GEOMETRIC_REPRESENTATION_CONTEXT ( 3 ) GLOBAL_UNCERTAINTY_ASSIGNED_CONTEXT ( ( #171 ) ) GLOBAL_UNIT_ASSIGNED_CONTEXT ( ( #246, #151, #210 ) ) REPRESENTATION_CONTEXT ( 'NONE', 'WORKASPACE' ) );
#367 = CARTESIAN_POINT ( 'NONE',  ( -1.347111479062089982E-15, 100.0000000000000000, 0.000000000000000000 ) ) ;
#368 = MECHANICAL_DESIGN_GEOMETRIC_PRESENTATION_REPRESENTATION (  '', ( #50 ), #107 ) ;
#369 = PRESENTATION_STYLE_ASSIGNMENT (( #53 ) ) ;
#370 = ORIENTED_EDGE ( 'NONE', *, *, #228, .F. ) ;
ENDSEC;
END-ISO-10303-21;
