ISO-10303-21;
HEADER;
FILE_DESCRIPTION (( 'STEP AP214' ),
    '1' );
FILE_NAME ('00362.STEP',
    '2023-06-22T14:06:53',
    ( '' ),
    ( '' ),
    'SwSTEP 2.0',
    'SolidWorks 2023',
    '' );
FILE_SCHEMA (( 'AUTOMOTIVE_DESIGN' ));
ENDSEC;

DATA;
#1 = AXIS2_PLACEMENT_3D ( 'NONE', #8, #93, #133 ) ;
#2 = VERTEX_POINT ( 'NONE', #96 ) ;
#3 = SURFACE_STYLE_FILL_AREA ( #150 ) ;
#4 = PLANE ( 'NONE',  #63 ) ;
#5 = CARTESIAN_POINT ( 'NONE',  ( 0.000000000000000000, 1.250000000000000000, 0.000000000000000000 ) ) ;
#6 = EDGE_CURVE ( 'NONE', #65, #2, #237, .T. ) ;
#7 = EDGE_CURVE ( 'NONE', #142, #117, #89, .T. ) ;
#8 = CARTESIAN_POINT ( 'NONE',  ( 0.000000000000000000, 0.000000000000000000, 0.000000000000000000 ) ) ;
#9 = AXIS2_PLACEMENT_3D ( 'NONE', #107, #103, #131 ) ;
#10 = SURFACE_STYLE_USAGE ( .BOTH. , #154 ) ;
#11 =( NAMED_UNIT ( * ) PLANE_ANGLE_UNIT ( ) SI_UNIT ( $, .RADIAN. ) );
#12 = FILL_AREA_STYLE ('',( #87 ) ) ;
#13 = PRESENTATION_STYLE_ASSIGNMENT (( #305 ) ) ;
#14 = DIRECTION ( 'NONE',  ( -1.000000000000000000, 0.000000000000000000, 0.000000000000000000 ) ) ;
#15 =( NAMED_UNIT ( * ) SI_UNIT ( $, .STERADIAN. ) SOLID_ANGLE_UNIT ( ) );
#16 = AXIS2_PLACEMENT_3D ( 'NONE', #84, #88, #204 ) ;
#17 = MECHANICAL_DESIGN_GEOMETRIC_PRESENTATION_REPRESENTATION (  '', ( #276 ), #288 ) ;
#18 =( NAMED_UNIT ( * ) PLANE_ANGLE_UNIT ( ) SI_UNIT ( $, .RADIAN. ) );
#19 = VERTEX_POINT ( 'NONE', #179 ) ;
#20 =( CONVERSION_BASED_UNIT ( 'INCH', #258 ) LENGTH_UNIT ( ) NAMED_UNIT ( #157 ) );
#21 = LENGTH_MEASURE_WITH_UNIT ( LENGTH_MEASURE( 0.02539999999999999897 ), #301 );
#22 = ORIENTED_EDGE ( 'NONE', *, *, #230, .T. ) ;
#23 = DIRECTION ( 'NONE',  ( -0.000000000000000000, -1.000000000000000000, -0.000000000000000000 ) ) ;
#24 =( GEOMETRIC_REPRESENTATION_CONTEXT ( 3 ) GLOBAL_UNCERTAINTY_ASSIGNED_CONTEXT ( ( #91 ) ) GLOBAL_UNIT_ASSIGNED_CONTEXT ( ( #283, #239, #26 ) ) REPRESENTATION_CONTEXT ( 'NONE', 'WORKASPACE' ) );
#25 = ORIENTED_EDGE ( 'NONE', *, *, #7, .F. ) ;
#26 =( NAMED_UNIT ( * ) SI_UNIT ( $, .STERADIAN. ) SOLID_ANGLE_UNIT ( ) );
#27 = DIRECTION ( 'NONE',  ( -0.000000000000000000, -1.000000000000000000, -0.000000000000000000 ) ) ;
#28 = DIRECTION ( 'NONE',  ( -0.000000000000000000, -1.000000000000000000, -0.000000000000000000 ) ) ;
#29 = CARTESIAN_POINT ( 'NONE',  ( 0.000000000000000000, 0.000000000000000000, 0.000000000000000000 ) ) ;
#30 = DIRECTION ( 'NONE',  ( 0.000000000000000000, 0.000000000000000000, -1.000000000000000000 ) ) ;
#31 = CIRCLE ( 'NONE', #201, 0.1875000000000000278 ) ;
#32 =( LENGTH_UNIT ( ) NAMED_UNIT ( * ) SI_UNIT ( $, .METRE. ) );
#33 = DIRECTION ( 'NONE',  ( -2.721437331438560389E-17, 1.000000000000000000, -0.000000000000000000 ) ) ;
#34 = LINE ( 'NONE', #127, #291 ) ;
#35 = UNCERTAINTY_MEASURE_WITH_UNIT (LENGTH_MEASURE( 1.000000000000000082E-05 ), #20, 'distance_accuracy_value', 'NONE');
#36 = DIRECTION ( 'NONE',  ( 0.000000000000000000, 0.000000000000000000, -1.000000000000000000 ) ) ;
#37 = CARTESIAN_POINT ( 'NONE',  ( 0.000000000000000000, 0.000000000000000000, 0.000000000000000000 ) ) ;
#38 = EDGE_CURVE ( 'NONE', #112, #65, #254, .T. ) ;
#39 = PRODUCT_DEFINITION_FORMATION_WITH_SPECIFIED_SOURCE ( 'ANY', '', #167, .NOT_KNOWN. ) ;
#40 = FACE_OUTER_BOUND ( 'NONE', #267, .T. ) ;
#41 =( LENGTH_UNIT ( ) NAMED_UNIT ( * ) SI_UNIT ( $, .METRE. ) );
#42 = CYLINDRICAL_SURFACE ( 'NONE', #300, 0.1875000000000000278 ) ;
#43 = SURFACE_STYLE_FILL_AREA ( #12 ) ;
#44 = DIRECTION ( 'NONE',  ( -0.000000000000000000, -1.000000000000000000, -0.000000000000000000 ) ) ;
#45 = ORIENTED_EDGE ( 'NONE', *, *, #296, .F. ) ;
#46 = CARTESIAN_POINT ( 'NONE',  ( 0.000000000000000000, 0.000000000000000000, -0.1875000000000000278 ) ) ;
#47 = CARTESIAN_POINT ( 'NONE',  ( -0.1875000000000000278, 1.250000000000000000, 0.000000000000000000 ) ) ;
#48 = ORIENTED_EDGE ( 'NONE', *, *, #123, .T. ) ;
#49 = LENGTH_MEASURE_WITH_UNIT ( LENGTH_MEASURE( 0.02539999999999999897 ), #194 );
#50 = DIRECTION ( 'NONE',  ( 1.000000000000000000, 2.721437331438560697E-17, 0.000000000000000000 ) ) ;
#51 = AXIS2_PLACEMENT_3D ( 'NONE', #146, #240, #30 ) ;
#52 = ADVANCED_BREP_SHAPE_REPRESENTATION ( '00362', ( #180, #85, #278 ), #24 ) ;
#53 = SURFACE_STYLE_FILL_AREA ( #193 ) ;
#54 = DIRECTION ( 'NONE',  ( 0.000000000000000000, 0.000000000000000000, -1.000000000000000000 ) ) ;
#55 = CIRCLE ( 'NONE', #51, 0.1875000000000000278 ) ;
#56 =( NAMED_UNIT ( * ) PLANE_ANGLE_UNIT ( ) SI_UNIT ( $, .RADIAN. ) );
#57 = UNCERTAINTY_MEASURE_WITH_UNIT (LENGTH_MEASURE( 1.000000000000000082E-05 ), #77, 'distance_accuracy_value', 'NONE');
#58 = DIRECTION ( 'NONE',  ( -1.000000000000000000, 0.000000000000000000, 0.000000000000000000 ) ) ;
#59 = SURFACE_STYLE_FILL_AREA ( #297 ) ;
#60 = UNCERTAINTY_MEASURE_WITH_UNIT (LENGTH_MEASURE( 1.000000000000000082E-05 ), #210, 'distance_accuracy_value', 'NONE');
#61 = DIRECTION ( 'NONE',  ( 1.000000000000000000, 0.000000000000000000, 0.000000000000000000 ) ) ;
#62 = SHAPE_DEFINITION_REPRESENTATION ( #265, #52 ) ;
#63 = AXIS2_PLACEMENT_3D ( 'NONE', #145, #275, #197 ) ;
#64 = PRESENTATION_STYLE_ASSIGNMENT (( #10 ) ) ;
#65 = VERTEX_POINT ( 'NONE', #47 ) ;
#66 = SURFACE_STYLE_FILL_AREA ( #309 ) ;
#67 = ADVANCED_FACE ( 'NONE', ( #282 ), #181, .T. ) ;
#68 = CARTESIAN_POINT ( 'NONE',  ( -6.123233995736759873E-17, 3.500000000000000000, 0.000000000000000000 ) ) ;
#69 = LINE ( 'NONE', #46, #124 ) ;
#70 = VERTEX_POINT ( 'NONE', #264 ) ;
#71 = AXIS2_PLACEMENT_3D ( 'NONE', #165, #270, #50 ) ;
#72 = DIRECTION ( 'NONE',  ( 0.000000000000000000, 0.000000000000000000, -1.000000000000000000 ) ) ;
#73 = PLANE ( 'NONE',  #71 ) ;
#74 = ORIENTED_EDGE ( 'NONE', *, *, #152, .F. ) ;
#75 = CARTESIAN_POINT ( 'NONE',  ( 0.1875000000000000278, 1.250000000000000000, 2.296212748401288342E-17 ) ) ;
#76 = AXIS2_PLACEMENT_3D ( 'NONE', #5, #105, #192 ) ;
#77 =( CONVERSION_BASED_UNIT ( 'INCH', #49 ) LENGTH_UNIT ( ) NAMED_UNIT ( #284 ) );
#78 = PLANE ( 'NONE',  #222 ) ;
#79 = VECTOR ( 'NONE', #209, 39.37007874015748143 ) ;
#80 = PRESENTATION_STYLE_ASSIGNMENT (( #147 ) ) ;
#81 = UNCERTAINTY_MEASURE_WITH_UNIT (LENGTH_MEASURE( 1.000000000000000082E-05 ), #177, 'distance_accuracy_value', 'NONE');
#82 = SURFACE_STYLE_FILL_AREA ( #129 ) ;
#83 = PRESENTATION_LAYER_ASSIGNMENT (  '', '', ( #215 ) ) ;
#84 = CARTESIAN_POINT ( 'NONE',  ( -6.123233995736759873E-17, 3.500000000000000000, 0.000000000000000000 ) ) ;
#85 = MANIFOLD_SOLID_BREP ( 'Revolve - Tool Body (Straight Shanked)', #213 ) ;
#86 =( LENGTH_UNIT ( ) NAMED_UNIT ( * ) SI_UNIT ( $, .METRE. ) );
#87 = FILL_AREA_STYLE_COLOUR ( '', #232 ) ;
#88 = DIRECTION ( 'NONE',  ( -2.721437331438560389E-17, 1.000000000000000000, -0.000000000000000000 ) ) ;
#89 = LINE ( 'NONE', #260, #90 ) ;
#90 = VECTOR ( 'NONE', #44, 39.37007874015748143 ) ;
#91 = UNCERTAINTY_MEASURE_WITH_UNIT (LENGTH_MEASURE( 1.000000000000000082E-05 ), #283, 'distance_accuracy_value', 'NONE');
#92 = AXIS2_PLACEMENT_3D ( 'NONE', #199, #279, #58 ) ;
#93 = DIRECTION ( 'NONE',  ( -0.000000000000000000, -1.000000000000000000, -0.000000000000000000 ) ) ;
#94 = EDGE_LOOP ( 'NONE', ( #98, #116, #115, #280 ) ) ;
#95 = CARTESIAN_POINT ( 'NONE',  ( 0.000000000000000000, 1.250000000000000000, 0.000000000000000000 ) ) ;
#96 = CARTESIAN_POINT ( 'NONE',  ( -0.1875000000000001388, 3.500000000000000000, 0.000000000000000000 ) ) ;
#97 = CARTESIAN_POINT ( 'NONE',  ( 0.000000000000000000, 1.250000000000000000, 0.000000000000000000 ) ) ;
#98 = ORIENTED_EDGE ( 'NONE', *, *, #110, .F. ) ;
#99 =( NAMED_UNIT ( * ) SI_UNIT ( $, .STERADIAN. ) SOLID_ANGLE_UNIT ( ) );
#100 =( NAMED_UNIT ( * ) SI_UNIT ( $, .STERADIAN. ) SOLID_ANGLE_UNIT ( ) );
#101 = AXIS2_PLACEMENT_3D ( 'NONE', #29, #27, #54 ) ;
#102 = MECHANICAL_DESIGN_GEOMETRIC_PRESENTATION_REPRESENTATION (  '', ( #215 ), #174 ) ;
#103 = DIRECTION ( 'NONE',  ( -2.721437331438560697E-17, 1.000000000000000000, 0.000000000000000000 ) ) ;
#104 = DIRECTION ( 'NONE',  ( 0.000000000000000000, 0.000000000000000000, -1.000000000000000000 ) ) ;
#105 = DIRECTION ( 'NONE',  ( -2.721437331438560389E-17, 1.000000000000000000, -0.000000000000000000 ) ) ;
#106 = SURFACE_STYLE_USAGE ( .BOTH. , #247 ) ;
#107 = CARTESIAN_POINT ( 'NONE',  ( 6.943332327138218856E-35, 1.250000000000000000, 0.000000000000000000 ) ) ;
#108 =( NAMED_UNIT ( * ) PLANE_ANGLE_UNIT ( ) SI_UNIT ( $, .RADIAN. ) );
#109 = ADVANCED_FACE ( 'NONE', ( #302 ), #252, .T. ) ;
#110 = EDGE_CURVE ( 'NONE', #112, #19, #34, .T. ) ;
#111 = FILL_AREA_STYLE_COLOUR ( '', #114 ) ;
#112 = VERTEX_POINT ( 'NONE', #75 ) ;
#113 =( GEOMETRIC_REPRESENTATION_CONTEXT ( 3 ) GLOBAL_UNCERTAINTY_ASSIGNED_CONTEXT ( ( #244 ) ) GLOBAL_UNIT_ASSIGNED_CONTEXT ( ( #228, #108, #175 ) ) REPRESENTATION_CONTEXT ( 'NONE', 'WORKASPACE' ) );
#114 = COLOUR_RGB ( '',1.000000000000000000, 0.000000000000000000, 0.000000000000000000 ) ;
#115 = ORIENTED_EDGE ( 'NONE', *, *, #6, .T. ) ;
#116 = ORIENTED_EDGE ( 'NONE', *, *, #38, .T. ) ;
#117 = VERTEX_POINT ( 'NONE', #168 ) ;
#118 = FILL_AREA_STYLE_COLOUR ( '', #170 ) ;
#119 = AXIS2_PLACEMENT_3D ( 'NONE', #68, #285, #163 ) ;
#120 = AXIS2_PLACEMENT_3D ( 'NONE', #246, #28, #36 ) ;
#121 = CARTESIAN_POINT ( 'NONE',  ( -0.1875000000000001110, 3.500000000000000000, 0.000000000000000000 ) ) ;
#122 = CARTESIAN_POINT ( 'NONE',  ( 2.296212748401287726E-17, 1.250000000000000000, 0.1875000000000000278 ) ) ;
#123 = EDGE_CURVE ( 'NONE', #141, #117, #187, .T. ) ;
#124 = VECTOR ( 'NONE', #169, 39.37007874015748143 ) ;
#125 =( NAMED_UNIT ( * ) PLANE_ANGLE_UNIT ( ) SI_UNIT ( $, .RADIAN. ) );
#126 = DIRECTION ( 'NONE',  ( -1.000000000000000000, 0.000000000000000000, 0.000000000000000000 ) ) ;
#127 = CARTESIAN_POINT ( 'NONE',  ( 0.1874999999999999722, 3.500000000000000000, 2.296212748401288034E-17 ) ) ;
#128 = LENGTH_MEASURE_WITH_UNIT ( LENGTH_MEASURE( 0.02539999999999999897 ), #32 );
#129 = FILL_AREA_STYLE ('',( #171 ) ) ;
#130 = STYLED_ITEM ( 'NONE', ( #13 ), #85 ) ;
#131 = DIRECTION ( 'NONE',  ( -1.000000000000000000, -2.721437331438560697E-17, 0.000000000000000000 ) ) ;
#132 = STYLED_ITEM ( 'NONE', ( #196 ), #173 ) ;
#133 = DIRECTION ( 'NONE',  ( 0.000000000000000000, 0.000000000000000000, -1.000000000000000000 ) ) ;
#134 = SURFACE_STYLE_USAGE ( .BOTH. , #253 ) ;
#135 = FACE_OUTER_BOUND ( 'NONE', #231, .T. ) ;
#136 = PRODUCT_CONTEXT ( 'NONE', #184, 'mechanical' ) ;
#137 = DIRECTION ( 'NONE',  ( -2.721437331438560389E-17, 1.000000000000000000, -0.000000000000000000 ) ) ;
#138 = CIRCLE ( 'NONE', #221, 0.1875000000000000833 ) ;
#139 = ORIENTED_EDGE ( 'NONE', *, *, #6, .F. ) ;
#140 = FACE_OUTER_BOUND ( 'NONE', #164, .T. ) ;
#141 = VERTEX_POINT ( 'NONE', #148 ) ;
#142 = VERTEX_POINT ( 'NONE', #122 ) ;
#143 = ORIENTED_EDGE ( 'NONE', *, *, #159, .F. ) ;
#144 = MECHANICAL_DESIGN_GEOMETRIC_PRESENTATION_REPRESENTATION (  '', ( #172 ), #295 ) ;
#145 = CARTESIAN_POINT ( 'NONE',  ( 0.000000000000000000, 1.250000000000000000, 0.000000000000000000 ) ) ;
#146 = CARTESIAN_POINT ( 'NONE',  ( 0.000000000000000000, 0.000000000000000000, 0.000000000000000000 ) ) ;
#147 = SURFACE_STYLE_USAGE ( .BOTH. , #293 ) ;
#148 = CARTESIAN_POINT ( 'NONE',  ( 0.000000000000000000, 0.000000000000000000, -0.1875000000000000278 ) ) ;
#149 = PRESENTATION_LAYER_ASSIGNMENT (  '', '', ( #241 ) ) ;
#150 = FILL_AREA_STYLE ('',( #118 ) ) ;
#151 = COLOUR_RGB ( '',1.000000000000000000, 0.000000000000000000, 0.000000000000000000 ) ;
#152 = EDGE_CURVE ( 'NONE', #2, #19, #138, .T. ) ;
#153 = CARTESIAN_POINT ( 'NONE',  ( 0.000000000000000000, 0.000000000000000000, 0.000000000000000000 ) ) ;
#154 = SURFACE_SIDE_STYLE ('',( #43 ) ) ;
#155 =( NAMED_UNIT ( * ) SI_UNIT ( $, .STERADIAN. ) SOLID_ANGLE_UNIT ( ) );
#156 =( LENGTH_UNIT ( ) NAMED_UNIT ( * ) SI_UNIT ( $, .METRE. ) );
#157 = DIMENSIONAL_EXPONENTS ( 1.000000000000000000, 0.000000000000000000, 0.000000000000000000, 0.000000000000000000, 0.000000000000000000, 0.000000000000000000, 0.000000000000000000 ) ;
#158 =( NAMED_UNIT ( * ) PLANE_ANGLE_UNIT ( ) SI_UNIT ( $, .RADIAN. ) );
#159 = EDGE_CURVE ( 'NONE', #65, #112, #299, .T. ) ;
#160 = ORIENTED_EDGE ( 'NONE', *, *, #218, .T. ) ;
#161 = DIRECTION ( 'NONE',  ( 0.000000000000000000, 0.000000000000000000, -1.000000000000000000 ) ) ;
#162 = EDGE_LOOP ( 'NONE', ( #48, #306 ) ) ;
#163 = DIRECTION ( 'NONE',  ( -1.000000000000000000, 0.000000000000000000, 0.000000000000000000 ) ) ;
#164 = EDGE_LOOP ( 'NONE', ( #290, #22 ) ) ;
#165 = CARTESIAN_POINT ( 'NONE',  ( 0.1875000000000000278, 3.500000000000000000, 0.000000000000000000 ) ) ;
#166 = EDGE_LOOP ( 'NONE', ( #45, #234 ) ) ;
#167 = PRODUCT ( '00362', '00362', '', ( #136 ) ) ;
#168 = CARTESIAN_POINT ( 'NONE',  ( 2.296212748401287726E-17, 0.000000000000000000, 0.1875000000000000278 ) ) ;
#169 = DIRECTION ( 'NONE',  ( -0.000000000000000000, -1.000000000000000000, -0.000000000000000000 ) ) ;
#170 = COLOUR_RGB ( '',0.7921568627450980005, 0.8196078431372548767, 0.9333333333333333481 ) ;
#171 = FILL_AREA_STYLE_COLOUR ( '', #151 ) ;
#172 = STYLED_ITEM ( 'NONE', ( #64 ), #243 ) ;
#173 = ADVANCED_FACE ( 'NONE', ( #292 ), #78, .T. ) ;
#174 =( GEOMETRIC_REPRESENTATION_CONTEXT ( 3 ) GLOBAL_UNCERTAINTY_ASSIGNED_CONTEXT ( ( #60 ) ) GLOBAL_UNIT_ASSIGNED_CONTEXT ( ( #210, #18, #100 ) ) REPRESENTATION_CONTEXT ( 'NONE', 'WORKASPACE' ) );
#175 =( NAMED_UNIT ( * ) SI_UNIT ( $, .STERADIAN. ) SOLID_ANGLE_UNIT ( ) );
#176 = PRODUCT_DEFINITION_CONTEXT ( 'detailed design', #286, 'design' ) ;
#177 =( CONVERSION_BASED_UNIT ( 'INCH', #250 ) LENGTH_UNIT ( ) NAMED_UNIT ( #259 ) );
#178 = ORIENTED_EDGE ( 'NONE', *, *, #7, .T. ) ;
#179 = CARTESIAN_POINT ( 'NONE',  ( 0.1875000000000000278, 3.500000000000000000, 2.296212748401288342E-17 ) ) ;
#180 = MANIFOLD_SOLID_BREP ( 'Revolve - Cutting Edge', #200 ) ;
#181 = CYLINDRICAL_SURFACE ( 'NONE', #119, 0.1875000000000000555 ) ;
#182 = CIRCLE ( 'NONE', #120, 0.1875000000000000278 ) ;
#183 = ORIENTED_EDGE ( 'NONE', *, *, #296, .T. ) ;
#184 = APPLICATION_CONTEXT ( 'automotive_design' ) ;
#185 = CARTESIAN_POINT ( 'NONE',  ( 0.000000000000000000, 0.000000000000000000, 0.000000000000000000 ) ) ;
#186 = DIRECTION ( 'NONE',  ( -2.721437331438560697E-17, 1.000000000000000000, -0.000000000000000000 ) ) ;
#187 = CIRCLE ( 'NONE', #101, 0.1875000000000000278 ) ;
#188 =( GEOMETRIC_REPRESENTATION_CONTEXT ( 3 ) GLOBAL_UNCERTAINTY_ASSIGNED_CONTEXT ( ( #205 ) ) GLOBAL_UNIT_ASSIGNED_CONTEXT ( ( #273, #56, #219 ) ) REPRESENTATION_CONTEXT ( 'NONE', 'WORKASPACE' ) );
#189 = PRESENTATION_LAYER_ASSIGNMENT (  '', '', ( #276 ) ) ;
#190 = ADVANCED_FACE ( 'NONE', ( #216 ), #4, .T. ) ;
#191 = FACE_OUTER_BOUND ( 'NONE', #214, .T. ) ;
#192 = DIRECTION ( 'NONE',  ( -1.000000000000000000, 0.000000000000000000, 0.000000000000000000 ) ) ;
#193 = FILL_AREA_STYLE ('',( #198 ) ) ;
#194 =( LENGTH_UNIT ( ) NAMED_UNIT ( * ) SI_UNIT ( $, .METRE. ) );
#195 = DIRECTION ( 'NONE',  ( 0.000000000000000000, 0.000000000000000000, 1.000000000000000000 ) ) ;
#196 = PRESENTATION_STYLE_ASSIGNMENT (( #134 ) ) ;
#197 = DIRECTION ( 'NONE',  ( 0.000000000000000000, -0.000000000000000000, 1.000000000000000000 ) ) ;
#198 = FILL_AREA_STYLE_COLOUR ( '', #238 ) ;
#199 = CARTESIAN_POINT ( 'NONE',  ( -6.123233995736759873E-17, 3.500000000000000000, 0.000000000000000000 ) ) ;
#200 = CLOSED_SHELL ( 'NONE', ( #272, #190, #243, #173 ) ) ;
#201 = AXIS2_PLACEMENT_3D ( 'NONE', #97, #23, #161 ) ;
#202 =( LENGTH_UNIT ( ) NAMED_UNIT ( * ) SI_UNIT ( $, .METRE. ) );
#203 = SURFACE_STYLE_USAGE ( .BOTH. , #225 ) ;
#204 = DIRECTION ( 'NONE',  ( -1.000000000000000000, 0.000000000000000000, 0.000000000000000000 ) ) ;
#205 = UNCERTAINTY_MEASURE_WITH_UNIT (LENGTH_MEASURE( 1.000000000000000082E-05 ), #273, 'distance_accuracy_value', 'NONE');
#206 = CIRCLE ( 'NONE', #92, 0.1875000000000000833 ) ;
#207 = ORIENTED_EDGE ( 'NONE', *, *, #281, .F. ) ;
#208 = DIMENSIONAL_EXPONENTS ( 1.000000000000000000, 0.000000000000000000, 0.000000000000000000, 0.000000000000000000, 0.000000000000000000, 0.000000000000000000, 0.000000000000000000 ) ;
#209 = DIRECTION ( 'NONE',  ( -2.721437331438560697E-17, 1.000000000000000000, -0.000000000000000000 ) ) ;
#210 =( CONVERSION_BASED_UNIT ( 'INCH', #21 ) LENGTH_UNIT ( ) NAMED_UNIT ( #277 ) );
#211 = ADVANCED_FACE ( 'NONE', ( #191 ), #245, .F. ) ;
#212 = FILL_AREA_STYLE_COLOUR ( '', #294 ) ;
#213 = CLOSED_SHELL ( 'NONE', ( #67, #211, #109, #308 ) ) ;
#214 = EDGE_LOOP ( 'NONE', ( #143, #268 ) ) ;
#215 = STYLED_ITEM ( 'NONE', ( #251 ), #272 ) ;
#216 = FACE_OUTER_BOUND ( 'NONE', #166, .T. ) ;
#217 = ORIENTED_EDGE ( 'NONE', *, *, #281, .T. ) ;
#218 = EDGE_CURVE ( 'NONE', #142, #70, #182, .T. ) ;
#219 =( NAMED_UNIT ( * ) SI_UNIT ( $, .STERADIAN. ) SOLID_ANGLE_UNIT ( ) );
#220 = PRODUCT_DEFINITION ( 'UNKNOWN', '', #39, #176 ) ;
#221 = AXIS2_PLACEMENT_3D ( 'NONE', #242, #33, #126 ) ;
#222 = AXIS2_PLACEMENT_3D ( 'NONE', #37, #223, #104 ) ;
#223 = DIRECTION ( 'NONE',  ( 0.000000000000000000, -1.000000000000000000, -0.000000000000000000 ) ) ;
#224 = APPLICATION_PROTOCOL_DEFINITION ( 'draft international standard', 'automotive_design', 1998, #184 ) ;
#225 = SURFACE_SIDE_STYLE ('',( #59 ) ) ;
#226 = LENGTH_MEASURE_WITH_UNIT ( LENGTH_MEASURE( 0.02539999999999999897 ), #41 );
#227 = APPLICATION_PROTOCOL_DEFINITION ( 'draft international standard', 'automotive_design', 1998, #286 ) ;
#228 =( CONVERSION_BASED_UNIT ( 'INCH', #226 ) LENGTH_UNIT ( ) NAMED_UNIT ( #266 ) );
#229 = EDGE_CURVE ( 'NONE', #117, #141, #55, .T. ) ;
#230 = EDGE_CURVE ( 'NONE', #19, #2, #206, .T. ) ;
#231 = EDGE_LOOP ( 'NONE', ( #183, #178, #262, #207 ) ) ;
#232 = COLOUR_RGB ( '',1.000000000000000000, 0.000000000000000000, 0.000000000000000000 ) ;
#233 = EDGE_LOOP ( 'NONE', ( #307, #235, #74, #139 ) ) ;
#234 = ORIENTED_EDGE ( 'NONE', *, *, #218, .F. ) ;
#235 = ORIENTED_EDGE ( 'NONE', *, *, #110, .T. ) ;
#236 = AXIS2_PLACEMENT_3D ( 'NONE', #95, #137, #14 ) ;
#237 = LINE ( 'NONE', #121, #79 ) ;
#238 = COLOUR_RGB ( '',1.000000000000000000, 0.000000000000000000, 0.000000000000000000 ) ;
#239 =( NAMED_UNIT ( * ) PLANE_ANGLE_UNIT ( ) SI_UNIT ( $, .RADIAN. ) );
#240 = DIRECTION ( 'NONE',  ( -0.000000000000000000, -1.000000000000000000, -0.000000000000000000 ) ) ;
#241 = STYLED_ITEM ( 'NONE', ( #80 ), #190 ) ;
#242 = CARTESIAN_POINT ( 'NONE',  ( -6.123233995736759873E-17, 3.500000000000000000, 0.000000000000000000 ) ) ;
#243 = ADVANCED_FACE ( 'NONE', ( #40 ), #257, .T. ) ;
#244 = UNCERTAINTY_MEASURE_WITH_UNIT (LENGTH_MEASURE( 1.000000000000000082E-05 ), #228, 'distance_accuracy_value', 'NONE');
#245 = PLANE ( 'NONE',  #9 ) ;
#246 = CARTESIAN_POINT ( 'NONE',  ( 0.000000000000000000, 1.250000000000000000, 0.000000000000000000 ) ) ;
#247 = SURFACE_SIDE_STYLE ('',( #3 ) ) ;
#248 = PRESENTATION_LAYER_ASSIGNMENT (  '', '', ( #130 ) ) ;
#249 = PRESENTATION_LAYER_ASSIGNMENT (  '', '', ( #172 ) ) ;
#250 = LENGTH_MEASURE_WITH_UNIT ( LENGTH_MEASURE( 0.02539999999999999897 ), #202 );
#251 = PRESENTATION_STYLE_ASSIGNMENT (( #203 ) ) ;
#252 = CYLINDRICAL_SURFACE ( 'NONE', #16, 0.1875000000000000555 ) ;
#253 = SURFACE_SIDE_STYLE ('',( #82 ) ) ;
#254 = CIRCLE ( 'NONE', #236, 0.1875000000000000278 ) ;
#255 = PRESENTATION_LAYER_ASSIGNMENT (  '', '', ( #132 ) ) ;
#256 = DIMENSIONAL_EXPONENTS ( 1.000000000000000000, 0.000000000000000000, 0.000000000000000000, 0.000000000000000000, 0.000000000000000000, 0.000000000000000000, 0.000000000000000000 ) ;
#257 = CYLINDRICAL_SURFACE ( 'NONE', #1, 0.1875000000000000278 ) ;
#258 = LENGTH_MEASURE_WITH_UNIT ( LENGTH_MEASURE( 0.02539999999999999897 ), #156 );
#259 = DIMENSIONAL_EXPONENTS ( 1.000000000000000000, 0.000000000000000000, 0.000000000000000000, 0.000000000000000000, 0.000000000000000000, 0.000000000000000000, 0.000000000000000000 ) ;
#260 = CARTESIAN_POINT ( 'NONE',  ( 2.296212748401287726E-17, 0.000000000000000000, 0.1875000000000000278 ) ) ;
#261 = LENGTH_MEASURE_WITH_UNIT ( LENGTH_MEASURE( 0.02539999999999999897 ), #86 );
#262 = ORIENTED_EDGE ( 'NONE', *, *, #123, .F. ) ;
#263 =( GEOMETRIC_REPRESENTATION_CONTEXT ( 3 ) GLOBAL_UNCERTAINTY_ASSIGNED_CONTEXT ( ( #35 ) ) GLOBAL_UNIT_ASSIGNED_CONTEXT ( ( #20, #11, #15 ) ) REPRESENTATION_CONTEXT ( 'NONE', 'WORKASPACE' ) );
#264 = CARTESIAN_POINT ( 'NONE',  ( 0.000000000000000000, 1.250000000000000000, -0.1875000000000000278 ) ) ;
#265 = PRODUCT_DEFINITION_SHAPE ( 'NONE', 'NONE',  #220 ) ;
#266 = DIMENSIONAL_EXPONENTS ( 1.000000000000000000, 0.000000000000000000, 0.000000000000000000, 0.000000000000000000, 0.000000000000000000, 0.000000000000000000, 0.000000000000000000 ) ;
#267 = EDGE_LOOP ( 'NONE', ( #25, #160, #217, #289 ) ) ;
#268 = ORIENTED_EDGE ( 'NONE', *, *, #38, .F. ) ;
#269 = PRODUCT_RELATED_PRODUCT_CATEGORY ( 'part', '', ( #167 ) ) ;
#270 = DIRECTION ( 'NONE',  ( 2.721437331438560697E-17, -1.000000000000000000, 0.000000000000000000 ) ) ;
#271 = PRESENTATION_STYLE_ASSIGNMENT (( #106 ) ) ;
#272 = ADVANCED_FACE ( 'NONE', ( #135 ), #42, .T. ) ;
#273 =( CONVERSION_BASED_UNIT ( 'INCH', #128 ) LENGTH_UNIT ( ) NAMED_UNIT ( #208 ) );
#274 = MECHANICAL_DESIGN_GEOMETRIC_PRESENTATION_REPRESENTATION (  '', ( #241 ), #188 ) ;
#275 = DIRECTION ( 'NONE',  ( 0.000000000000000000, 1.000000000000000000, 0.000000000000000000 ) ) ;
#276 = STYLED_ITEM ( 'NONE', ( #271 ), #180 ) ;
#277 = DIMENSIONAL_EXPONENTS ( 1.000000000000000000, 0.000000000000000000, 0.000000000000000000, 0.000000000000000000, 0.000000000000000000, 0.000000000000000000, 0.000000000000000000 ) ;
#278 = AXIS2_PLACEMENT_3D ( 'NONE', #153, #195, #61 ) ;
#279 = DIRECTION ( 'NONE',  ( -2.721437331438560389E-17, 1.000000000000000000, -0.000000000000000000 ) ) ;
#280 = ORIENTED_EDGE ( 'NONE', *, *, #230, .F. ) ;
#281 = EDGE_CURVE ( 'NONE', #70, #141, #69, .T. ) ;
#282 = FACE_OUTER_BOUND ( 'NONE', #233, .T. ) ;
#283 =( CONVERSION_BASED_UNIT ( 'INCH', #261 ) LENGTH_UNIT ( ) NAMED_UNIT ( #256 ) );
#284 = DIMENSIONAL_EXPONENTS ( 1.000000000000000000, 0.000000000000000000, 0.000000000000000000, 0.000000000000000000, 0.000000000000000000, 0.000000000000000000, 0.000000000000000000 ) ;
#285 = DIRECTION ( 'NONE',  ( -2.721437331438560389E-17, 1.000000000000000000, -0.000000000000000000 ) ) ;
#286 = APPLICATION_CONTEXT ( 'automotive_design' ) ;
#287 = DIRECTION ( 'NONE',  ( -0.000000000000000000, -1.000000000000000000, -0.000000000000000000 ) ) ;
#288 =( GEOMETRIC_REPRESENTATION_CONTEXT ( 3 ) GLOBAL_UNCERTAINTY_ASSIGNED_CONTEXT ( ( #57 ) ) GLOBAL_UNIT_ASSIGNED_CONTEXT ( ( #77, #125, #99 ) ) REPRESENTATION_CONTEXT ( 'NONE', 'WORKASPACE' ) );
#289 = ORIENTED_EDGE ( 'NONE', *, *, #229, .F. ) ;
#290 = ORIENTED_EDGE ( 'NONE', *, *, #152, .T. ) ;
#291 = VECTOR ( 'NONE', #186, 39.37007874015748143 ) ;
#292 = FACE_OUTER_BOUND ( 'NONE', #162, .T. ) ;
#293 = SURFACE_SIDE_STYLE ('',( #53 ) ) ;
#294 = COLOUR_RGB ( '',0.7921568627450980005, 0.8196078431372548767, 0.9333333333333333481 ) ;
#295 =( GEOMETRIC_REPRESENTATION_CONTEXT ( 3 ) GLOBAL_UNCERTAINTY_ASSIGNED_CONTEXT ( ( #81 ) ) GLOBAL_UNIT_ASSIGNED_CONTEXT ( ( #177, #158, #155 ) ) REPRESENTATION_CONTEXT ( 'NONE', 'WORKASPACE' ) );
#296 = EDGE_CURVE ( 'NONE', #70, #142, #31, .T. ) ;
#297 = FILL_AREA_STYLE ('',( #111 ) ) ;
#298 = SURFACE_SIDE_STYLE ('',( #66 ) ) ;
#299 = CIRCLE ( 'NONE', #76, 0.1875000000000000278 ) ;
#300 = AXIS2_PLACEMENT_3D ( 'NONE', #185, #287, #72 ) ;
#301 =( LENGTH_UNIT ( ) NAMED_UNIT ( * ) SI_UNIT ( $, .METRE. ) );
#302 = FACE_OUTER_BOUND ( 'NONE', #94, .T. ) ;
#303 = MECHANICAL_DESIGN_GEOMETRIC_PRESENTATION_REPRESENTATION (  '', ( #130 ), #113 ) ;
#304 = MECHANICAL_DESIGN_GEOMETRIC_PRESENTATION_REPRESENTATION (  '', ( #132 ), #263 ) ;
#305 = SURFACE_STYLE_USAGE ( .BOTH. , #298 ) ;
#306 = ORIENTED_EDGE ( 'NONE', *, *, #229, .T. ) ;
#307 = ORIENTED_EDGE ( 'NONE', *, *, #159, .T. ) ;
#308 = ADVANCED_FACE ( 'NONE', ( #140 ), #73, .F. ) ;
#309 = FILL_AREA_STYLE ('',( #212 ) ) ;
ENDSEC;
END-ISO-10303-21;
