ISO-10303-21;
HEADER;
FILE_DESCRIPTION (( 'STEP AP214' ),
    '1' );
FILE_NAME ('Micro_SFAM-080100.STEP',
    '2021-09-02T04:22:28',
    ( '' ),
    ( '' ),
    'SwSTEP 2.0',
    'SolidWorks 2020',
    '' );
FILE_SCHEMA (( 'AUTOMOTIVE_DESIGN' ));
ENDSEC;

DATA;
#1 = DIRECTION ( 'NONE',  ( 1.000000000000000000, 0.0000000000000000000, -0.0000000000000000000 ) ) ;
#2 = CARTESIAN_POINT ( 'NONE',  ( 0.0000000000000000000, 0.0000000000000000000, 3.937007999999999619 ) ) ;
#3 = ADVANCED_FACE ( 'NONE', ( #35 ), #12, .T. ) ;
#4 = CIRCLE ( 'NONE', #156, 0.1574804999999999955 ) ;
#5 =( CONVERSION_BASED_UNIT ( 'INCH', #76 ) LENGTH_UNIT ( ) NAMED_UNIT ( #207 ) );
#6 = ORIENTED_EDGE ( 'NONE', *, *, #74, .T. ) ;
#7 = DIRECTION ( 'NONE',  ( 1.000000000000000000, 0.0000000000000000000, 0.0000000000000000000 ) ) ;
#8 =( LENGTH_UNIT ( ) NAMED_UNIT ( * ) SI_UNIT ( $, .METRE. ) );
#9 = EDGE_LOOP ( 'NONE', ( #123, #285 ) ) ;
#10 = STYLED_ITEM ( 'NONE', ( #186 ), #283 ) ;
#11 = ORIENTED_EDGE ( 'NONE', *, *, #153, .F. ) ;
#12 = CYLINDRICAL_SURFACE ( 'NONE', #273, 0.1574804999999999955 ) ;
#13 = CARTESIAN_POINT ( 'NONE',  ( 0.1573230195000000220, 1.926651322628716935E-17, -1.926651322628716935E-17 ) ) ;
#14 = CARTESIAN_POINT ( 'NONE',  ( 0.0000000000000000000, 0.0000000000000000000, 3.937007999999999619 ) ) ;
#15 = EDGE_CURVE ( 'NONE', #62, #109, #105, .T. ) ;
#16 = CARTESIAN_POINT ( 'NONE',  ( 9.642893389422242582E-17, 0.0000000000000000000, 0.7874019999999999353 ) ) ;
#17 = EDGE_CURVE ( 'NONE', #29, #109, #232, .T. ) ;
#18 =( GEOMETRIC_REPRESENTATION_CONTEXT ( 3 ) GLOBAL_UNCERTAINTY_ASSIGNED_CONTEXT ( ( #204 ) ) GLOBAL_UNIT_ASSIGNED_CONTEXT ( ( #242, #291, #80 ) ) REPRESENTATION_CONTEXT ( 'NONE', 'WORKASPACE' ) );
#19 = FACE_OUTER_BOUND ( 'NONE', #55, .T. ) ;
#20 = DIRECTION ( 'NONE',  ( 1.000000000000000000, 0.0000000000000000000, 0.0000000000000000000 ) ) ;
#21 = EDGE_CURVE ( 'NONE', #237, #228, #278, .T. ) ;
#22 = DIRECTION ( 'NONE',  ( -1.000000000000000000, 0.0000000000000000000, 0.0000000000000000000 ) ) ;
#23 = DIRECTION ( 'NONE',  ( -1.000000000000000000, 0.0000000000000000000, 1.224646799147353454E-16 ) ) ;
#24 = DIRECTION ( 'NONE',  ( 1.000000000000000000, 0.0000000000000000000, 0.0000000000000000000 ) ) ;
#25 = CARTESIAN_POINT ( 'NONE',  ( 0.0000000000000000000, 0.0000000000000000000, 0.0000000000000000000 ) ) ;
#26 = DIRECTION ( 'NONE',  ( -1.000000000000000000, 0.0000000000000000000, 1.224646799147353454E-16 ) ) ;
#27 = VECTOR ( 'NONE', #112, 39.37007874015748143 ) ;
#28 = EDGE_CURVE ( 'NONE', #84, #237, #151, .T. ) ;
#29 = VERTEX_POINT ( 'NONE', #41 ) ;
#30 = PRODUCT_RELATED_PRODUCT_CATEGORY ( 'part', '', ( #193 ) ) ;
#31 = ORIENTED_EDGE ( 'NONE', *, *, #93, .F. ) ;
#32 = FILL_AREA_STYLE ('',( #99 ) ) ;
#33 = ORIENTED_EDGE ( 'NONE', *, *, #201, .T. ) ;
#34 = EDGE_LOOP ( 'NONE', ( #292, #255, #31, #172 ) ) ;
#35 = FACE_OUTER_BOUND ( 'NONE', #170, .T. ) ;
#36 = SHAPE_DEFINITION_REPRESENTATION ( #39, #60 ) ;
#37 = DIRECTION ( 'NONE',  ( -0.0000000000000000000, -0.0000000000000000000, -1.000000000000000000 ) ) ;
#38 = CIRCLE ( 'NONE', #75, 0.1574804999999999955 ) ;
#39 = PRODUCT_DEFINITION_SHAPE ( 'NONE', 'NONE',  #85 ) ;
#40 = ADVANCED_FACE ( 'NONE', ( #19 ), #111, .T. ) ;
#41 = CARTESIAN_POINT ( 'NONE',  ( 0.1574805000000000788, 1.928579902531248645E-17, 0.7882951162965939895 ) ) ;
#42 = EDGE_LOOP ( 'NONE', ( #120, #6, #63, #43 ) ) ;
#43 = ORIENTED_EDGE ( 'NONE', *, *, #21, .F. ) ;
#44 = PRESENTATION_LAYER_ASSIGNMENT (  '', '', ( #10 ) ) ;
#45 = DIRECTION ( 'NONE',  ( 1.000000000000000000, 0.0000000000000000000, -0.0000000000000000000 ) ) ;
#46 = UNCERTAINTY_MEASURE_WITH_UNIT (LENGTH_MEASURE( 1.000000000000000082E-05 ), #103, 'distance_accuracy_value', 'NONE');
#47 = FACE_OUTER_BOUND ( 'NONE', #169, .T. ) ;
#48 = CARTESIAN_POINT ( 'NONE',  ( -0.1573230194999999387, 1.926651322628716935E-17, 0.7874019999999999353 ) ) ;
#49 = CONICAL_SURFACE ( 'NONE', #280, 0.1424805000000004540, 0.7853981633974608245 ) ;
#50 = CARTESIAN_POINT ( 'NONE',  ( -0.1573230194999999387, 1.927615612579982019E-17, 0.7874019999999999353 ) ) ;
#51 = CARTESIAN_POINT ( 'NONE',  ( -0.1573230194999999942, 0.0000000000000000000, 3.853302645257433254E-17 ) ) ;
#52 = EDGE_CURVE ( 'NONE', #265, #271, #214, .T. ) ;
#53 = FILL_AREA_STYLE_COLOUR ( '', #215 ) ;
#54 = SURFACE_STYLE_FILL_AREA ( #32 ) ;
#55 = EDGE_LOOP ( 'NONE', ( #210, #33, #195, #107 ) ) ;
#56 = CONICAL_SURFACE ( 'NONE', #198, 0.1573230195000000220, 0.1745329251994339470 ) ;
#57 = DIRECTION ( 'NONE',  ( -1.000000000000000000, 0.0000000000000000000, 0.0000000000000000000 ) ) ;
#58 = ORIENTED_EDGE ( 'NONE', *, *, #188, .F. ) ;
#59 = CARTESIAN_POINT ( 'NONE',  ( -0.1574804999999999955, 0.0000000000000000000, 3.937007999999999619 ) ) ;
#60 = ADVANCED_BREP_SHAPE_REPRESENTATION ( 'Micro_SFAM-080100', ( #283, #97 ), #293 ) ;
#61 = VECTOR ( 'NONE', #247, 39.37007874015748143 ) ;
#62 = VERTEX_POINT ( 'NONE', #197 ) ;
#63 = ORIENTED_EDGE ( 'NONE', *, *, #153, .T. ) ;
#64 = FACE_OUTER_BOUND ( 'NONE', #282, .T. ) ;
#65 = AXIS2_PLACEMENT_3D ( 'NONE', #98, #185, #7 ) ;
#66 = LINE ( 'NONE', #251, #91 ) ;
#67 = LINE ( 'NONE', #135, #61 ) ;
#68 = DIRECTION ( 'NONE',  ( -0.7071067811865563435, 0.0000000000000000000, -0.7071067811865386910 ) ) ;
#69 = CONICAL_SURFACE ( 'NONE', #250, 0.1424805000000004540, 0.7853981633974608245 ) ;
#70 = CARTESIAN_POINT ( 'NONE',  ( 0.1574804999999999955, 1.928579902531247412E-17, 3.922008000000000827 ) ) ;
#71 =( NAMED_UNIT ( * ) PLANE_ANGLE_UNIT ( ) SI_UNIT ( $, .RADIAN. ) );
#72 = LENGTH_MEASURE_WITH_UNIT ( LENGTH_MEASURE( 0.02539999999999999897 ), #8 );
#73 = ORIENTED_EDGE ( 'NONE', *, *, #15, .F. ) ;
#74 = EDGE_CURVE ( 'NONE', #84, #104, #297, .T. ) ;
#75 = AXIS2_PLACEMENT_3D ( 'NONE', #126, #294, #152 ) ;
#76 = LENGTH_MEASURE_WITH_UNIT ( LENGTH_MEASURE( 0.02539999999999999897 ), #187 );
#77 = ORIENTED_EDGE ( 'NONE', *, *, #299, .T. ) ;
#78 = LENGTH_MEASURE_WITH_UNIT ( LENGTH_MEASURE( 0.02539999999999999897 ), #192 );
#79 = ORIENTED_EDGE ( 'NONE', *, *, #118, .F. ) ;
#80 =( NAMED_UNIT ( * ) SI_UNIT ( $, .STERADIAN. ) SOLID_ANGLE_UNIT ( ) );
#81 = CARTESIAN_POINT ( 'NONE',  ( 0.0000000000000000000, 0.0000000000000000000, 3.937007999999999619 ) ) ;
#82 = CIRCLE ( 'NONE', #124, 0.1573230194999999942 ) ;
#83 = EDGE_LOOP ( 'NONE', ( #218, #284 ) ) ;
#84 = VERTEX_POINT ( 'NONE', #270 ) ;
#85 = PRODUCT_DEFINITION ( 'UNKNOWN', '', #184, #267 ) ;
#86 = ORIENTED_EDGE ( 'NONE', *, *, #110, .T. ) ;
#87 = AXIS2_PLACEMENT_3D ( 'NONE', #179, #281, #26 ) ;
#88 = DIRECTION ( 'NONE',  ( 1.000000000000000000, 0.0000000000000000000, 0.0000000000000000000 ) ) ;
#89 = CYLINDRICAL_SURFACE ( 'NONE', #211, 0.1573230195000000220 ) ;
#90 = CYLINDRICAL_SURFACE ( 'NONE', #87, 0.1573230195000000220 ) ;
#91 = VECTOR ( 'NONE', #68, 39.37007874015748143 ) ;
#92 = DIRECTION ( 'NONE',  ( 1.224646799147353207E-16, 0.0000000000000000000, 1.000000000000000000 ) ) ;
#93 = EDGE_CURVE ( 'NONE', #62, #216, #38, .T. ) ;
#94 = DIRECTION ( 'NONE',  ( -1.000000000000000000, 0.0000000000000000000, 0.0000000000000000000 ) ) ;
#95 = DIRECTION ( 'NONE',  ( 0.0000000000000000000, 0.0000000000000000000, 1.000000000000000000 ) ) ;
#96 = AXIS2_PLACEMENT_3D ( 'NONE', #194, #147, #289 ) ;
#97 = AXIS2_PLACEMENT_3D ( 'NONE', #148, #262, #236 ) ;
#98 = CARTESIAN_POINT ( 'NONE',  ( 9.653830909561144608E-17, 0.0000000000000000000, 0.7882951162965939895 ) ) ;
#99 = FILL_AREA_STYLE_COLOUR ( '', #189 ) ;
#100 = CARTESIAN_POINT ( 'NONE',  ( 2.359467375330272285E-33, 0.0000000000000000000, 1.926651322628716627E-17 ) ) ;
#101 = ORIENTED_EDGE ( 'NONE', *, *, #288, .F. ) ;
#102 = EDGE_CURVE ( 'NONE', #271, #265, #238, .T. ) ;
#103 =( CONVERSION_BASED_UNIT ( 'INCH', #72 ) LENGTH_UNIT ( ) NAMED_UNIT ( #256 ) );
#104 = VERTEX_POINT ( 'NONE', #50 ) ;
#105 = LINE ( 'NONE', #59, #137 ) ;
#106 =( GEOMETRIC_REPRESENTATION_CONTEXT ( 3 ) GLOBAL_UNCERTAINTY_ASSIGNED_CONTEXT ( ( #46 ) ) GLOBAL_UNIT_ASSIGNED_CONTEXT ( ( #103, #168, #261 ) ) REPRESENTATION_CONTEXT ( 'NONE', 'WORKASPACE' ) );
#107 = ORIENTED_EDGE ( 'NONE', *, *, #17, .F. ) ;
#108 = DIRECTION ( 'NONE',  ( 1.000000000000000000, 0.0000000000000000000, 0.0000000000000000000 ) ) ;
#109 = VERTEX_POINT ( 'NONE', #275 ) ;
#110 = EDGE_CURVE ( 'NONE', #271, #62, #66, .T. ) ;
#111 = CYLINDRICAL_SURFACE ( 'NONE', #254, 0.1574804999999999955 ) ;
#112 = DIRECTION ( 'NONE',  ( 0.7071067811865563435, 8.659560562355041327E-17, -0.7071067811865386910 ) ) ;
#113 = PLANE ( 'NONE',  #150 ) ;
#114 = AXIS2_PLACEMENT_3D ( 'NONE', #243, #199, #88 ) ;
#115 = PRESENTATION_LAYER_ASSIGNMENT (  '', '', ( #219 ) ) ;
#116 = DIRECTION ( 'NONE',  ( -1.224646799147353207E-16, -0.0000000000000000000, -1.000000000000000000 ) ) ;
#117 = LINE ( 'NONE', #183, #269 ) ;
#118 = EDGE_CURVE ( 'NONE', #104, #84, #174, .T. ) ;
#119 = DIRECTION ( 'NONE',  ( 0.1736481776669314414, 0.0000000000000000000, 0.9848077530122077983 ) ) ;
#120 = ORIENTED_EDGE ( 'NONE', *, *, #28, .F. ) ;
#121 = ORIENTED_EDGE ( 'NONE', *, *, #102, .F. ) ;
#122 = APPLICATION_PROTOCOL_DEFINITION ( 'draft international standard', 'automotive_design', 1998, #241 ) ;
#123 = ORIENTED_EDGE ( 'NONE', *, *, #102, .T. ) ;
#124 = AXIS2_PLACEMENT_3D ( 'NONE', #100, #166, #190 ) ;
#125 = SURFACE_STYLE_USAGE ( .BOTH. , #145 ) ;
#126 = CARTESIAN_POINT ( 'NONE',  ( 0.0000000000000000000, 0.0000000000000000000, 3.922008000000000827 ) ) ;
#127 = ADVANCED_FACE ( 'NONE', ( #226 ), #223, .T. ) ;
#128 = AXIS2_PLACEMENT_3D ( 'NONE', #14, #263, #108 ) ;
#129 = MECHANICAL_DESIGN_GEOMETRIC_PRESENTATION_REPRESENTATION (  '', ( #10 ), #106 ) ;
#130 = DIRECTION ( 'NONE',  ( -0.0000000000000000000, -0.0000000000000000000, -1.000000000000000000 ) ) ;
#131 = DIRECTION ( 'NONE',  ( -0.0000000000000000000, -0.0000000000000000000, -1.000000000000000000 ) ) ;
#132 = ORIENTED_EDGE ( 'NONE', *, *, #93, .T. ) ;
#133 = DIRECTION ( 'NONE',  ( -1.224646799147353207E-16, -0.0000000000000000000, -1.000000000000000000 ) ) ;
#134 = LINE ( 'NONE', #221, #27 ) ;
#135 = CARTESIAN_POINT ( 'NONE',  ( -0.1573230195000000220, 0.0000000000000000000, 1.926651322628716935E-17 ) ) ;
#136 = FACE_OUTER_BOUND ( 'NONE', #42, .T. ) ;
#137 = VECTOR ( 'NONE', #130, 39.37007874015748143 ) ;
#138 = AXIS2_PLACEMENT_3D ( 'NONE', #155, #246, #20 ) ;
#139 = CARTESIAN_POINT ( 'NONE',  ( 0.0000000000000000000, 0.0000000000000000000, 3.937007999999999619 ) ) ;
#140 = LINE ( 'NONE', #163, #274 ) ;
#141 = AXIS2_PLACEMENT_3D ( 'NONE', #154, #133, #220 ) ;
#142 = AXIS2_PLACEMENT_3D ( 'NONE', #158, #116, #22 ) ;
#143 = CARTESIAN_POINT ( 'NONE',  ( -0.1424805000000004540, 0.0000000000000000000, 3.937007999999999619 ) ) ;
#144 = ADVANCED_FACE ( 'NONE', ( #279 ), #113, .F. ) ;
#145 = SURFACE_SIDE_STYLE ('',( #54 ) ) ;
#146 = ORIENTED_EDGE ( 'NONE', *, *, #206, .T. ) ;
#147 = DIRECTION ( 'NONE',  ( -1.224646799147353207E-16, -0.0000000000000000000, -1.000000000000000000 ) ) ;
#148 = CARTESIAN_POINT ( 'NONE',  ( 0.0000000000000000000, 0.0000000000000000000, 0.0000000000000000000 ) ) ;
#149 = ORIENTED_EDGE ( 'NONE', *, *, #28, .T. ) ;
#150 = AXIS2_PLACEMENT_3D ( 'NONE', #25, #95, #45 ) ;
#151 = LINE ( 'NONE', #13, #178 ) ;
#152 = DIRECTION ( 'NONE',  ( 1.000000000000000000, 0.0000000000000000000, 0.0000000000000000000 ) ) ;
#153 = EDGE_CURVE ( 'NONE', #104, #228, #67, .T. ) ;
#154 = CARTESIAN_POINT ( 'NONE',  ( 9.653830909561144608E-17, 0.0000000000000000000, 0.7882951162965939895 ) ) ;
#155 = CARTESIAN_POINT ( 'NONE',  ( 9.642893389422242582E-17, 0.0000000000000000000, 0.7874019999999999353 ) ) ;
#156 = AXIS2_PLACEMENT_3D ( 'NONE', #295, #182, #24 ) ;
#157 = UNCERTAINTY_MEASURE_WITH_UNIT (LENGTH_MEASURE( 1.000000000000000082E-05 ), #5, 'distance_accuracy_value', 'NONE');
#158 = CARTESIAN_POINT ( 'NONE',  ( 9.642893389422242582E-17, 0.0000000000000000000, 0.7874019999999999353 ) ) ;
#159 = ADVANCED_FACE ( 'NONE', ( #47 ), #49, .T. ) ;
#160 = FACE_OUTER_BOUND ( 'NONE', #34, .T. ) ;
#161 = DIRECTION ( 'NONE',  ( 1.000000000000000000, 0.0000000000000000000, 0.0000000000000000000 ) ) ;
#162 = MECHANICAL_DESIGN_GEOMETRIC_PRESENTATION_REPRESENTATION (  '', ( #219 ), #18 ) ;
#163 = CARTESIAN_POINT ( 'NONE',  ( 0.1573230195000001330, 0.0000000000000000000, 0.7874019999999999353 ) ) ;
#164 = ADVANCED_FACE ( 'NONE', ( #160 ), #69, .T. ) ;
#165 = AXIS2_PLACEMENT_3D ( 'NONE', #16, #175, #57 ) ;
#166 = DIRECTION ( 'NONE',  ( -1.224646799147353207E-16, -0.0000000000000000000, -1.000000000000000000 ) ) ;
#167 = ADVANCED_FACE ( 'NONE', ( #248 ), #56, .T. ) ;
#168 =( NAMED_UNIT ( * ) PLANE_ANGLE_UNIT ( ) SI_UNIT ( $, .RADIAN. ) );
#169 = EDGE_LOOP ( 'NONE', ( #231, #121, #86, #213 ) ) ;
#170 = EDGE_LOOP ( 'NONE', ( #132, #146, #286, #73 ) ) ;
#171 = ORIENTED_EDGE ( 'NONE', *, *, #230, .T. ) ;
#172 = ORIENTED_EDGE ( 'NONE', *, *, #110, .F. ) ;
#173 = CLOSED_SHELL ( 'NONE', ( #266, #167, #164, #3, #40, #127, #159, #245, #196, #144 ) ) ;
#174 = CIRCLE ( 'NONE', #142, 0.1573230195000000220 ) ;
#175 = DIRECTION ( 'NONE',  ( -1.224646799147353207E-16, -0.0000000000000000000, -1.000000000000000000 ) ) ;
#176 = EDGE_LOOP ( 'NONE', ( #79, #260, #77, #234 ) ) ;
#177 = CARTESIAN_POINT ( 'NONE',  ( 0.1573230194999999942, 1.926651322628716627E-17, 3.791200677927629740E-33 ) ) ;
#178 = VECTOR ( 'NONE', #240, 39.37007874015748143 ) ;
#179 = CARTESIAN_POINT ( 'NONE',  ( 0.0000000000000000000, 0.0000000000000000000, 0.0000000000000000000 ) ) ;
#180 = CONICAL_SURFACE ( 'NONE', #138, 0.1573230195000000220, 0.1745329251994339470 ) ;
#181 = LINE ( 'NONE', #48, #224 ) ;
#182 = DIRECTION ( 'NONE',  ( 0.0000000000000000000, 0.0000000000000000000, -1.000000000000000000 ) ) ;
#183 = CARTESIAN_POINT ( 'NONE',  ( 0.1574804999999999955, 1.928579902531247412E-17, 3.937007999999999619 ) ) ;
#184 = PRODUCT_DEFINITION_FORMATION_WITH_SPECIFIED_SOURCE ( 'ANY', '', #193, .NOT_KNOWN. ) ;
#185 = DIRECTION ( 'NONE',  ( -1.224646799147353207E-16, -0.0000000000000000000, -1.000000000000000000 ) ) ;
#186 = PRESENTATION_STYLE_ASSIGNMENT (( #227 ) ) ;
#187 =( LENGTH_UNIT ( ) NAMED_UNIT ( * ) SI_UNIT ( $, .METRE. ) );
#188 = EDGE_CURVE ( 'NONE', #104, #109, #181, .T. ) ;
#189 = COLOUR_RGB ( '',0.7921568627450980005, 0.8196078431372548767, 0.9333333333333333481 ) ;
#190 = DIRECTION ( 'NONE',  ( -1.000000000000000000, 0.0000000000000000000, 1.224646799147353454E-16 ) ) ;
#191 = ORIENTED_EDGE ( 'NONE', *, *, #17, .T. ) ;
#192 =( LENGTH_UNIT ( ) NAMED_UNIT ( * ) SI_UNIT ( $, .METRE. ) );
#193 = PRODUCT ( 'Micro_SFAM-080100', 'Micro_SFAM-080100', '', ( #264 ) ) ;
#194 = CARTESIAN_POINT ( 'NONE',  ( 2.359467375330272285E-33, 0.0000000000000000000, 1.926651322628716627E-17 ) ) ;
#195 = ORIENTED_EDGE ( 'NONE', *, *, #15, .T. ) ;
#196 = ADVANCED_FACE ( 'NONE', ( #136 ), #89, .T. ) ;
#197 = CARTESIAN_POINT ( 'NONE',  ( -0.1574804999999999955, 0.0000000000000000000, 3.922008000000000827 ) ) ;
#198 = AXIS2_PLACEMENT_3D ( 'NONE', #298, #92, #161 ) ;
#199 = DIRECTION ( 'NONE',  ( 0.0000000000000000000, 0.0000000000000000000, 1.000000000000000000 ) ) ;
#200 = ORIENTED_EDGE ( 'NONE', *, *, #118, .T. ) ;
#201 = EDGE_CURVE ( 'NONE', #216, #62, #4, .T. ) ;
#202 = CARTESIAN_POINT ( 'NONE',  ( 0.1424805000000004540, 1.836731392595198898E-17, 3.937007999999999619 ) ) ;
#203 = DIRECTION ( 'NONE',  ( -1.000000000000000000, 0.0000000000000000000, 0.0000000000000000000 ) ) ;
#204 = UNCERTAINTY_MEASURE_WITH_UNIT (LENGTH_MEASURE( 1.000000000000000082E-05 ), #242, 'distance_accuracy_value', 'NONE');
#205 = DIRECTION ( 'NONE',  ( 0.0000000000000000000, 0.0000000000000000000, -1.000000000000000000 ) ) ;
#206 = EDGE_CURVE ( 'NONE', #216, #29, #117, .T. ) ;
#207 = DIMENSIONAL_EXPONENTS ( 1.000000000000000000, 0.0000000000000000000, 0.0000000000000000000, 0.0000000000000000000, 0.0000000000000000000, 0.0000000000000000000, 0.0000000000000000000 ) ;
#208 = CARTESIAN_POINT ( 'NONE',  ( 0.0000000000000000000, 0.0000000000000000000, 0.0000000000000000000 ) ) ;
#209 = SURFACE_STYLE_FILL_AREA ( #252 ) ;
#210 = ORIENTED_EDGE ( 'NONE', *, *, #206, .F. ) ;
#211 = AXIS2_PLACEMENT_3D ( 'NONE', #208, #277, #23 ) ;
#212 = PRESENTATION_STYLE_ASSIGNMENT (( #125 ) ) ;
#213 = ORIENTED_EDGE ( 'NONE', *, *, #201, .F. ) ;
#214 = CIRCLE ( 'NONE', #128, 0.1424805000000004540 ) ;
#215 = COLOUR_RGB ( '',0.7921568627450980005, 0.8196078431372548767, 0.9333333333333333481 ) ;
#216 = VERTEX_POINT ( 'NONE', #70 ) ;
#217 = DIRECTION ( 'NONE',  ( -1.000000000000000000, 0.0000000000000000000, 0.0000000000000000000 ) ) ;
#218 = ORIENTED_EDGE ( 'NONE', *, *, #288, .T. ) ;
#219 = STYLED_ITEM ( 'NONE', ( #212 ), #60 ) ;
#220 = DIRECTION ( 'NONE',  ( 1.000000000000000000, 0.0000000000000000000, 0.0000000000000000000 ) ) ;
#221 = CARTESIAN_POINT ( 'NONE',  ( 0.1424805000000004540, 1.744882882659150076E-17, 3.937007999999999619 ) ) ;
#222 = DIRECTION ( 'NONE',  ( 0.0000000000000000000, 0.0000000000000000000, -1.000000000000000000 ) ) ;
#223 = PLANE ( 'NONE',  #287 ) ;
#224 = VECTOR ( 'NONE', #225, 39.37007874015748143 ) ;
#225 = DIRECTION ( 'NONE',  ( -0.1736481776669312194, 2.126576849575783625E-17, 0.9848077530122077983 ) ) ;
#226 = FACE_OUTER_BOUND ( 'NONE', #9, .T. ) ;
#227 = SURFACE_STYLE_USAGE ( .BOTH. , #253 ) ;
#228 = VERTEX_POINT ( 'NONE', #51 ) ;
#229 = DIMENSIONAL_EXPONENTS ( 1.000000000000000000, 0.0000000000000000000, 0.0000000000000000000, 0.0000000000000000000, 0.0000000000000000000, 0.0000000000000000000, 0.0000000000000000000 ) ;
#230 = EDGE_CURVE ( 'NONE', #84, #29, #140, .T. ) ;
#231 = ORIENTED_EDGE ( 'NONE', *, *, #257, .F. ) ;
#232 = CIRCLE ( 'NONE', #141, 0.1574804999999999955 ) ;
#233 = CIRCLE ( 'NONE', #65, 0.1574804999999999955 ) ;
#234 = ORIENTED_EDGE ( 'NONE', *, *, #230, .F. ) ;
#235 = DIRECTION ( 'NONE',  ( -1.000000000000000000, 0.0000000000000000000, 0.0000000000000000000 ) ) ;
#236 = DIRECTION ( 'NONE',  ( 1.000000000000000000, 0.0000000000000000000, 0.0000000000000000000 ) ) ;
#237 = VERTEX_POINT ( 'NONE', #177 ) ;
#238 = CIRCLE ( 'NONE', #114, 0.1424805000000004540 ) ;
#239 = APPLICATION_PROTOCOL_DEFINITION ( 'draft international standard', 'automotive_design', 1998, #258 ) ;
#240 = DIRECTION ( 'NONE',  ( -1.224646799147353207E-16, -0.0000000000000000000, -1.000000000000000000 ) ) ;
#241 = APPLICATION_CONTEXT ( 'automotive_design' ) ;
#242 =( CONVERSION_BASED_UNIT ( 'INCH', #78 ) LENGTH_UNIT ( ) NAMED_UNIT ( #229 ) );
#243 = CARTESIAN_POINT ( 'NONE',  ( 0.0000000000000000000, 0.0000000000000000000, 3.937007999999999619 ) ) ;
#244 = EDGE_LOOP ( 'NONE', ( #200, #149, #101, #11 ) ) ;
#245 = ADVANCED_FACE ( 'NONE', ( #64 ), #180, .T. ) ;
#246 = DIRECTION ( 'NONE',  ( 1.224646799147353207E-16, 0.0000000000000000000, 1.000000000000000000 ) ) ;
#247 = DIRECTION ( 'NONE',  ( -1.224646799147353207E-16, -0.0000000000000000000, -1.000000000000000000 ) ) ;
#248 = FACE_OUTER_BOUND ( 'NONE', #176, .T. ) ;
#249 = DIRECTION ( 'NONE',  ( 0.0000000000000000000, 0.0000000000000000000, 1.000000000000000000 ) ) ;
#250 = AXIS2_PLACEMENT_3D ( 'NONE', #2, #205, #94 ) ;
#251 = CARTESIAN_POINT ( 'NONE',  ( -0.1424805000000004540, 0.0000000000000000000, 3.937007999999999619 ) ) ;
#252 = FILL_AREA_STYLE ('',( #53 ) ) ;
#253 = SURFACE_SIDE_STYLE ('',( #209 ) ) ;
#254 = AXIS2_PLACEMENT_3D ( 'NONE', #81, #131, #217 ) ;
#255 = ORIENTED_EDGE ( 'NONE', *, *, #257, .T. ) ;
#256 = DIMENSIONAL_EXPONENTS ( 1.000000000000000000, 0.0000000000000000000, 0.0000000000000000000, 0.0000000000000000000, 0.0000000000000000000, 0.0000000000000000000, 0.0000000000000000000 ) ;
#257 = EDGE_CURVE ( 'NONE', #265, #216, #134, .T. ) ;
#258 = APPLICATION_CONTEXT ( 'automotive_design' ) ;
#259 =( NAMED_UNIT ( * ) SI_UNIT ( $, .STERADIAN. ) SOLID_ANGLE_UNIT ( ) );
#260 = ORIENTED_EDGE ( 'NONE', *, *, #188, .T. ) ;
#261 =( NAMED_UNIT ( * ) SI_UNIT ( $, .STERADIAN. ) SOLID_ANGLE_UNIT ( ) );
#262 = DIRECTION ( 'NONE',  ( 0.0000000000000000000, 0.0000000000000000000, 1.000000000000000000 ) ) ;
#263 = DIRECTION ( 'NONE',  ( 0.0000000000000000000, 0.0000000000000000000, 1.000000000000000000 ) ) ;
#264 = PRODUCT_CONTEXT ( 'NONE', #241, 'mechanical' ) ;
#265 = VERTEX_POINT ( 'NONE', #202 ) ;
#266 = ADVANCED_FACE ( 'NONE', ( #296 ), #90, .T. ) ;
#267 = PRODUCT_DEFINITION_CONTEXT ( 'detailed design', #258, 'design' ) ;
#268 = CARTESIAN_POINT ( 'NONE',  ( 0.0000000000000000000, 0.0000000000000000000, 3.937007999999999619 ) ) ;
#269 = VECTOR ( 'NONE', #272, 39.37007874015748143 ) ;
#270 = CARTESIAN_POINT ( 'NONE',  ( 0.1573230195000001330, 0.0000000000000000000, 0.7874019999999999353 ) ) ;
#271 = VERTEX_POINT ( 'NONE', #143 ) ;
#272 = DIRECTION ( 'NONE',  ( -0.0000000000000000000, -0.0000000000000000000, -1.000000000000000000 ) ) ;
#273 = AXIS2_PLACEMENT_3D ( 'NONE', #268, #37, #235 ) ;
#274 = VECTOR ( 'NONE', #119, 39.37007874015748143 ) ;
#275 = CARTESIAN_POINT ( 'NONE',  ( -0.1574804999999998845, 0.0000000000000000000, 0.7882951162965939895 ) ) ;
#276 = CARTESIAN_POINT ( 'NONE',  ( 0.0000000000000000000, 0.0000000000000000000, 3.937007999999999619 ) ) ;
#277 = DIRECTION ( 'NONE',  ( -1.224646799147353207E-16, -0.0000000000000000000, -1.000000000000000000 ) ) ;
#278 = CIRCLE ( 'NONE', #96, 0.1573230194999999942 ) ;
#279 = FACE_OUTER_BOUND ( 'NONE', #83, .T. ) ;
#280 = AXIS2_PLACEMENT_3D ( 'NONE', #139, #222, #203 ) ;
#281 = DIRECTION ( 'NONE',  ( -1.224646799147353207E-16, -0.0000000000000000000, -1.000000000000000000 ) ) ;
#282 = EDGE_LOOP ( 'NONE', ( #58, #290, #171, #191 ) ) ;
#283 = MANIFOLD_SOLID_BREP ( 'Cut-Revolve1', #173 ) ;
#284 = ORIENTED_EDGE ( 'NONE', *, *, #21, .T. ) ;
#285 = ORIENTED_EDGE ( 'NONE', *, *, #52, .T. ) ;
#286 = ORIENTED_EDGE ( 'NONE', *, *, #299, .F. ) ;
#287 = AXIS2_PLACEMENT_3D ( 'NONE', #276, #249, #1 ) ;
#288 = EDGE_CURVE ( 'NONE', #228, #237, #82, .T. ) ;
#289 = DIRECTION ( 'NONE',  ( -1.000000000000000000, 0.0000000000000000000, 1.224646799147353454E-16 ) ) ;
#290 = ORIENTED_EDGE ( 'NONE', *, *, #74, .F. ) ;
#291 =( NAMED_UNIT ( * ) PLANE_ANGLE_UNIT ( ) SI_UNIT ( $, .RADIAN. ) );
#292 = ORIENTED_EDGE ( 'NONE', *, *, #52, .F. ) ;
#293 =( GEOMETRIC_REPRESENTATION_CONTEXT ( 3 ) GLOBAL_UNCERTAINTY_ASSIGNED_CONTEXT ( ( #157 ) ) GLOBAL_UNIT_ASSIGNED_CONTEXT ( ( #5, #71, #259 ) ) REPRESENTATION_CONTEXT ( 'NONE', 'WORKASPACE' ) );
#294 = DIRECTION ( 'NONE',  ( 0.0000000000000000000, 0.0000000000000000000, -1.000000000000000000 ) ) ;
#295 = CARTESIAN_POINT ( 'NONE',  ( 0.0000000000000000000, 0.0000000000000000000, 3.922008000000000827 ) ) ;
#296 = FACE_OUTER_BOUND ( 'NONE', #244, .T. ) ;
#297 = CIRCLE ( 'NONE', #165, 0.1573230195000000220 ) ;
#298 = CARTESIAN_POINT ( 'NONE',  ( 9.642893389422242582E-17, 0.0000000000000000000, 0.7874019999999999353 ) ) ;
#299 = EDGE_CURVE ( 'NONE', #109, #29, #233, .T. ) ;
ENDSEC;
END-ISO-10303-21;
