ISO-10303-21;
HEADER;
FILE_DESCRIPTION (( 'STEP AP214' ),
    '1' );
FILE_NAME ('Micro_RTC-250-245X.STEP',
    '2021-09-03T18:12:55',
    ( '' ),
    ( '' ),
    'SwSTEP 2.0',
    'SolidWorks 2020',
    '' );
FILE_SCHEMA (( 'AUTOMOTIVE_DESIGN' ));
ENDSEC;

DATA;
#1 = CARTESIAN_POINT ( 'NONE',  ( 0.1250000000000000000, 1.530808498934191509E-17, 2.500000000000000000 ) ) ;
#2 = ADVANCED_FACE ( 'NONE', ( #246 ), #221, .T. ) ;
#3 = AXIS2_PLACEMENT_3D ( 'NONE', #142, #140, #11 ) ;
#4 = PRESENTATION_STYLE_ASSIGNMENT (( #196 ) ) ;
#5 = DIRECTION ( 'NONE',  ( -1.000000000000000000, 0.0000000000000000000, 0.0000000000000000000 ) ) ;
#6 = ORIENTED_EDGE ( 'NONE', *, *, #219, .T. ) ;
#7 = FACE_OUTER_BOUND ( 'NONE', #128, .T. ) ;
#8 = ORIENTED_EDGE ( 'NONE', *, *, #147, .F. ) ;
#9 = AXIS2_PLACEMENT_3D ( 'NONE', #112, #40, #81 ) ;
#10 = ORIENTED_EDGE ( 'NONE', *, *, #73, .F. ) ;
#11 = DIRECTION ( 'NONE',  ( 1.000000000000000000, 0.0000000000000000000, -0.0000000000000000000 ) ) ;
#12 = SHAPE_DEFINITION_REPRESENTATION ( #60, #102 ) ;
#13 = EDGE_CURVE ( 'NONE', #47, #50, #94, .T. ) ;
#14 = DIRECTION ( 'NONE',  ( -1.000000000000000000, 0.0000000000000000000, 0.0000000000000000000 ) ) ;
#15 = CARTESIAN_POINT ( 'NONE',  ( 0.0000000000000000000, 0.0000000000000000000, 0.0000000000000000000 ) ) ;
#16 = CIRCLE ( 'NONE', #203, 0.02199999999999999872 ) ;
#17 = CARTESIAN_POINT ( 'NONE',  ( -0.1250000000000000000, 0.0000000000000000000, 2.500000000000000000 ) ) ;
#18 = MECHANICAL_DESIGN_GEOMETRIC_PRESENTATION_REPRESENTATION (  '', ( #165 ), #121 ) ;
#19 = EDGE_LOOP ( 'NONE', ( #200, #136, #183, #8 ) ) ;
#20 = CARTESIAN_POINT ( 'NONE',  ( 0.0000000000000000000, 0.0000000000000000000, 2.500000000000000000 ) ) ;
#21 = ADVANCED_FACE ( 'NONE', ( #150 ), #125, .F. ) ;
#22 = AXIS2_PLACEMENT_3D ( 'NONE', #166, #163, #92 ) ;
#23 = CARTESIAN_POINT ( 'NONE',  ( -0.02199999999999999872, -2.694222958124176868E-18, 2.500000000000000000 ) ) ;
#24 = VECTOR ( 'NONE', #228, 39.37007874015748143 ) ;
#25 = EDGE_LOOP ( 'NONE', ( #245, #231, #190, #76 ) ) ;
#26 = ORIENTED_EDGE ( 'NONE', *, *, #195, .T. ) ;
#27 =( NAMED_UNIT ( * ) SI_UNIT ( $, .STERADIAN. ) SOLID_ANGLE_UNIT ( ) );
#28 = CLOSED_SHELL ( 'NONE', ( #209, #2, #139, #192, #88, #21, #134, #155 ) ) ;
#29 = DIRECTION ( 'NONE',  ( -1.000000000000000000, 0.0000000000000000000, 0.0000000000000000000 ) ) ;
#30 = DIRECTION ( 'NONE',  ( -0.0000000000000000000, -0.0000000000000000000, -1.000000000000000000 ) ) ;
#31 = DIRECTION ( 'NONE',  ( 0.0000000000000000000, 0.0000000000000000000, 1.000000000000000000 ) ) ;
#32 = DIRECTION ( 'NONE',  ( 0.0000000000000000000, 0.0000000000000000000, 1.000000000000000000 ) ) ;
#33 = ORIENTED_EDGE ( 'NONE', *, *, #195, .F. ) ;
#34 = CARTESIAN_POINT ( 'NONE',  ( -0.1250000000000000000, 0.0000000000000000000, 0.3844012331795928494 ) ) ;
#35 = AXIS2_PLACEMENT_3D ( 'NONE', #57, #77, #14 ) ;
#36 = PRESENTATION_STYLE_ASSIGNMENT (( #226 ) ) ;
#37 = LINE ( 'NONE', #23, #24 ) ;
#38 =( GEOMETRIC_REPRESENTATION_CONTEXT ( 3 ) GLOBAL_UNCERTAINTY_ASSIGNED_CONTEXT ( ( #131 ) ) GLOBAL_UNIT_ASSIGNED_CONTEXT ( ( #234, #180, #27 ) ) REPRESENTATION_CONTEXT ( 'NONE', 'WORKASPACE' ) );
#39 =( LENGTH_UNIT ( ) NAMED_UNIT ( * ) SI_UNIT ( $, .METRE. ) );
#40 = DIRECTION ( 'NONE',  ( 0.0000000000000000000, 0.0000000000000000000, -1.000000000000000000 ) ) ;
#41 = AXIS2_PLACEMENT_3D ( 'NONE', #123, #199, #151 ) ;
#42 = CONICAL_SURFACE ( 'NONE', #48, 0.02199999999999999872, 0.2617993877991502960 ) ;
#43 = CARTESIAN_POINT ( 'NONE',  ( 0.0000000000000000000, 0.0000000000000000000, 2.115598766820407040 ) ) ;
#44 = CARTESIAN_POINT ( 'NONE',  ( 0.0000000000000000000, 0.0000000000000000000, 0.0000000000000000000 ) ) ;
#45 = DIRECTION ( 'NONE',  ( -0.0000000000000000000, -0.0000000000000000000, -1.000000000000000000 ) ) ;
#46 = CARTESIAN_POINT ( 'NONE',  ( -0.02199999999999999872, 9.001153973733046171E-18, 0.0000000000000000000 ) ) ;
#47 = VERTEX_POINT ( 'NONE', #59 ) ;
#48 = AXIS2_PLACEMENT_3D ( 'NONE', #114, #173, #133 ) ;
#49 = DIRECTION ( 'NONE',  ( -0.2588190451025216832, 3.169619151431776035E-17, 0.9659258262890679791 ) ) ;
#50 = VERTEX_POINT ( 'NONE', #55 ) ;
#51 = VERTEX_POINT ( 'NONE', #34 ) ;
#52 = MANIFOLD_SOLID_BREP ( 'Mirror1', #28 ) ;
#53 = SURFACE_STYLE_FILL_AREA ( #72 ) ;
#54 = EDGE_CURVE ( 'NONE', #225, #51, #93, .T. ) ;
#55 = CARTESIAN_POINT ( 'NONE',  ( -0.02199999999999999872, -9.001153973733046171E-18, 2.500000000000000000 ) ) ;
#56 = CIRCLE ( 'NONE', #61, 0.1250000000000000000 ) ;
#57 = CARTESIAN_POINT ( 'NONE',  ( 0.0000000000000000000, 0.0000000000000000000, 2.500000000000000000 ) ) ;
#58 = ORIENTED_EDGE ( 'NONE', *, *, #78, .T. ) ;
#59 = CARTESIAN_POINT ( 'NONE',  ( 0.02199999999999999872, 0.0000000000000000000, 2.500000000000000000 ) ) ;
#60 = PRODUCT_DEFINITION_SHAPE ( 'NONE', 'NONE',  #167 ) ;
#61 = AXIS2_PLACEMENT_3D ( 'NONE', #202, #237, #65 ) ;
#62 = CARTESIAN_POINT ( 'NONE',  ( 0.02199999999999999872, 0.0000000000000000000, 2.500000000000000000 ) ) ;
#63 = CIRCLE ( 'NONE', #116, 0.1250000000000000000 ) ;
#64 = ORIENTED_EDGE ( 'NONE', *, *, #224, .F. ) ;
#65 = DIRECTION ( 'NONE',  ( -1.000000000000000000, 0.0000000000000000000, 0.0000000000000000000 ) ) ;
#66 = DIRECTION ( 'NONE',  ( 0.2588190451025216832, 0.0000000000000000000, -0.9659258262890679791 ) ) ;
#67 = CARTESIAN_POINT ( 'NONE',  ( -0.02199999999999999872, 2.694222958124176868E-18, 0.0000000000000000000 ) ) ;
#68 = COLOUR_RGB ( '',0.7921568627450980005, 0.8196078431372548767, 0.9333333333333333481 ) ;
#69 = PRODUCT_DEFINITION_FORMATION_WITH_SPECIFIED_SOURCE ( 'ANY', '', #95, .NOT_KNOWN. ) ;
#70 = CYLINDRICAL_SURFACE ( 'NONE', #41, 0.1250000000000000000 ) ;
#71 = ORIENTED_EDGE ( 'NONE', *, *, #54, .F. ) ;
#72 = FILL_AREA_STYLE ('',( #168 ) ) ;
#73 = EDGE_CURVE ( 'NONE', #98, #149, #111, .T. ) ;
#74 = ORIENTED_EDGE ( 'NONE', *, *, #211, .F. ) ;
#75 = UNCERTAINTY_MEASURE_WITH_UNIT (LENGTH_MEASURE( 1.000000000000000082E-05 ), #187, 'distance_accuracy_value', 'NONE');
#76 = ORIENTED_EDGE ( 'NONE', *, *, #78, .F. ) ;
#77 = DIRECTION ( 'NONE',  ( 0.0000000000000000000, 0.0000000000000000000, -1.000000000000000000 ) ) ;
#78 = EDGE_CURVE ( 'NONE', #225, #98, #178, .T. ) ;
#79 = CONICAL_SURFACE ( 'NONE', #208, 0.02199999999999999872, 0.2617993877991502960 ) ;
#80 = APPLICATION_CONTEXT ( 'automotive_design' ) ;
#81 = DIRECTION ( 'NONE',  ( -1.000000000000000000, 0.0000000000000000000, 0.0000000000000000000 ) ) ;
#82 = AXIS2_PLACEMENT_3D ( 'NONE', #44, #182, #5 ) ;
#83 = FILL_AREA_STYLE ('',( #198 ) ) ;
#84 =( NAMED_UNIT ( * ) PLANE_ANGLE_UNIT ( ) SI_UNIT ( $, .RADIAN. ) );
#85 = LINE ( 'NONE', #67, #153 ) ;
#86 = DIRECTION ( 'NONE',  ( -1.000000000000000000, 0.0000000000000000000, 0.0000000000000000000 ) ) ;
#87 = AXIS2_PLACEMENT_3D ( 'NONE', #15, #32, #107 ) ;
#88 = ADVANCED_FACE ( 'NONE', ( #186 ), #42, .T. ) ;
#89 = CARTESIAN_POINT ( 'NONE',  ( 0.0000000000000000000, 0.0000000000000000000, 0.3844012331795928494 ) ) ;
#90 =( LENGTH_UNIT ( ) NAMED_UNIT ( * ) SI_UNIT ( $, .METRE. ) );
#91 = AXIS2_PLACEMENT_3D ( 'NONE', #89, #45, #119 ) ;
#92 = DIRECTION ( 'NONE',  ( 1.000000000000000000, 0.0000000000000000000, 0.0000000000000000000 ) ) ;
#93 = LINE ( 'NONE', #17, #130 ) ;
#94 = CIRCLE ( 'NONE', #35, 0.02199999999999999872 ) ;
#95 = PRODUCT ( 'Micro_RTC-250-245X', 'Micro_RTC-250-245X', '', ( #184 ) ) ;
#96 = EDGE_CURVE ( 'NONE', #50, #225, #37, .T. ) ;
#97 = VECTOR ( 'NONE', #100, 39.37007874015748143 ) ;
#98 = VERTEX_POINT ( 'NONE', #156 ) ;
#99 =( CONVERSION_BASED_UNIT ( 'INCH', #115 ) LENGTH_UNIT ( ) NAMED_UNIT ( #154 ) );
#100 = DIRECTION ( 'NONE',  ( 0.2588190451025216832, 0.0000000000000000000, 0.9659258262890679791 ) ) ;
#101 = ORIENTED_EDGE ( 'NONE', *, *, #73, .T. ) ;
#102 = ADVANCED_BREP_SHAPE_REPRESENTATION ( 'Micro_RTC-250-245X', ( #52, #87 ), #38 ) ;
#103 = DIRECTION ( 'NONE',  ( 0.0000000000000000000, 0.0000000000000000000, -1.000000000000000000 ) ) ;
#104 = DIMENSIONAL_EXPONENTS ( 1.000000000000000000, 0.0000000000000000000, 0.0000000000000000000, 0.0000000000000000000, 0.0000000000000000000, 0.0000000000000000000, 0.0000000000000000000 ) ;
#105 = CARTESIAN_POINT ( 'NONE',  ( 0.0000000000000000000, 0.0000000000000000000, 2.500000000000000000 ) ) ;
#106 = ORIENTED_EDGE ( 'NONE', *, *, #54, .T. ) ;
#107 = DIRECTION ( 'NONE',  ( 1.000000000000000000, 0.0000000000000000000, 0.0000000000000000000 ) ) ;
#108 = FACE_OUTER_BOUND ( 'NONE', #181, .T. ) ;
#109 = SURFACE_SIDE_STYLE ('',( #53 ) ) ;
#110 = EDGE_CURVE ( 'NONE', #50, #47, #212, .T. ) ;
#111 = LINE ( 'NONE', #1, #159 ) ;
#112 = CARTESIAN_POINT ( 'NONE',  ( 0.0000000000000000000, 0.0000000000000000000, 2.500000000000000000 ) ) ;
#113 = PRESENTATION_LAYER_ASSIGNMENT (  '', '', ( #165 ) ) ;
#114 = CARTESIAN_POINT ( 'NONE',  ( 0.0000000000000000000, 0.0000000000000000000, 0.0000000000000000000 ) ) ;
#115 = LENGTH_MEASURE_WITH_UNIT ( LENGTH_MEASURE( 0.02539999999999999897 ), #39 );
#116 = AXIS2_PLACEMENT_3D ( 'NONE', #144, #103, #204 ) ;
#117 = FACE_OUTER_BOUND ( 'NONE', #25, .T. ) ;
#118 = CARTESIAN_POINT ( 'NONE',  ( 0.02199999999999999872, 0.0000000000000000000, 0.0000000000000000000 ) ) ;
#119 = DIRECTION ( 'NONE',  ( -1.000000000000000000, 0.0000000000000000000, 0.0000000000000000000 ) ) ;
#120 = DIRECTION ( 'NONE',  ( 1.000000000000000000, 0.0000000000000000000, 0.0000000000000000000 ) ) ;
#121 =( GEOMETRIC_REPRESENTATION_CONTEXT ( 3 ) GLOBAL_UNCERTAINTY_ASSIGNED_CONTEXT ( ( #75 ) ) GLOBAL_UNIT_ASSIGNED_CONTEXT ( ( #187, #189, #244 ) ) REPRESENTATION_CONTEXT ( 'NONE', 'WORKASPACE' ) );
#122 = FACE_OUTER_BOUND ( 'NONE', #19, .T. ) ;
#123 = CARTESIAN_POINT ( 'NONE',  ( 0.0000000000000000000, 0.0000000000000000000, 2.500000000000000000 ) ) ;
#124 = EDGE_LOOP ( 'NONE', ( #58, #101, #64, #71 ) ) ;
#125 = PLANE ( 'NONE',  #169 ) ;
#126 = PRODUCT_RELATED_PRODUCT_CATEGORY ( 'part', '', ( #95 ) ) ;
#127 = ORIENTED_EDGE ( 'NONE', *, *, #110, .F. ) ;
#128 = EDGE_LOOP ( 'NONE', ( #10, #232, #106, #176 ) ) ;
#129 = ORIENTED_EDGE ( 'NONE', *, *, #236, .T. ) ;
#130 = VECTOR ( 'NONE', #247, 39.37007874015748143 ) ;
#131 = UNCERTAINTY_MEASURE_WITH_UNIT (LENGTH_MEASURE( 1.000000000000000082E-05 ), #234, 'distance_accuracy_value', 'NONE');
#132 = DIRECTION ( 'NONE',  ( -0.0000000000000000000, -0.0000000000000000000, -1.000000000000000000 ) ) ;
#133 = DIRECTION ( 'NONE',  ( 1.000000000000000000, 0.0000000000000000000, 0.0000000000000000000 ) ) ;
#134 = ADVANCED_FACE ( 'NONE', ( #117 ), #172, .T. ) ;
#135 = FACE_OUTER_BOUND ( 'NONE', #124, .T. ) ;
#136 = ORIENTED_EDGE ( 'NONE', *, *, #96, .T. ) ;
#137 = AXIS2_PLACEMENT_3D ( 'NONE', #220, #216, #29 ) ;
#138 =( NAMED_UNIT ( * ) SI_UNIT ( $, .STERADIAN. ) SOLID_ANGLE_UNIT ( ) );
#139 = ADVANCED_FACE ( 'NONE', ( #135 ), #70, .T. ) ;
#140 = DIRECTION ( 'NONE',  ( 0.0000000000000000000, 0.0000000000000000000, 1.000000000000000000 ) ) ;
#141 = DIRECTION ( 'NONE',  ( 0.0000000000000000000, 0.0000000000000000000, -1.000000000000000000 ) ) ;
#142 = CARTESIAN_POINT ( 'NONE',  ( 0.0000000000000000000, 0.0000000000000000000, 2.500000000000000000 ) ) ;
#143 = CYLINDRICAL_SURFACE ( 'NONE', #137, 0.1250000000000000000 ) ;
#144 = CARTESIAN_POINT ( 'NONE',  ( 0.0000000000000000000, 0.0000000000000000000, 2.115598766820407040 ) ) ;
#145 = AXIS2_PLACEMENT_3D ( 'NONE', #20, #229, #174 ) ;
#146 = ORIENTED_EDGE ( 'NONE', *, *, #211, .T. ) ;
#147 = EDGE_CURVE ( 'NONE', #47, #98, #238, .T. ) ;
#148 = ORIENTED_EDGE ( 'NONE', *, *, #224, .T. ) ;
#149 = VERTEX_POINT ( 'NONE', #177 ) ;
#150 = FACE_OUTER_BOUND ( 'NONE', #217, .T. ) ;
#151 = DIRECTION ( 'NONE',  ( -1.000000000000000000, 0.0000000000000000000, 0.0000000000000000000 ) ) ;
#152 = ORIENTED_EDGE ( 'NONE', *, *, #214, .F. ) ;
#153 = VECTOR ( 'NONE', #49, 39.37007874015748143 ) ;
#154 = DIMENSIONAL_EXPONENTS ( 1.000000000000000000, 0.0000000000000000000, 0.0000000000000000000, 0.0000000000000000000, 0.0000000000000000000, 0.0000000000000000000, 0.0000000000000000000 ) ;
#155 = ADVANCED_FACE ( 'NONE', ( #108 ), #162, .T. ) ;
#156 = CARTESIAN_POINT ( 'NONE',  ( 0.1250000000000000000, 1.530808498934191509E-17, 2.115598766820407040 ) ) ;
#157 = SURFACE_SIDE_STYLE ('',( #213 ) ) ;
#158 = ORIENTED_EDGE ( 'NONE', *, *, #13, .F. ) ;
#159 = VECTOR ( 'NONE', #132, 39.37007874015748143 ) ;
#160 = CARTESIAN_POINT ( 'NONE',  ( 0.0000000000000000000, 0.0000000000000000000, 0.0000000000000000000 ) ) ;
#161 = ORIENTED_EDGE ( 'NONE', *, *, #214, .T. ) ;
#162 = PLANE ( 'NONE',  #3 ) ;
#163 = DIRECTION ( 'NONE',  ( 0.0000000000000000000, 0.0000000000000000000, 1.000000000000000000 ) ) ;
#164 = APPLICATION_PROTOCOL_DEFINITION ( 'draft international standard', 'automotive_design', 1998, #249 ) ;
#165 = STYLED_ITEM ( 'NONE', ( #36 ), #52 ) ;
#166 = CARTESIAN_POINT ( 'NONE',  ( 0.0000000000000000000, 0.0000000000000000000, 0.0000000000000000000 ) ) ;
#167 = PRODUCT_DEFINITION ( 'UNKNOWN', '', #69, #188 ) ;
#168 = FILL_AREA_STYLE_COLOUR ( '', #193 ) ;
#169 = AXIS2_PLACEMENT_3D ( 'NONE', #207, #31, #170 ) ;
#170 = DIRECTION ( 'NONE',  ( 1.000000000000000000, 0.0000000000000000000, -0.0000000000000000000 ) ) ;
#171 = EDGE_CURVE ( 'NONE', #98, #225, #63, .T. ) ;
#172 = CONICAL_SURFACE ( 'NONE', #145, 0.02199999999999999872, 0.2617993877991502960 ) ;
#173 = DIRECTION ( 'NONE',  ( 0.0000000000000000000, 0.0000000000000000000, 1.000000000000000000 ) ) ;
#174 = DIRECTION ( 'NONE',  ( 1.000000000000000000, 0.0000000000000000000, 0.0000000000000000000 ) ) ;
#175 = LENGTH_MEASURE_WITH_UNIT ( LENGTH_MEASURE( 0.02539999999999999897 ), #185 );
#176 = ORIENTED_EDGE ( 'NONE', *, *, #219, .F. ) ;
#177 = CARTESIAN_POINT ( 'NONE',  ( 0.1250000000000000000, 1.530808498934191509E-17, 0.3844012331795928494 ) ) ;
#178 = CIRCLE ( 'NONE', #248, 0.1250000000000000000 ) ;
#179 = DIMENSIONAL_EXPONENTS ( 1.000000000000000000, 0.0000000000000000000, 0.0000000000000000000, 0.0000000000000000000, 0.0000000000000000000, 0.0000000000000000000, 0.0000000000000000000 ) ;
#180 =( NAMED_UNIT ( * ) PLANE_ANGLE_UNIT ( ) SI_UNIT ( $, .RADIAN. ) );
#181 = EDGE_LOOP ( 'NONE', ( #158, #127 ) ) ;
#182 = DIRECTION ( 'NONE',  ( -0.0000000000000000000, -0.0000000000000000000, -1.000000000000000000 ) ) ;
#183 = ORIENTED_EDGE ( 'NONE', *, *, #171, .F. ) ;
#184 = PRODUCT_CONTEXT ( 'NONE', #80, 'mechanical' ) ;
#185 =( LENGTH_UNIT ( ) NAMED_UNIT ( * ) SI_UNIT ( $, .METRE. ) );
#186 = FACE_OUTER_BOUND ( 'NONE', #233, .T. ) ;
#187 =( CONVERSION_BASED_UNIT ( 'INCH', #243 ) LENGTH_UNIT ( ) NAMED_UNIT ( #104 ) );
#188 = PRODUCT_DEFINITION_CONTEXT ( 'detailed design', #249, 'design' ) ;
#189 =( NAMED_UNIT ( * ) PLANE_ANGLE_UNIT ( ) SI_UNIT ( $, .RADIAN. ) );
#190 = ORIENTED_EDGE ( 'NONE', *, *, #147, .T. ) ;
#191 = PRESENTATION_LAYER_ASSIGNMENT (  '', '', ( #210 ) ) ;
#192 = ADVANCED_FACE ( 'NONE', ( #7 ), #143, .T. ) ;
#193 = COLOUR_RGB ( '',0.7921568627450980005, 0.8196078431372548767, 0.9333333333333333481 ) ;
#194 = MECHANICAL_DESIGN_GEOMETRIC_PRESENTATION_REPRESENTATION (  '', ( #210 ), #227 ) ;
#195 = EDGE_CURVE ( 'NONE', #215, #201, #16, .T. ) ;
#196 = SURFACE_STYLE_USAGE ( .BOTH. , #157 ) ;
#197 = VECTOR ( 'NONE', #66, 39.37007874015748143 ) ;
#198 = FILL_AREA_STYLE_COLOUR ( '', #68 ) ;
#199 = DIRECTION ( 'NONE',  ( -0.0000000000000000000, -0.0000000000000000000, -1.000000000000000000 ) ) ;
#200 = ORIENTED_EDGE ( 'NONE', *, *, #13, .T. ) ;
#201 = VERTEX_POINT ( 'NONE', #46 ) ;
#202 = CARTESIAN_POINT ( 'NONE',  ( 0.0000000000000000000, 0.0000000000000000000, 0.3844012331795928494 ) ) ;
#203 = AXIS2_PLACEMENT_3D ( 'NONE', #160, #30, #86 ) ;
#204 = DIRECTION ( 'NONE',  ( -1.000000000000000000, 0.0000000000000000000, 0.0000000000000000000 ) ) ;
#205 = CARTESIAN_POINT ( 'NONE',  ( 0.02199999999999999872, 0.0000000000000000000, 0.0000000000000000000 ) ) ;
#206 = UNCERTAINTY_MEASURE_WITH_UNIT (LENGTH_MEASURE( 1.000000000000000082E-05 ), #99, 'distance_accuracy_value', 'NONE');
#207 = CARTESIAN_POINT ( 'NONE',  ( 0.0000000000000000000, 0.0000000000000000000, 0.0000000000000000000 ) ) ;
#208 = AXIS2_PLACEMENT_3D ( 'NONE', #105, #241, #120 ) ;
#209 = ADVANCED_FACE ( 'NONE', ( #122 ), #79, .T. ) ;
#210 = STYLED_ITEM ( 'NONE', ( #4 ), #102 ) ;
#211 = EDGE_CURVE ( 'NONE', #201, #215, #230, .T. ) ;
#212 = CIRCLE ( 'NONE', #9, 0.02199999999999999872 ) ;
#213 = SURFACE_STYLE_FILL_AREA ( #83 ) ;
#214 = EDGE_CURVE ( 'NONE', #215, #149, #218, .T. ) ;
#215 = VERTEX_POINT ( 'NONE', #118 ) ;
#216 = DIRECTION ( 'NONE',  ( -0.0000000000000000000, -0.0000000000000000000, -1.000000000000000000 ) ) ;
#217 = EDGE_LOOP ( 'NONE', ( #26, #146 ) ) ;
#218 = LINE ( 'NONE', #205, #97 ) ;
#219 = EDGE_CURVE ( 'NONE', #149, #51, #235, .T. ) ;
#220 = CARTESIAN_POINT ( 'NONE',  ( 0.0000000000000000000, 0.0000000000000000000, 2.500000000000000000 ) ) ;
#221 = CONICAL_SURFACE ( 'NONE', #22, 0.02199999999999999872, 0.2617993877991502960 ) ;
#222 = CARTESIAN_POINT ( 'NONE',  ( -0.1250000000000000000, 0.0000000000000000000, 2.115598766820407040 ) ) ;
#223 = EDGE_LOOP ( 'NONE', ( #74, #129, #148, #152 ) ) ;
#224 = EDGE_CURVE ( 'NONE', #51, #149, #56, .T. ) ;
#225 = VERTEX_POINT ( 'NONE', #222 ) ;
#226 = SURFACE_STYLE_USAGE ( .BOTH. , #109 ) ;
#227 =( GEOMETRIC_REPRESENTATION_CONTEXT ( 3 ) GLOBAL_UNCERTAINTY_ASSIGNED_CONTEXT ( ( #206 ) ) GLOBAL_UNIT_ASSIGNED_CONTEXT ( ( #99, #84, #138 ) ) REPRESENTATION_CONTEXT ( 'NONE', 'WORKASPACE' ) );
#228 = DIRECTION ( 'NONE',  ( -0.2588190451025216832, -3.169619151431776035E-17, -0.9659258262890679791 ) ) ;
#229 = DIRECTION ( 'NONE',  ( 0.0000000000000000000, 0.0000000000000000000, -1.000000000000000000 ) ) ;
#230 = CIRCLE ( 'NONE', #82, 0.02199999999999999872 ) ;
#231 = ORIENTED_EDGE ( 'NONE', *, *, #110, .T. ) ;
#232 = ORIENTED_EDGE ( 'NONE', *, *, #171, .T. ) ;
#233 = EDGE_LOOP ( 'NONE', ( #242, #33, #161, #6 ) ) ;
#234 =( CONVERSION_BASED_UNIT ( 'INCH', #175 ) LENGTH_UNIT ( ) NAMED_UNIT ( #179 ) );
#235 = CIRCLE ( 'NONE', #91, 0.1250000000000000000 ) ;
#236 = EDGE_CURVE ( 'NONE', #201, #51, #85, .T. ) ;
#237 = DIRECTION ( 'NONE',  ( -0.0000000000000000000, -0.0000000000000000000, -1.000000000000000000 ) ) ;
#238 = LINE ( 'NONE', #62, #197 ) ;
#239 = DIRECTION ( 'NONE',  ( -1.000000000000000000, 0.0000000000000000000, 0.0000000000000000000 ) ) ;
#240 = APPLICATION_PROTOCOL_DEFINITION ( 'draft international standard', 'automotive_design', 1998, #80 ) ;
#241 = DIRECTION ( 'NONE',  ( 0.0000000000000000000, 0.0000000000000000000, -1.000000000000000000 ) ) ;
#242 = ORIENTED_EDGE ( 'NONE', *, *, #236, .F. ) ;
#243 = LENGTH_MEASURE_WITH_UNIT ( LENGTH_MEASURE( 0.02539999999999999897 ), #90 );
#244 =( NAMED_UNIT ( * ) SI_UNIT ( $, .STERADIAN. ) SOLID_ANGLE_UNIT ( ) );
#245 = ORIENTED_EDGE ( 'NONE', *, *, #96, .F. ) ;
#246 = FACE_OUTER_BOUND ( 'NONE', #223, .T. ) ;
#247 = DIRECTION ( 'NONE',  ( -0.0000000000000000000, -0.0000000000000000000, -1.000000000000000000 ) ) ;
#248 = AXIS2_PLACEMENT_3D ( 'NONE', #43, #141, #239 ) ;
#249 = APPLICATION_CONTEXT ( 'automotive_design' ) ;
ENDSEC;
END-ISO-10303-21;
