ISO-10303-21;
HEADER;
FILE_DESCRIPTION (( 'STEP AP214' ),
    '1' );
FILE_NAME ('Micro_BMSM-014-2X.STEP',
    '2021-09-03T15:45:06',
    ( '' ),
    ( '' ),
    'SwSTEP 2.0',
    'SolidWorks 2020',
    '' );
FILE_SCHEMA (( 'AUTOMOTIVE_DESIGN' ));
ENDSEC;

DATA;
#1 = CIRCLE ( 'NONE', #218, 0.02753144100000000025 ) ;
#2 = VERTEX_POINT ( 'NONE', #96 ) ;
#3 = ORIENTED_EDGE ( 'NONE', *, *, #254, .F. ) ;
#4 = VERTEX_POINT ( 'NONE', #27 ) ;
#5 = FACE_OUTER_BOUND ( 'NONE', #196, .T. ) ;
#6 = CIRCLE ( 'NONE', #90, 0.05905500000000000332 ) ;
#7 = ORIENTED_EDGE ( 'NONE', *, *, #254, .T. ) ;
#8 =( NAMED_UNIT ( * ) PLANE_ANGLE_UNIT ( ) SI_UNIT ( $, .RADIAN. ) );
#9 = EDGE_LOOP ( 'NONE', ( #281, #151, #194 ) ) ;
#10 = LINE ( 'NONE', #108, #198 ) ;
#11 = ADVANCED_FACE ( 'NONE', ( #137 ), #204, .T. ) ;
#12 = PRODUCT_DEFINITION_FORMATION_WITH_SPECIFIED_SOURCE ( 'ANY', '', #106, .NOT_KNOWN. ) ;
#13 = DIRECTION ( 'NONE',  ( -1.000000000000000000, 0.0000000000000000000, 1.224646799147353207E-16 ) ) ;
#14 =( NAMED_UNIT ( * ) PLANE_ANGLE_UNIT ( ) SI_UNIT ( $, .RADIAN. ) );
#15 = CARTESIAN_POINT ( 'NONE',  ( 3.201912376542185292E-17, 0.0000000000000000000, 0.2614559870463452063 ) ) ;
#16 = EDGE_CURVE ( 'NONE', #177, #255, #21, .T. ) ;
#17 = LINE ( 'NONE', #157, #109 ) ;
#18 = CIRCLE ( 'NONE', #160, 0.02753144100000000025 ) ;
#19 = EDGE_CURVE ( 'NONE', #171, #177, #60, .T. ) ;
#20 = FILL_AREA_STYLE ('',( #65 ) ) ;
#21 = CIRCLE ( 'NONE', #121, 0.05905500000000000332 ) ;
#22 = AXIS2_PLACEMENT_3D ( 'NONE', #26, #170, #200 ) ;
#23 = CYLINDRICAL_SURFACE ( 'NONE', #253, 0.05905500000000000332 ) ;
#24 = EDGE_CURVE ( 'NONE', #255, #2, #17, .T. ) ;
#25 = VERTEX_POINT ( 'NONE', #39 ) ;
#26 = CARTESIAN_POINT ( 'NONE',  ( 1.012501234131057143E-17, 0.0000000000000000000, 0.08267699999999998661 ) ) ;
#27 = CARTESIAN_POINT ( 'NONE',  ( 0.02753144100000001412, 0.0000000000000000000, 0.08267699999999998661 ) ) ;
#28 = DIRECTION ( 'NONE',  ( 0.0000000000000000000, 1.000000000000000000, 0.0000000000000000000 ) ) ;
#29 = ORIENTED_EDGE ( 'NONE', *, *, #320, .F. ) ;
#30 = DIRECTION ( 'NONE',  ( -1.224646799147353207E-16, -0.0000000000000000000, -1.000000000000000000 ) ) ;
#31 = APPLICATION_CONTEXT ( 'automotive_design' ) ;
#32 = VERTEX_POINT ( 'NONE', #38 ) ;
#33 = LENGTH_MEASURE_WITH_UNIT ( LENGTH_MEASURE( 0.02539999999999999897 ), #149 );
#34 = ORIENTED_EDGE ( 'NONE', *, *, #104, .T. ) ;
#35 = CYLINDRICAL_SURFACE ( 'NONE', #305, 0.02753144100000000025 ) ;
#36 = CARTESIAN_POINT ( 'NONE',  ( 0.0000000000000000000, 0.0000000000000000000, 1.496062999999999921 ) ) ;
#37 = CIRCLE ( 'NONE', #131, 0.04405499999999973326 ) ;
#38 = CARTESIAN_POINT ( 'NONE',  ( 5.057443664484630936E-18, 0.0000000000000000000, 0.0000000000000000000 ) ) ;
#39 = CARTESIAN_POINT ( 'NONE',  ( -0.02753144099999999678, 0.0000000000000000000, 0.02753144100000000372 ) ) ;
#40 = UNCERTAINTY_MEASURE_WITH_UNIT (LENGTH_MEASURE( 1.000000000000000082E-05 ), #141, 'distance_accuracy_value', 'NONE');
#41 = MECHANICAL_DESIGN_GEOMETRIC_PRESENTATION_REPRESENTATION (  '', ( #83 ), #114 ) ;
#42 = ADVANCED_FACE ( 'NONE', ( #57 ), #140, .T. ) ;
#43 = DIRECTION ( 'NONE',  ( 0.0000000000000000000, 0.0000000000000000000, 1.000000000000000000 ) ) ;
#44 = VECTOR ( 'NONE', #152, 39.37007874015748143 ) ;
#45 = ADVANCED_FACE ( 'NONE', ( #206 ), #35, .T. ) ;
#46 = DIRECTION ( 'NONE',  ( 0.0000000000000000000, 0.0000000000000000000, -1.000000000000000000 ) ) ;
#47 = ORIENTED_EDGE ( 'NONE', *, *, #167, .F. ) ;
#48 = CARTESIAN_POINT ( 'NONE',  ( 3.371629109656420496E-18, 0.0000000000000000000, 0.02753144100000000025 ) ) ;
#49 = VERTEX_POINT ( 'NONE', #61 ) ;
#50 = PRESENTATION_LAYER_ASSIGNMENT (  '', '', ( #139 ) ) ;
#51 = DIRECTION ( 'NONE',  ( -1.000000000000000000, 1.224646799147353207E-16, 0.0000000000000000000 ) ) ;
#52 = ORIENTED_EDGE ( 'NONE', *, *, #181, .F. ) ;
#53 = ORIENTED_EDGE ( 'NONE', *, *, #299, .F. ) ;
#54 = EDGE_LOOP ( 'NONE', ( #81, #309, #298, #230 ) ) ;
#55 = FILL_AREA_STYLE_COLOUR ( '', #68 ) ;
#56 = AXIS2_PLACEMENT_3D ( 'NONE', #223, #251, #303 ) ;
#57 = FACE_OUTER_BOUND ( 'NONE', #54, .T. ) ;
#58 = SURFACE_SIDE_STYLE ('',( #263 ) ) ;
#59 = DIRECTION ( 'NONE',  ( 1.224646799147353207E-16, 0.0000000000000000000, 1.000000000000000000 ) ) ;
#60 = LINE ( 'NONE', #202, #252 ) ;
#61 = CARTESIAN_POINT ( 'NONE',  ( 0.02753144100000000372, 3.371629109656420496E-18, 0.02753144099999999678 ) ) ;
#62 = EDGE_CURVE ( 'NONE', #255, #177, #245, .T. ) ;
#63 = CARTESIAN_POINT ( 'NONE',  ( 0.0000000000000000000, 0.0000000000000000000, 1.496062999999999921 ) ) ;
#64 =( GEOMETRIC_REPRESENTATION_CONTEXT ( 3 ) GLOBAL_UNCERTAINTY_ASSIGNED_CONTEXT ( ( #208 ) ) GLOBAL_UNIT_ASSIGNED_CONTEXT ( ( #296, #144, #273 ) ) REPRESENTATION_CONTEXT ( 'NONE', 'WORKASPACE' ) );
#65 = FILL_AREA_STYLE_COLOUR ( '', #285 ) ;
#66 = DIMENSIONAL_EXPONENTS ( 1.000000000000000000, 0.0000000000000000000, 0.0000000000000000000, 0.0000000000000000000, 0.0000000000000000000, 0.0000000000000000000, 0.0000000000000000000 ) ;
#67 = PLANE ( 'NONE',  #191 ) ;
#68 = COLOUR_RGB ( '',0.7921568627450980005, 0.8196078431372548767, 0.9333333333333333481 ) ;
#69 = DIRECTION ( 'NONE',  ( 1.000000000000000000, 0.0000000000000000000, -0.0000000000000000000 ) ) ;
#70 = ORIENTED_EDGE ( 'NONE', *, *, #16, .T. ) ;
#71 = DIRECTION ( 'NONE',  ( -1.000000000000000000, 0.0000000000000000000, 1.550413757892444147E-16 ) ) ;
#72 = ORIENTED_EDGE ( 'NONE', *, *, #164, .T. ) ;
#73 = FACE_OUTER_BOUND ( 'NONE', #9, .T. ) ;
#74 = PRODUCT_RELATED_PRODUCT_CATEGORY ( 'part', '', ( #106 ) ) ;
#75 = DIRECTION ( 'NONE',  ( -0.0000000000000000000, -0.0000000000000000000, -1.000000000000000000 ) ) ;
#76 = EDGE_LOOP ( 'NONE', ( #70, #99, #3, #150 ) ) ;
#77 = AXIS2_PLACEMENT_3D ( 'NONE', #15, #142, #111 ) ;
#78 = AXIS2_PLACEMENT_3D ( 'NONE', #189, #295, #244 ) ;
#79 =( NAMED_UNIT ( * ) SI_UNIT ( $, .STERADIAN. ) SOLID_ANGLE_UNIT ( ) );
#80 = VERTEX_POINT ( 'NONE', #85 ) ;
#81 = ORIENTED_EDGE ( 'NONE', *, *, #203, .T. ) ;
#82 = DIRECTION ( 'NONE',  ( -1.224646799147353207E-16, -0.0000000000000000000, -1.000000000000000000 ) ) ;
#83 = STYLED_ITEM ( 'NONE', ( #319 ), #287 ) ;
#84 = CARTESIAN_POINT ( 'NONE',  ( 0.0000000000000000000, 0.0000000000000000000, 0.0000000000000000000 ) ) ;
#85 = CARTESIAN_POINT ( 'NONE',  ( -0.05905499999999996863, 0.0000000000000000000, 0.2614559870463452063 ) ) ;
#86 = CARTESIAN_POINT ( 'NONE',  ( 0.0000000000000000000, 0.0000000000000000000, 0.0000000000000000000 ) ) ;
#87 = CIRCLE ( 'NONE', #323, 0.02753144100000000025 ) ;
#88 = SURFACE_STYLE_FILL_AREA ( #20 ) ;
#89 = FACE_OUTER_BOUND ( 'NONE', #148, .T. ) ;
#90 = AXIS2_PLACEMENT_3D ( 'NONE', #193, #30, #220 ) ;
#91 = CLOSED_SHELL ( 'NONE', ( #316, #42, #283, #187, #237, #11, #216, #129, #122, #45, #270 ) ) ;
#92 = DIRECTION ( 'NONE',  ( 0.0000000000000000000, 0.0000000000000000000, 1.000000000000000000 ) ) ;
#93 = DIRECTION ( 'NONE',  ( -1.000000000000000000, 0.0000000000000000000, 0.0000000000000000000 ) ) ;
#94 = CIRCLE ( 'NONE', #78, 0.02753144100000000372 ) ;
#95 = DIRECTION ( 'NONE',  ( 1.000000000000000000, 0.0000000000000000000, 0.0000000000000000000 ) ) ;
#96 = CARTESIAN_POINT ( 'NONE',  ( 0.05905500000000004496, 7.232151672364700045E-18, 0.2614559870463452063 ) ) ;
#97 = EDGE_CURVE ( 'NONE', #282, #80, #185, .T. ) ;
#98 = DIRECTION ( 'NONE',  ( -1.224646799147353207E-16, -0.0000000000000000000, -1.000000000000000000 ) ) ;
#99 = ORIENTED_EDGE ( 'NONE', *, *, #24, .T. ) ;
#100 = CARTESIAN_POINT ( 'NONE',  ( 0.05905500000000000332, 7.232151672364695422E-18, 1.481062999999999574 ) ) ;
#101 = ORIENTED_EDGE ( 'NONE', *, *, #242, .T. ) ;
#102 = VECTOR ( 'NONE', #98, 39.37007874015748143 ) ;
#103 = FACE_OUTER_BOUND ( 'NONE', #192, .T. ) ;
#104 = EDGE_CURVE ( 'NONE', #2, #80, #213, .T. ) ;
#105 = EDGE_LOOP ( 'NONE', ( #29, #128, #219, #222 ) ) ;
#106 = PRODUCT ( 'Micro_BMSM-014-2X', 'Micro_BMSM-014-2X', '', ( #211 ) ) ;
#107 = FACE_OUTER_BOUND ( 'NONE', #176, .T. ) ;
#108 = CARTESIAN_POINT ( 'NONE',  ( -0.05905500000000000332, 0.0000000000000000000, 1.496062999999999921 ) ) ;
#109 = VECTOR ( 'NONE', #182, 39.37007874015748143 ) ;
#110 = DIRECTION ( 'NONE',  ( 1.000000000000000000, 0.0000000000000000000, 0.0000000000000000000 ) ) ;
#111 = DIRECTION ( 'NONE',  ( 1.000000000000000000, 0.0000000000000000000, 0.0000000000000000000 ) ) ;
#112 = DIRECTION ( 'NONE',  ( 1.224646799147353207E-16, 0.0000000000000000000, 1.000000000000000000 ) ) ;
#113 = DIRECTION ( 'NONE',  ( 1.000000000000000000, 0.0000000000000000000, 0.0000000000000000000 ) ) ;
#114 =( GEOMETRIC_REPRESENTATION_CONTEXT ( 3 ) GLOBAL_UNCERTAINTY_ASSIGNED_CONTEXT ( ( #40 ) ) GLOBAL_UNIT_ASSIGNED_CONTEXT ( ( #141, #14, #240 ) ) REPRESENTATION_CONTEXT ( 'NONE', 'WORKASPACE' ) );
#115 = EDGE_CURVE ( 'NONE', #25, #49, #87, .T. ) ;
#116 = SURFACE_STYLE_USAGE ( .BOTH. , #143 ) ;
#117 = CIRCLE ( 'NONE', #308, 0.02753144100000000025 ) ;
#118 = DIMENSIONAL_EXPONENTS ( 1.000000000000000000, 0.0000000000000000000, 0.0000000000000000000, 0.0000000000000000000, 0.0000000000000000000, 0.0000000000000000000, 0.0000000000000000000 ) ;
#119 = CARTESIAN_POINT ( 'NONE',  ( -0.04405499999999973326, 0.0000000000000000000, 1.496062999999999921 ) ) ;
#120 = CARTESIAN_POINT ( 'NONE',  ( 3.371629109656420496E-18, 0.0000000000000000000, 0.02753144100000000025 ) ) ;
#121 = AXIS2_PLACEMENT_3D ( 'NONE', #231, #207, #315 ) ;
#122 = ADVANCED_FACE ( 'NONE', ( #107 ), #174, .T. ) ;
#123 = ORIENTED_EDGE ( 'NONE', *, *, #324, .F. ) ;
#124 = LINE ( 'NONE', #195, #186 ) ;
#125 = EDGE_LOOP ( 'NONE', ( #53, #227, #250, #224 ) ) ;
#126 = UNCERTAINTY_MEASURE_WITH_UNIT (LENGTH_MEASURE( 1.000000000000000082E-05 ), #127, 'distance_accuracy_value', 'NONE');
#127 =( CONVERSION_BASED_UNIT ( 'INCH', #33 ) LENGTH_UNIT ( ) NAMED_UNIT ( #118 ) );
#128 = ORIENTED_EDGE ( 'NONE', *, *, #138, .T. ) ;
#129 = ADVANCED_FACE ( 'NONE', ( #265 ), #267, .T. ) ;
#130 = VERTEX_POINT ( 'NONE', #209 ) ;
#131 = AXIS2_PLACEMENT_3D ( 'NONE', #63, #43, #162 ) ;
#132 = CARTESIAN_POINT ( 'NONE',  ( -0.02753144099999999678, 5.301890391010557766E-18, 0.08267699999999998661 ) ) ;
#133 = ORIENTED_EDGE ( 'NONE', *, *, #229, .T. ) ;
#134 =( LENGTH_UNIT ( ) NAMED_UNIT ( * ) SI_UNIT ( $, .METRE. ) );
#135 = DIRECTION ( 'NONE',  ( -1.000000000000000000, 0.0000000000000000000, 0.0000000000000000000 ) ) ;
#136 = LENGTH_MEASURE_WITH_UNIT ( LENGTH_MEASURE( 0.02539999999999999897 ), #134 );
#137 = FACE_OUTER_BOUND ( 'NONE', #153, .T. ) ;
#138 = EDGE_CURVE ( 'NONE', #4, #282, #272, .T. ) ;
#139 = STYLED_ITEM ( 'NONE', ( #243 ), #221 ) ;
#140 = CYLINDRICAL_SURFACE ( 'NONE', #234, 0.02753144100000000025 ) ;
#141 =( CONVERSION_BASED_UNIT ( 'INCH', #136 ) LENGTH_UNIT ( ) NAMED_UNIT ( #247 ) );
#142 = DIRECTION ( 'NONE',  ( -1.224646799147353207E-16, -0.0000000000000000000, -1.000000000000000000 ) ) ;
#143 = SURFACE_SIDE_STYLE ('',( #88 ) ) ;
#144 =( NAMED_UNIT ( * ) PLANE_ANGLE_UNIT ( ) SI_UNIT ( $, .RADIAN. ) );
#145 = AXIS2_PLACEMENT_3D ( 'NONE', #239, #112, #266 ) ;
#146 = EDGE_LOOP ( 'NONE', ( #47, #199, #259, #301 ) ) ;
#147 = SPHERICAL_SURFACE ( 'NONE', #56, 0.02753144100000000025 ) ;
#148 = EDGE_LOOP ( 'NONE', ( #101, #201 ) ) ;
#149 =( LENGTH_UNIT ( ) NAMED_UNIT ( * ) SI_UNIT ( $, .METRE. ) );
#150 = ORIENTED_EDGE ( 'NONE', *, *, #164, .F. ) ;
#151 = ORIENTED_EDGE ( 'NONE', *, *, #324, .T. ) ;
#152 = DIRECTION ( 'NONE',  ( -1.224646799147353207E-16, -0.0000000000000000000, -1.000000000000000000 ) ) ;
#153 = EDGE_LOOP ( 'NONE', ( #275, #278, #72, #175 ) ) ;
#154 = CONICAL_SURFACE ( 'NONE', #241, 0.04405499999999973326, 0.7853981633974491672 ) ;
#155 = FILL_AREA_STYLE ('',( #55 ) ) ;
#156 = DIRECTION ( 'NONE',  ( -1.000000000000000000, 0.0000000000000000000, 0.0000000000000000000 ) ) ;
#157 = CARTESIAN_POINT ( 'NONE',  ( 0.05905500000000000332, 7.232151672364695422E-18, 1.496062999999999921 ) ) ;
#158 = SHAPE_DEFINITION_REPRESENTATION ( #232, #287 ) ;
#159 = DIRECTION ( 'NONE',  ( -1.000000000000000000, 0.0000000000000000000, 1.550413757892444147E-16 ) ) ;
#160 = AXIS2_PLACEMENT_3D ( 'NONE', #48, #225, #71 ) ;
#161 = DIRECTION ( 'NONE',  ( 0.0000000000000000000, 0.0000000000000000000, -1.000000000000000000 ) ) ;
#162 = DIRECTION ( 'NONE',  ( 1.000000000000000000, 0.0000000000000000000, 0.0000000000000000000 ) ) ;
#163 = AXIS2_PLACEMENT_3D ( 'NONE', #312, #82, #135 ) ;
#164 = EDGE_CURVE ( 'NONE', #177, #80, #10, .T. ) ;
#165 = LENGTH_MEASURE_WITH_UNIT ( LENGTH_MEASURE( 0.02539999999999999897 ), #217 );
#166 = CARTESIAN_POINT ( 'NONE',  ( 0.0000000000000000000, 0.0000000000000000000, 1.496062999999999921 ) ) ;
#167 = EDGE_CURVE ( 'NONE', #130, #171, #37, .T. ) ;
#168 = CARTESIAN_POINT ( 'NONE',  ( 0.0000000000000000000, 0.0000000000000000000, 1.496062999999999921 ) ) ;
#169 = ORIENTED_EDGE ( 'NONE', *, *, #97, .T. ) ;
#170 = DIRECTION ( 'NONE',  ( 1.224646799147353207E-16, 0.0000000000000000000, 1.000000000000000000 ) ) ;
#171 = VERTEX_POINT ( 'NONE', #119 ) ;
#172 = DIRECTION ( 'NONE',  ( 1.000000000000000000, 0.0000000000000000000, 0.0000000000000000000 ) ) ;
#173 = VECTOR ( 'NONE', #268, 39.37007874015747433 ) ;
#174 = CONICAL_SURFACE ( 'NONE', #145, 0.02753144100000000372, 0.1745329251994338915 ) ;
#175 = ORIENTED_EDGE ( 'NONE', *, *, #104, .F. ) ;
#176 = EDGE_LOOP ( 'NONE', ( #284, #304, #257, #34 ) ) ;
#177 = VERTEX_POINT ( 'NONE', #249 ) ;
#178 = CARTESIAN_POINT ( 'NONE',  ( -0.02753144100000000025, 0.0000000000000000000, 3.371629109656420496E-18 ) ) ;
#179 = DIRECTION ( 'NONE',  ( -1.224646799147353207E-16, -0.0000000000000000000, -1.000000000000000000 ) ) ;
#180 = CONICAL_SURFACE ( 'NONE', #22, 0.02753144100000000372, 0.1745329251994338915 ) ;
#181 = EDGE_CURVE ( 'NONE', #4, #2, #271, .T. ) ;
#182 = DIRECTION ( 'NONE',  ( -0.0000000000000000000, -0.0000000000000000000, -1.000000000000000000 ) ) ;
#183 = DIRECTION ( 'NONE',  ( -1.000000000000000000, 0.0000000000000000000, 1.224646799147353207E-16 ) ) ;
#184 = APPLICATION_CONTEXT ( 'automotive_design' ) ;
#185 = LINE ( 'NONE', #290, #173 ) ;
#186 = VECTOR ( 'NONE', #256, 39.37007874015748143 ) ;
#187 = ADVANCED_FACE ( 'NONE', ( #190 ), #154, .T. ) ;
#188 = DIRECTION ( 'NONE',  ( 0.0000000000000000000, 0.0000000000000000000, -1.000000000000000000 ) ) ;
#189 = CARTESIAN_POINT ( 'NONE',  ( 1.012501234131057143E-17, 0.0000000000000000000, 0.08267699999999998661 ) ) ;
#190 = FACE_OUTER_BOUND ( 'NONE', #146, .T. ) ;
#191 = AXIS2_PLACEMENT_3D ( 'NONE', #166, #92, #69 ) ;
#192 = EDGE_LOOP ( 'NONE', ( #311, #169, #7, #52 ) ) ;
#193 = CARTESIAN_POINT ( 'NONE',  ( 3.201912376542185292E-17, 0.0000000000000000000, 0.2614559870463452063 ) ) ;
#194 = ORIENTED_EDGE ( 'NONE', *, *, #246, .F. ) ;
#195 = CARTESIAN_POINT ( 'NONE',  ( 0.04405499999999973326, 5.395181473643630390E-18, 1.496062999999999921 ) ) ;
#196 = EDGE_LOOP ( 'NONE', ( #123, #133, #262 ) ) ;
#197 = LINE ( 'NONE', #178, #102 ) ;
#198 = VECTOR ( 'NONE', #75, 39.37007874015748143 ) ;
#199 = ORIENTED_EDGE ( 'NONE', *, *, #299, .T. ) ;
#200 = DIRECTION ( 'NONE',  ( 1.000000000000000000, 0.0000000000000000000, 0.0000000000000000000 ) ) ;
#201 = ORIENTED_EDGE ( 'NONE', *, *, #167, .T. ) ;
#202 = CARTESIAN_POINT ( 'NONE',  ( -0.04405499999999973326, 0.0000000000000000000, 1.496062999999999921 ) ) ;
#203 = EDGE_CURVE ( 'NONE', #282, #4, #94, .T. ) ;
#204 = CYLINDRICAL_SURFACE ( 'NONE', #313, 0.05905500000000000332 ) ;
#205 = MECHANICAL_DESIGN_GEOMETRIC_PRESENTATION_REPRESENTATION (  '', ( #139 ), #64 ) ;
#206 = FACE_OUTER_BOUND ( 'NONE', #105, .T. ) ;
#207 = DIRECTION ( 'NONE',  ( 0.0000000000000000000, 0.0000000000000000000, -1.000000000000000000 ) ) ;
#208 = UNCERTAINTY_MEASURE_WITH_UNIT (LENGTH_MEASURE( 1.000000000000000082E-05 ), #296, 'distance_accuracy_value', 'NONE');
#209 = CARTESIAN_POINT ( 'NONE',  ( 0.04405499999999973326, 6.313666573004162521E-18, 1.496062999999999921 ) ) ;
#210 = CIRCLE ( 'NONE', #235, 0.04405499999999973326 ) ;
#211 = PRODUCT_CONTEXT ( 'NONE', #31, 'mechanical' ) ;
#212 = DIRECTION ( 'NONE',  ( -1.000000000000000000, 0.0000000000000000000, 0.0000000000000000000 ) ) ;
#213 = CIRCLE ( 'NONE', #77, 0.05905500000000000332 ) ;
#214 = DIRECTION ( 'NONE',  ( 0.1736481776669313859, 0.0000000000000000000, 0.9848077530122077983 ) ) ;
#215 = DIRECTION ( 'NONE',  ( 0.0000000000000000000, -1.000000000000000000, 0.0000000000000000000 ) ) ;
#216 = ADVANCED_FACE ( 'NONE', ( #89 ), #67, .T. ) ;
#217 =( LENGTH_UNIT ( ) NAMED_UNIT ( * ) SI_UNIT ( $, .METRE. ) );
#218 = AXIS2_PLACEMENT_3D ( 'NONE', #260, #279, #51 ) ;
#219 = ORIENTED_EDGE ( 'NONE', *, *, #294, .T. ) ;
#220 = DIRECTION ( 'NONE',  ( 1.000000000000000000, 0.0000000000000000000, 0.0000000000000000000 ) ) ;
#221 = MANIFOLD_SOLID_BREP ( 'Fillet1', #91 ) ;
#222 = ORIENTED_EDGE ( 'NONE', *, *, #115, .T. ) ;
#223 = CARTESIAN_POINT ( 'NONE',  ( 3.371629109656420496E-18, 0.0000000000000000000, 0.02753144100000000025 ) ) ;
#224 = ORIENTED_EDGE ( 'NONE', *, *, #62, .F. ) ;
#225 = DIRECTION ( 'NONE',  ( 1.224646799147353207E-16, 0.0000000000000000000, 1.000000000000000000 ) ) ;
#226 =( GEOMETRIC_REPRESENTATION_CONTEXT ( 3 ) GLOBAL_UNCERTAINTY_ASSIGNED_CONTEXT ( ( #126 ) ) GLOBAL_UNIT_ASSIGNED_CONTEXT ( ( #127, #8, #79 ) ) REPRESENTATION_CONTEXT ( 'NONE', 'WORKASPACE' ) );
#227 = ORIENTED_EDGE ( 'NONE', *, *, #242, .F. ) ;
#228 = SPHERICAL_SURFACE ( 'NONE', #292, 0.02753144100000000025 ) ;
#229 = EDGE_CURVE ( 'NONE', #32, #49, #117, .T. ) ;
#230 = ORIENTED_EDGE ( 'NONE', *, *, #294, .F. ) ;
#231 = CARTESIAN_POINT ( 'NONE',  ( 0.0000000000000000000, 0.0000000000000000000, 1.481062999999999574 ) ) ;
#232 = PRODUCT_DEFINITION_SHAPE ( 'NONE', 'NONE',  #277 ) ;
#233 = DIRECTION ( 'NONE',  ( -0.7071067811865482389, 0.0000000000000000000, -0.7071067811865469066 ) ) ;
#234 = AXIS2_PLACEMENT_3D ( 'NONE', #86, #317, #13 ) ;
#235 = AXIS2_PLACEMENT_3D ( 'NONE', #300, #276, #95 ) ;
#236 = CARTESIAN_POINT ( 'NONE',  ( 0.0000000000000000000, 0.0000000000000000000, 1.481062999999999574 ) ) ;
#237 = ADVANCED_FACE ( 'NONE', ( #248 ), #23, .T. ) ;
#238 = DIRECTION ( 'NONE',  ( 0.0000000000000000000, 0.0000000000000000000, 1.000000000000000000 ) ) ;
#239 = CARTESIAN_POINT ( 'NONE',  ( 1.012501234131057143E-17, 0.0000000000000000000, 0.08267699999999998661 ) ) ;
#240 =( NAMED_UNIT ( * ) SI_UNIT ( $, .STERADIAN. ) SOLID_ANGLE_UNIT ( ) );
#241 = AXIS2_PLACEMENT_3D ( 'NONE', #321, #188, #93 ) ;
#242 = EDGE_CURVE ( 'NONE', #171, #130, #210, .T. ) ;
#243 = PRESENTATION_STYLE_ASSIGNMENT (( #116 ) ) ;
#244 = DIRECTION ( 'NONE',  ( -1.000000000000000000, 0.0000000000000000000, 0.0000000000000000000 ) ) ;
#245 = CIRCLE ( 'NONE', #322, 0.05905500000000000332 ) ;
#246 = EDGE_CURVE ( 'NONE', #49, #25, #18, .T. ) ;
#247 = DIMENSIONAL_EXPONENTS ( 1.000000000000000000, 0.0000000000000000000, 0.0000000000000000000, 0.0000000000000000000, 0.0000000000000000000, 0.0000000000000000000, 0.0000000000000000000 ) ;
#248 = FACE_OUTER_BOUND ( 'NONE', #76, .T. ) ;
#249 = CARTESIAN_POINT ( 'NONE',  ( -0.05905500000000000332, 0.0000000000000000000, 1.481062999999999574 ) ) ;
#250 = ORIENTED_EDGE ( 'NONE', *, *, #19, .T. ) ;
#251 = DIRECTION ( 'NONE',  ( 0.0000000000000000000, 1.000000000000000000, 0.0000000000000000000 ) ) ;
#252 = VECTOR ( 'NONE', #233, 39.37007874015748143 ) ;
#253 = AXIS2_PLACEMENT_3D ( 'NONE', #168, #274, #212 ) ;
#254 = EDGE_CURVE ( 'NONE', #80, #2, #6, .T. ) ;
#255 = VERTEX_POINT ( 'NONE', #100 ) ;
#256 = DIRECTION ( 'NONE',  ( 0.7071067811865482389, 8.659560562354941486E-17, -0.7071067811865469066 ) ) ;
#257 = ORIENTED_EDGE ( 'NONE', *, *, #181, .T. ) ;
#258 = APPLICATION_PROTOCOL_DEFINITION ( 'draft international standard', 'automotive_design', 1998, #31 ) ;
#259 = ORIENTED_EDGE ( 'NONE', *, *, #16, .F. ) ;
#260 = CARTESIAN_POINT ( 'NONE',  ( 3.371629109656420496E-18, 0.0000000000000000000, 0.02753144100000000025 ) ) ;
#261 = PRESENTATION_LAYER_ASSIGNMENT (  '', '', ( #83 ) ) ;
#262 = ORIENTED_EDGE ( 'NONE', *, *, #115, .F. ) ;
#263 = SURFACE_STYLE_FILL_AREA ( #155 ) ;
#264 = DIRECTION ( 'NONE',  ( -0.0000000000000000000, -0.0000000000000000000, -1.000000000000000000 ) ) ;
#265 = FACE_OUTER_BOUND ( 'NONE', #125, .T. ) ;
#266 = DIRECTION ( 'NONE',  ( 1.000000000000000000, 0.0000000000000000000, 0.0000000000000000000 ) ) ;
#267 = CONICAL_SURFACE ( 'NONE', #280, 0.04405499999999973326, 0.7853981633974491672 ) ;
#268 = DIRECTION ( 'NONE',  ( -0.1736481776669311916, 2.126576849575783316E-17, 0.9848077530122080203 ) ) ;
#269 = APPLICATION_PROTOCOL_DEFINITION ( 'draft international standard', 'automotive_design', 1998, #184 ) ;
#270 = ADVANCED_FACE ( 'NONE', ( #5 ), #147, .T. ) ;
#271 = LINE ( 'NONE', #297, #307 ) ;
#272 = CIRCLE ( 'NONE', #163, 0.02753144100000000372 ) ;
#273 =( NAMED_UNIT ( * ) SI_UNIT ( $, .STERADIAN. ) SOLID_ANGLE_UNIT ( ) );
#274 = DIRECTION ( 'NONE',  ( -0.0000000000000000000, -0.0000000000000000000, -1.000000000000000000 ) ) ;
#275 = ORIENTED_EDGE ( 'NONE', *, *, #24, .F. ) ;
#276 = DIRECTION ( 'NONE',  ( 0.0000000000000000000, 0.0000000000000000000, 1.000000000000000000 ) ) ;
#277 = PRODUCT_DEFINITION ( 'UNKNOWN', '', #12, #302 ) ;
#278 = ORIENTED_EDGE ( 'NONE', *, *, #62, .T. ) ;
#279 = DIRECTION ( 'NONE',  ( 1.224646799147353207E-16, 1.000000000000000000, -0.0000000000000000000 ) ) ;
#280 = AXIS2_PLACEMENT_3D ( 'NONE', #36, #286, #156 ) ;
#281 = ORIENTED_EDGE ( 'NONE', *, *, #229, .F. ) ;
#282 = VERTEX_POINT ( 'NONE', #132 ) ;
#283 = ADVANCED_FACE ( 'NONE', ( #103 ), #180, .T. ) ;
#284 = ORIENTED_EDGE ( 'NONE', *, *, #97, .F. ) ;
#285 = COLOUR_RGB ( '',0.7921568627450980005, 0.8196078431372548767, 0.9333333333333333481 ) ;
#286 = DIRECTION ( 'NONE',  ( 0.0000000000000000000, 0.0000000000000000000, -1.000000000000000000 ) ) ;
#287 = ADVANCED_BREP_SHAPE_REPRESENTATION ( 'Micro_BMSM-014-2X', ( #221, #314 ), #226 ) ;
#288 = CARTESIAN_POINT ( 'NONE',  ( 3.371629109656420496E-18, 0.0000000000000000000, 0.02753144100000000025 ) ) ;
#289 = SURFACE_STYLE_USAGE ( .BOTH. , #58 ) ;
#290 = CARTESIAN_POINT ( 'NONE',  ( -0.02753144099999999678, 3.371629109656420881E-18, 0.08267699999999998661 ) ) ;
#291 = DIRECTION ( 'NONE',  ( -1.000000000000000000, 0.0000000000000000000, 0.0000000000000000000 ) ) ;
#292 = AXIS2_PLACEMENT_3D ( 'NONE', #120, #28, #172 ) ;
#293 = CARTESIAN_POINT ( 'NONE',  ( 0.0000000000000000000, 0.0000000000000000000, 0.0000000000000000000 ) ) ;
#294 = EDGE_CURVE ( 'NONE', #282, #25, #197, .T. ) ;
#295 = DIRECTION ( 'NONE',  ( -1.224646799147353207E-16, -0.0000000000000000000, -1.000000000000000000 ) ) ;
#296 =( CONVERSION_BASED_UNIT ( 'INCH', #165 ) LENGTH_UNIT ( ) NAMED_UNIT ( #66 ) );
#297 = CARTESIAN_POINT ( 'NONE',  ( 0.02753144100000001412, 0.0000000000000000000, 0.08267699999999998661 ) ) ;
#298 = ORIENTED_EDGE ( 'NONE', *, *, #246, .T. ) ;
#299 = EDGE_CURVE ( 'NONE', #130, #255, #124, .T. ) ;
#300 = CARTESIAN_POINT ( 'NONE',  ( 0.0000000000000000000, 0.0000000000000000000, 1.496062999999999921 ) ) ;
#301 = ORIENTED_EDGE ( 'NONE', *, *, #19, .F. ) ;
#302 = PRODUCT_DEFINITION_CONTEXT ( 'detailed design', #184, 'design' ) ;
#303 = DIRECTION ( 'NONE',  ( 1.000000000000000000, 0.0000000000000000000, 0.0000000000000000000 ) ) ;
#304 = ORIENTED_EDGE ( 'NONE', *, *, #138, .F. ) ;
#305 = AXIS2_PLACEMENT_3D ( 'NONE', #84, #179, #183 ) ;
#306 = CARTESIAN_POINT ( 'NONE',  ( 0.02753144100000000025, 3.371629109656420496E-18, -3.371629109656420496E-18 ) ) ;
#307 = VECTOR ( 'NONE', #214, 39.37007874015748143 ) ;
#308 = AXIS2_PLACEMENT_3D ( 'NONE', #325, #215, #46 ) ;
#309 = ORIENTED_EDGE ( 'NONE', *, *, #320, .T. ) ;
#310 = LINE ( 'NONE', #306, #44 ) ;
#311 = ORIENTED_EDGE ( 'NONE', *, *, #203, .F. ) ;
#312 = CARTESIAN_POINT ( 'NONE',  ( 1.012501234131057143E-17, 0.0000000000000000000, 0.08267699999999998661 ) ) ;
#313 = AXIS2_PLACEMENT_3D ( 'NONE', #318, #264, #291 ) ;
#314 = AXIS2_PLACEMENT_3D ( 'NONE', #293, #238, #113 ) ;
#315 = DIRECTION ( 'NONE',  ( 1.000000000000000000, 0.0000000000000000000, 0.0000000000000000000 ) ) ;
#316 = ADVANCED_FACE ( 'NONE', ( #73 ), #228, .T. ) ;
#317 = DIRECTION ( 'NONE',  ( -1.224646799147353207E-16, -0.0000000000000000000, -1.000000000000000000 ) ) ;
#318 = CARTESIAN_POINT ( 'NONE',  ( 0.0000000000000000000, 0.0000000000000000000, 1.496062999999999921 ) ) ;
#319 = PRESENTATION_STYLE_ASSIGNMENT (( #289 ) ) ;
#320 = EDGE_CURVE ( 'NONE', #4, #49, #310, .T. ) ;
#321 = CARTESIAN_POINT ( 'NONE',  ( 0.0000000000000000000, 0.0000000000000000000, 1.496062999999999921 ) ) ;
#322 = AXIS2_PLACEMENT_3D ( 'NONE', #236, #161, #110 ) ;
#323 = AXIS2_PLACEMENT_3D ( 'NONE', #288, #59, #159 ) ;
#324 = EDGE_CURVE ( 'NONE', #32, #25, #1, .T. ) ;
#325 = CARTESIAN_POINT ( 'NONE',  ( 3.371629109656420496E-18, 0.0000000000000000000, 0.02753144100000000025 ) ) ;
ENDSEC;
END-ISO-10303-21;
