ISO-10303-21;
HEADER;
FILE_DESCRIPTION (( 'STEP AP214' ),
    '1' );
FILE_NAME ('81806.STEP',
    '2023-06-23T03:17:35',
    ( '' ),
    ( '' ),
    'SwSTEP 2.0',
    'SolidWorks 2023',
    '' );
FILE_SCHEMA (( 'AUTOMOTIVE_DESIGN' ));
ENDSEC;

DATA;
#1 = EDGE_CURVE ( 'NONE', #66, #203, #274, .T. ) ;
#2 = LENGTH_MEASURE_WITH_UNIT ( LENGTH_MEASURE( 0.02539999999999999897 ), #216 );
#3 = STYLED_ITEM ( 'NONE', ( #103 ), #258 ) ;
#4 =( NAMED_UNIT ( * ) PLANE_ANGLE_UNIT ( ) SI_UNIT ( $, .RADIAN. ) );
#5 = PRODUCT_DEFINITION ( 'UNKNOWN', '', #102, #225 ) ;
#6 = MECHANICAL_DESIGN_GEOMETRIC_PRESENTATION_REPRESENTATION (  '', ( #219 ), #116 ) ;
#7 = FILL_AREA_STYLE ('',( #96 ) ) ;
#8 = DIRECTION ( 'NONE',  ( 0.000000000000000000, -1.000000000000000000, -0.000000000000000000 ) ) ;
#9 = ADVANCED_FACE ( 'NONE', ( #307 ), #188, .T. ) ;
#10 = FILL_AREA_STYLE ('',( #118 ) ) ;
#11 = AXIS2_PLACEMENT_3D ( 'NONE', #301, #191, #220 ) ;
#12 = APPLICATION_CONTEXT ( 'automotive_design' ) ;
#13 = DIRECTION ( 'NONE',  ( -1.000000000000000000, 0.000000000000000000, 0.000000000000000000 ) ) ;
#14 =( LENGTH_UNIT ( ) NAMED_UNIT ( * ) SI_UNIT ( $, .METRE. ) );
#15 = CARTESIAN_POINT ( 'NONE',  ( 1.147775343873870077E-34, 0.7500000000000001110, 0.000000000000000000 ) ) ;
#16 = EDGE_CURVE ( 'NONE', #77, #75, #281, .T. ) ;
#17 = PRESENTATION_LAYER_ASSIGNMENT (  '', '', ( #204 ) ) ;
#18 = MECHANICAL_DESIGN_GEOMETRIC_PRESENTATION_REPRESENTATION (  '', ( #3 ), #221 ) ;
#19 = ORIENTED_EDGE ( 'NONE', *, *, #69, .F. ) ;
#20 = LINE ( 'NONE', #173, #47 ) ;
#21 = DIRECTION ( 'NONE',  ( 0.000000000000000000, 0.000000000000000000, 1.000000000000000000 ) ) ;
#22 = FILL_AREA_STYLE_COLOUR ( '', #132 ) ;
#23 = STYLED_ITEM ( 'NONE', ( #145 ), #34 ) ;
#24 = DIRECTION ( 'NONE',  ( -0.000000000000000000, -1.000000000000000000, -0.000000000000000000 ) ) ;
#25 = EDGE_CURVE ( 'NONE', #203, #66, #175, .T. ) ;
#26 = DIRECTION ( 'NONE',  ( -1.000000000000000000, 0.000000000000000000, 0.000000000000000000 ) ) ;
#27 = SURFACE_STYLE_FILL_AREA ( #185 ) ;
#28 = CARTESIAN_POINT ( 'NONE',  ( 0.000000000000000000, 0.000000000000000000, 0.000000000000000000 ) ) ;
#29 = DIMENSIONAL_EXPONENTS ( 1.000000000000000000, 0.000000000000000000, 0.000000000000000000, 0.000000000000000000, 0.000000000000000000, 0.000000000000000000, 0.000000000000000000 ) ;
#30 = CIRCLE ( 'NONE', #139, 0.1875000000000000555 ) ;
#31 = MECHANICAL_DESIGN_GEOMETRIC_PRESENTATION_REPRESENTATION (  '', ( #283 ), #72 ) ;
#32 = LENGTH_MEASURE_WITH_UNIT ( LENGTH_MEASURE( 0.02539999999999999897 ), #168 );
#33 = SURFACE_STYLE_USAGE ( .BOTH. , #105 ) ;
#34 = ADVANCED_FACE ( 'NONE', ( #100 ), #295, .T. ) ;
#35 = CYLINDRICAL_SURFACE ( 'NONE', #171, 0.1874999999999999722 ) ;
#36 = AXIS2_PLACEMENT_3D ( 'NONE', #124, #254, #208 ) ;
#37 = SURFACE_STYLE_USAGE ( .BOTH. , #293 ) ;
#38 = SURFACE_STYLE_USAGE ( .BOTH. , #86 ) ;
#39 = UNCERTAINTY_MEASURE_WITH_UNIT (LENGTH_MEASURE( 1.000000000000000082E-05 ), #40, 'distance_accuracy_value', 'NONE');
#40 =( CONVERSION_BASED_UNIT ( 'INCH', #61 ) LENGTH_UNIT ( ) NAMED_UNIT ( #144 ) );
#41 = SURFACE_STYLE_USAGE ( .BOTH. , #177 ) ;
#42 = AXIS2_PLACEMENT_3D ( 'NONE', #199, #150, #255 ) ;
#43 = SURFACE_SIDE_STYLE ('',( #147 ) ) ;
#44 = FACE_OUTER_BOUND ( 'NONE', #240, .T. ) ;
#45 = FILL_AREA_STYLE_COLOUR ( '', #218 ) ;
#46 = PLANE ( 'NONE',  #232 ) ;
#47 = VECTOR ( 'NONE', #113, 39.37007874015748143 ) ;
#48 = CARTESIAN_POINT ( 'NONE',  ( 0.000000000000000000, 0.000000000000000000, 0.000000000000000000 ) ) ;
#49 = ORIENTED_EDGE ( 'NONE', *, *, #1, .T. ) ;
#50 = ORIENTED_EDGE ( 'NONE', *, *, #119, .T. ) ;
#51 = LINE ( 'NONE', #190, #146 ) ;
#52 = CIRCLE ( 'NONE', #265, 0.1874999999999999722 ) ;
#53 = ORIENTED_EDGE ( 'NONE', *, *, #78, .F. ) ;
#54 =( NAMED_UNIT ( * ) PLANE_ANGLE_UNIT ( ) SI_UNIT ( $, .RADIAN. ) );
#55 = CIRCLE ( 'NONE', #227, 0.1874999999999999722 ) ;
#56 = PRESENTATION_LAYER_ASSIGNMENT (  '', '', ( #3 ) ) ;
#57 = UNCERTAINTY_MEASURE_WITH_UNIT (LENGTH_MEASURE( 1.000000000000000082E-05 ), #120, 'distance_accuracy_value', 'NONE');
#58 = EDGE_CURVE ( 'NONE', #282, #92, #55, .T. ) ;
#59 = DIRECTION ( 'NONE',  ( 0.000000000000000000, 0.000000000000000000, -1.000000000000000000 ) ) ;
#60 = FACE_OUTER_BOUND ( 'NONE', #112, .T. ) ;
#61 = LENGTH_MEASURE_WITH_UNIT ( LENGTH_MEASURE( 0.02539999999999999897 ), #228 );
#62 = CARTESIAN_POINT ( 'NONE',  ( -7.582401355855259480E-33, 0.7499999999999998890, 0.000000000000000000 ) ) ;
#63 = CARTESIAN_POINT ( 'NONE',  ( -0.1875000000000001110, 2.500000000000000000, 0.000000000000000000 ) ) ;
#64 = DIRECTION ( 'NONE',  ( 0.000000000000000000, -0.000000000000000000, 1.000000000000000000 ) ) ;
#65 =( NAMED_UNIT ( * ) PLANE_ANGLE_UNIT ( ) SI_UNIT ( $, .RADIAN. ) );
#66 = VERTEX_POINT ( 'NONE', #257 ) ;
#67 =( LENGTH_UNIT ( ) NAMED_UNIT ( * ) SI_UNIT ( $, .METRE. ) );
#68 = CARTESIAN_POINT ( 'NONE',  ( 0.1874999999999999722, 0.7499999999999998890, 2.296212748401287726E-17 ) ) ;
#69 = EDGE_CURVE ( 'NONE', #183, #129, #30, .T. ) ;
#70 = ORIENTED_EDGE ( 'NONE', *, *, #119, .F. ) ;
#71 = CYLINDRICAL_SURFACE ( 'NONE', #42, 0.1875000000000000278 ) ;
#72 =( GEOMETRIC_REPRESENTATION_CONTEXT ( 3 ) GLOBAL_UNCERTAINTY_ASSIGNED_CONTEXT ( ( #57 ) ) GLOBAL_UNIT_ASSIGNED_CONTEXT ( ( #120, #4, #248 ) ) REPRESENTATION_CONTEXT ( 'NONE', 'WORKASPACE' ) );
#73 = ORIENTED_EDGE ( 'NONE', *, *, #1, .F. ) ;
#74 = CARTESIAN_POINT ( 'NONE',  ( 0.000000000000000000, 0.7500000000000001110, 0.000000000000000000 ) ) ;
#75 = VERTEX_POINT ( 'NONE', #198 ) ;
#76 =( NAMED_UNIT ( * ) SI_UNIT ( $, .STERADIAN. ) SOLID_ANGLE_UNIT ( ) );
#77 = VERTEX_POINT ( 'NONE', #231 ) ;
#78 = EDGE_CURVE ( 'NONE', #92, #282, #52, .T. ) ;
#79 = AXIS2_PLACEMENT_3D ( 'NONE', #28, #21, #234 ) ;
#80 = DIRECTION ( 'NONE',  ( -0.000000000000000000, -1.000000000000000000, -0.000000000000000000 ) ) ;
#81 = DIMENSIONAL_EXPONENTS ( 1.000000000000000000, 0.000000000000000000, 0.000000000000000000, 0.000000000000000000, 0.000000000000000000, 0.000000000000000000, 0.000000000000000000 ) ;
#82 =( GEOMETRIC_REPRESENTATION_CONTEXT ( 3 ) GLOBAL_UNCERTAINTY_ASSIGNED_CONTEXT ( ( #39 ) ) GLOBAL_UNIT_ASSIGNED_CONTEXT ( ( #40, #164, #98 ) ) REPRESENTATION_CONTEXT ( 'NONE', 'WORKASPACE' ) );
#83 =( CONVERSION_BASED_UNIT ( 'INCH', #224 ) LENGTH_UNIT ( ) NAMED_UNIT ( #169 ) );
#84 = PRESENTATION_STYLE_ASSIGNMENT (( #38 ) ) ;
#85 = CARTESIAN_POINT ( 'NONE',  ( 0.000000000000000000, 0.000000000000000000, 0.000000000000000000 ) ) ;
#86 = SURFACE_SIDE_STYLE ('',( #223 ) ) ;
#87 = UNCERTAINTY_MEASURE_WITH_UNIT (LENGTH_MEASURE( 1.000000000000000082E-05 ), #277, 'distance_accuracy_value', 'NONE');
#88 =( NAMED_UNIT ( * ) SI_UNIT ( $, .STERADIAN. ) SOLID_ANGLE_UNIT ( ) );
#89 = DIRECTION ( 'NONE',  ( 0.000000000000000000, 1.000000000000000000, 0.000000000000000000 ) ) ;
#90 =( NAMED_UNIT ( * ) PLANE_ANGLE_UNIT ( ) SI_UNIT ( $, .RADIAN. ) );
#91 = LINE ( 'NONE', #154, #123 ) ;
#92 = VERTEX_POINT ( 'NONE', #68 ) ;
#93 = ORIENTED_EDGE ( 'NONE', *, *, #285, .F. ) ;
#94 = CLOSED_SHELL ( 'NONE', ( #200, #273, #258, #34 ) ) ;
#95 = ORIENTED_EDGE ( 'NONE', *, *, #25, .T. ) ;
#96 = FILL_AREA_STYLE_COLOUR ( '', #244 ) ;
#97 = ORIENTED_EDGE ( 'NONE', *, *, #69, .T. ) ;
#98 =( NAMED_UNIT ( * ) SI_UNIT ( $, .STERADIAN. ) SOLID_ANGLE_UNIT ( ) );
#99 = CARTESIAN_POINT ( 'NONE',  ( 2.296212748401287109E-17, 0.000000000000000000, 0.1875000000000000278 ) ) ;
#100 = FACE_OUTER_BOUND ( 'NONE', #186, .T. ) ;
#101 = COLOUR_RGB ( '',1.000000000000000000, 0.000000000000000000, 0.000000000000000000 ) ;
#102 = PRODUCT_DEFINITION_FORMATION_WITH_SPECIFIED_SOURCE ( 'ANY', '', #214, .NOT_KNOWN. ) ;
#103 = PRESENTATION_STYLE_ASSIGNMENT (( #33 ) ) ;
#104 = ADVANCED_BREP_SHAPE_REPRESENTATION ( '81806', ( #128, #245, #79 ), #82 ) ;
#105 = SURFACE_SIDE_STYLE ('',( #246 ) ) ;
#106 = DIRECTION ( 'NONE',  ( 0.000000000000000000, 0.000000000000000000, -1.000000000000000000 ) ) ;
#107 = CIRCLE ( 'NONE', #121, 0.1874999999999999722 ) ;
#108 = DIRECTION ( 'NONE',  ( 0.000000000000000000, 0.000000000000000000, -1.000000000000000000 ) ) ;
#109 = DIRECTION ( 'NONE',  ( -3.498990854706722745E-17, 1.000000000000000000, -0.000000000000000000 ) ) ;
#110 =( CONVERSION_BASED_UNIT ( 'INCH', #302 ) LENGTH_UNIT ( ) NAMED_UNIT ( #81 ) );
#111 = CARTESIAN_POINT ( 'NONE',  ( -6.123233995736766036E-17, 2.500000000000000000, 0.000000000000000000 ) ) ;
#112 = EDGE_LOOP ( 'NONE', ( #114, #206 ) ) ;
#113 = DIRECTION ( 'NONE',  ( -3.498990854706722745E-17, 1.000000000000000000, -0.000000000000000000 ) ) ;
#114 = ORIENTED_EDGE ( 'NONE', *, *, #229, .F. ) ;
#115 = ORIENTED_EDGE ( 'NONE', *, *, #285, .T. ) ;
#116 =( GEOMETRIC_REPRESENTATION_CONTEXT ( 3 ) GLOBAL_UNCERTAINTY_ASSIGNED_CONTEXT ( ( #87 ) ) GLOBAL_UNIT_ASSIGNED_CONTEXT ( ( #277, #90, #88 ) ) REPRESENTATION_CONTEXT ( 'NONE', 'WORKASPACE' ) );
#117 = ORIENTED_EDGE ( 'NONE', *, *, #222, .T. ) ;
#118 = FILL_AREA_STYLE_COLOUR ( '', #163 ) ;
#119 = EDGE_CURVE ( 'NONE', #75, #66, #91, .T. ) ;
#120 =( CONVERSION_BASED_UNIT ( 'INCH', #32 ) LENGTH_UNIT ( ) NAMED_UNIT ( #194 ) );
#121 = AXIS2_PLACEMENT_3D ( 'NONE', #74, #264, #159 ) ;
#122 = UNCERTAINTY_MEASURE_WITH_UNIT (LENGTH_MEASURE( 1.000000000000000082E-05 ), #110, 'distance_accuracy_value', 'NONE');
#123 = VECTOR ( 'NONE', #253, 39.37007874015748143 ) ;
#124 = CARTESIAN_POINT ( 'NONE',  ( 0.1874999999999999722, 2.500000000000000000, 0.000000000000000000 ) ) ;
#125 = PRESENTATION_STYLE_ASSIGNMENT (( #41 ) ) ;
#126 = SURFACE_STYLE_USAGE ( .BOTH. , #43 ) ;
#127 = PLANE ( 'NONE',  #149 ) ;
#128 = MANIFOLD_SOLID_BREP ( 'Revolve - Cutting Edge', #94 ) ;
#129 = VERTEX_POINT ( 'NONE', #63 ) ;
#130 =( GEOMETRIC_REPRESENTATION_CONTEXT ( 3 ) GLOBAL_UNCERTAINTY_ASSIGNED_CONTEXT ( ( #195 ) ) GLOBAL_UNIT_ASSIGNED_CONTEXT ( ( #275, #65, #305 ) ) REPRESENTATION_CONTEXT ( 'NONE', 'WORKASPACE' ) );
#131 = LENGTH_MEASURE_WITH_UNIT ( LENGTH_MEASURE( 0.02539999999999999897 ), #278 );
#132 = COLOUR_RGB ( '',1.000000000000000000, 0.000000000000000000, 0.000000000000000000 ) ;
#133 = UNCERTAINTY_MEASURE_WITH_UNIT (LENGTH_MEASURE( 1.000000000000000082E-05 ), #308, 'distance_accuracy_value', 'NONE');
#134 = ORIENTED_EDGE ( 'NONE', *, *, #215, .T. ) ;
#135 = ORIENTED_EDGE ( 'NONE', *, *, #242, .T. ) ;
#136 = ADVANCED_FACE ( 'NONE', ( #280 ), #71, .T. ) ;
#137 = ORIENTED_EDGE ( 'NONE', *, *, #242, .F. ) ;
#138 = DIRECTION ( 'NONE',  ( -3.498990854706722745E-17, 1.000000000000000000, -0.000000000000000000 ) ) ;
#139 = AXIS2_PLACEMENT_3D ( 'NONE', #111, #109, #13 ) ;
#140 = MECHANICAL_DESIGN_GEOMETRIC_PRESENTATION_REPRESENTATION (  '', ( #266 ), #176 ) ;
#141 = DIRECTION ( 'NONE',  ( -3.498990854706722745E-17, 1.000000000000000000, -0.000000000000000000 ) ) ;
#142 = FILL_AREA_STYLE ('',( #251 ) ) ;
#143 =( LENGTH_UNIT ( ) NAMED_UNIT ( * ) SI_UNIT ( $, .METRE. ) );
#144 = DIMENSIONAL_EXPONENTS ( 1.000000000000000000, 0.000000000000000000, 0.000000000000000000, 0.000000000000000000, 0.000000000000000000, 0.000000000000000000, 0.000000000000000000 ) ;
#145 = PRESENTATION_STYLE_ASSIGNMENT (( #37 ) ) ;
#146 = VECTOR ( 'NONE', #80, 39.37007874015748143 ) ;
#147 = SURFACE_STYLE_FILL_AREA ( #201 ) ;
#148 = DIRECTION ( 'NONE',  ( -1.000000000000000000, 0.000000000000000000, 0.000000000000000000 ) ) ;
#149 = AXIS2_PLACEMENT_3D ( 'NONE', #15, #152, #162 ) ;
#150 = DIRECTION ( 'NONE',  ( -3.498990854706722745E-17, 1.000000000000000000, -0.000000000000000000 ) ) ;
#151 = PLANE ( 'NONE',  #36 ) ;
#152 = DIRECTION ( 'NONE',  ( -3.498990854706722745E-17, 1.000000000000000000, 0.000000000000000000 ) ) ;
#153 = EDGE_LOOP ( 'NONE', ( #137, #209, #115, #19 ) ) ;
#154 = CARTESIAN_POINT ( 'NONE',  ( 0.000000000000000000, 0.000000000000000000, -0.1874999999999999722 ) ) ;
#155 = ORIENTED_EDGE ( 'NONE', *, *, #25, .F. ) ;
#156 = AXIS2_PLACEMENT_3D ( 'NONE', #249, #8, #106 ) ;
#157 = PRODUCT_CONTEXT ( 'NONE', #241, 'mechanical' ) ;
#158 = VECTOR ( 'NONE', #138, 39.37007874015748143 ) ;
#159 = DIRECTION ( 'NONE',  ( 0.000000000000000000, 0.000000000000000000, -1.000000000000000000 ) ) ;
#160 = DIRECTION ( 'NONE',  ( -3.498990854706722745E-17, 1.000000000000000000, -0.000000000000000000 ) ) ;
#161 = PRODUCT_DEFINITION_SHAPE ( 'NONE', 'NONE',  #5 ) ;
#162 = DIRECTION ( 'NONE',  ( -1.000000000000000000, -3.498990854706722745E-17, 0.000000000000000000 ) ) ;
#163 = COLOUR_RGB ( '',0.7921568627450980005, 0.8196078431372548767, 0.9333333333333333481 ) ;
#164 =( NAMED_UNIT ( * ) PLANE_ANGLE_UNIT ( ) SI_UNIT ( $, .RADIAN. ) );
#165 = AXIS2_PLACEMENT_3D ( 'NONE', #85, #292, #59 ) ;
#166 = ADVANCED_FACE ( 'NONE', ( #44 ), #127, .F. ) ;
#167 =( NAMED_UNIT ( * ) SI_UNIT ( $, .STERADIAN. ) SOLID_ANGLE_UNIT ( ) );
#168 =( LENGTH_UNIT ( ) NAMED_UNIT ( * ) SI_UNIT ( $, .METRE. ) );
#169 = DIMENSIONAL_EXPONENTS ( 1.000000000000000000, 0.000000000000000000, 0.000000000000000000, 0.000000000000000000, 0.000000000000000000, 0.000000000000000000, 0.000000000000000000 ) ;
#170 = AXIS2_PLACEMENT_3D ( 'NONE', #287, #141, #26 ) ;
#171 = AXIS2_PLACEMENT_3D ( 'NONE', #179, #299, #108 ) ;
#172 = SURFACE_STYLE_FILL_AREA ( #142 ) ;
#173 = CARTESIAN_POINT ( 'NONE',  ( -0.1875000000000000833, 2.500000000000000000, 0.000000000000000000 ) ) ;
#174 = CARTESIAN_POINT ( 'NONE',  ( -0.1874999999999999722, 0.7499999999999998890, 0.000000000000000000 ) ) ;
#175 = CIRCLE ( 'NONE', #165, 0.1875000000000000278 ) ;
#176 =( GEOMETRIC_REPRESENTATION_CONTEXT ( 3 ) GLOBAL_UNCERTAINTY_ASSIGNED_CONTEXT ( ( #133 ) ) GLOBAL_UNIT_ASSIGNED_CONTEXT ( ( #308, #54, #76 ) ) REPRESENTATION_CONTEXT ( 'NONE', 'WORKASPACE' ) );
#177 = SURFACE_SIDE_STYLE ('',( #300 ) ) ;
#178 = EDGE_LOOP ( 'NONE', ( #181, #134, #73, #70 ) ) ;
#179 = CARTESIAN_POINT ( 'NONE',  ( 0.000000000000000000, 0.000000000000000000, 0.000000000000000000 ) ) ;
#180 = DIRECTION ( 'NONE',  ( -1.000000000000000000, 0.000000000000000000, 0.000000000000000000 ) ) ;
#181 = ORIENTED_EDGE ( 'NONE', *, *, #229, .T. ) ;
#182 = SHAPE_DEFINITION_REPRESENTATION ( #161, #104 ) ;
#183 = VERTEX_POINT ( 'NONE', #290 ) ;
#184 = APPLICATION_PROTOCOL_DEFINITION ( 'draft international standard', 'automotive_design', 1998, #241 ) ;
#185 = FILL_AREA_STYLE ('',( #22 ) ) ;
#186 = EDGE_LOOP ( 'NONE', ( #49, #95 ) ) ;
#187 = CARTESIAN_POINT ( 'NONE',  ( 0.000000000000000000, 0.000000000000000000, 0.000000000000000000 ) ) ;
#188 = CYLINDRICAL_SURFACE ( 'NONE', #170, 0.1875000000000000278 ) ;
#189 = PRESENTATION_LAYER_ASSIGNMENT (  '', '', ( #283 ) ) ;
#190 = CARTESIAN_POINT ( 'NONE',  ( 2.296212748401286801E-17, 0.000000000000000000, 0.1874999999999999722 ) ) ;
#191 = DIRECTION ( 'NONE',  ( -0.000000000000000000, -1.000000000000000000, -0.000000000000000000 ) ) ;
#192 = DIMENSIONAL_EXPONENTS ( 1.000000000000000000, 0.000000000000000000, 0.000000000000000000, 0.000000000000000000, 0.000000000000000000, 0.000000000000000000, 0.000000000000000000 ) ;
#193 = CARTESIAN_POINT ( 'NONE',  ( -7.582401355855259480E-33, 0.7499999999999998890, 0.000000000000000000 ) ) ;
#194 = DIMENSIONAL_EXPONENTS ( 1.000000000000000000, 0.000000000000000000, 0.000000000000000000, 0.000000000000000000, 0.000000000000000000, 0.000000000000000000, 0.000000000000000000 ) ;
#195 = UNCERTAINTY_MEASURE_WITH_UNIT (LENGTH_MEASURE( 1.000000000000000082E-05 ), #275, 'distance_accuracy_value', 'NONE');
#196 = MECHANICAL_DESIGN_GEOMETRIC_PRESENTATION_REPRESENTATION (  '', ( #204 ), #130 ) ;
#197 = LENGTH_MEASURE_WITH_UNIT ( LENGTH_MEASURE( 0.02539999999999999897 ), #14 );
#198 = CARTESIAN_POINT ( 'NONE',  ( 0.000000000000000000, 0.7500000000000001110, -0.1874999999999999722 ) ) ;
#199 = CARTESIAN_POINT ( 'NONE',  ( -6.123233995736766036E-17, 2.500000000000000000, 0.000000000000000000 ) ) ;
#200 = ADVANCED_FACE ( 'NONE', ( #288 ), #238, .T. ) ;
#201 = FILL_AREA_STYLE ('',( #256 ) ) ;
#202 = FILL_AREA_STYLE ('',( #45 ) ) ;
#203 = VERTEX_POINT ( 'NONE', #99 ) ;
#204 = STYLED_ITEM ( 'NONE', ( #125 ), #128 ) ;
#205 = DIRECTION ( 'NONE',  ( -3.498990854706722745E-17, 1.000000000000000000, -0.000000000000000000 ) ) ;
#206 = ORIENTED_EDGE ( 'NONE', *, *, #16, .F. ) ;
#207 = DIMENSIONAL_EXPONENTS ( 1.000000000000000000, 0.000000000000000000, 0.000000000000000000, 0.000000000000000000, 0.000000000000000000, 0.000000000000000000, 0.000000000000000000 ) ;
#208 = DIRECTION ( 'NONE',  ( 1.000000000000000000, 3.498990854706722745E-17, 0.000000000000000000 ) ) ;
#209 = ORIENTED_EDGE ( 'NONE', *, *, #78, .T. ) ;
#210 = DIRECTION ( 'NONE',  ( 0.000000000000000000, 0.000000000000000000, -1.000000000000000000 ) ) ;
#211 = APPLICATION_PROTOCOL_DEFINITION ( 'draft international standard', 'automotive_design', 1998, #12 ) ;
#212 = COLOUR_RGB ( '',1.000000000000000000, 0.000000000000000000, 0.000000000000000000 ) ;
#213 = EDGE_LOOP ( 'NONE', ( #286, #309, #50, #155 ) ) ;
#214 = PRODUCT ( '81806', '81806', '', ( #157 ) ) ;
#215 = EDGE_CURVE ( 'NONE', #77, #203, #51, .T. ) ;
#216 =( LENGTH_UNIT ( ) NAMED_UNIT ( * ) SI_UNIT ( $, .METRE. ) );
#217 = PRESENTATION_STYLE_ASSIGNMENT (( #267 ) ) ;
#218 = COLOUR_RGB ( '',0.7921568627450980005, 0.8196078431372548767, 0.9333333333333333481 ) ;
#219 = STYLED_ITEM ( 'NONE', ( #272 ), #273 ) ;
#220 = DIRECTION ( 'NONE',  ( 0.000000000000000000, 0.000000000000000000, -1.000000000000000000 ) ) ;
#221 =( GEOMETRIC_REPRESENTATION_CONTEXT ( 3 ) GLOBAL_UNCERTAINTY_ASSIGNED_CONTEXT ( ( #122 ) ) GLOBAL_UNIT_ASSIGNED_CONTEXT ( ( #110, #226, #230 ) ) REPRESENTATION_CONTEXT ( 'NONE', 'WORKASPACE' ) );
#222 = EDGE_CURVE ( 'NONE', #129, #183, #289, .T. ) ;
#223 = SURFACE_STYLE_FILL_AREA ( #10 ) ;
#224 = LENGTH_MEASURE_WITH_UNIT ( LENGTH_MEASURE( 0.02539999999999999897 ), #143 );
#225 = PRODUCT_DEFINITION_CONTEXT ( 'detailed design', #12, 'design' ) ;
#226 =( NAMED_UNIT ( * ) PLANE_ANGLE_UNIT ( ) SI_UNIT ( $, .RADIAN. ) );
#227 = AXIS2_PLACEMENT_3D ( 'NONE', #193, #303, #180 ) ;
#228 =( LENGTH_UNIT ( ) NAMED_UNIT ( * ) SI_UNIT ( $, .METRE. ) );
#229 = EDGE_CURVE ( 'NONE', #75, #77, #107, .T. ) ;
#230 =( NAMED_UNIT ( * ) SI_UNIT ( $, .STERADIAN. ) SOLID_ANGLE_UNIT ( ) );
#231 = CARTESIAN_POINT ( 'NONE',  ( 2.296212748401286801E-17, 0.7500000000000001110, 0.1874999999999999722 ) ) ;
#232 = AXIS2_PLACEMENT_3D ( 'NONE', #233, #89, #64 ) ;
#233 = CARTESIAN_POINT ( 'NONE',  ( 0.000000000000000000, 0.7500000000000001110, 0.000000000000000000 ) ) ;
#234 = DIRECTION ( 'NONE',  ( 1.000000000000000000, 0.000000000000000000, 0.000000000000000000 ) ) ;
#235 = SURFACE_SIDE_STYLE ('',( #27 ) ) ;
#236 = DIRECTION ( 'NONE',  ( -0.000000000000000000, -1.000000000000000000, -0.000000000000000000 ) ) ;
#237 = CARTESIAN_POINT ( 'NONE',  ( 0.1874999999999999445, 2.500000000000000000, 2.296212748401287726E-17 ) ) ;
#238 = CYLINDRICAL_SURFACE ( 'NONE', #298, 0.1874999999999999722 ) ;
#239 = PRODUCT_RELATED_PRODUCT_CATEGORY ( 'part', '', ( #214 ) ) ;
#240 = EDGE_LOOP ( 'NONE', ( #259, #53 ) ) ;
#241 = APPLICATION_CONTEXT ( 'automotive_design' ) ;
#242 = EDGE_CURVE ( 'NONE', #92, #183, #262, .T. ) ;
#243 =( GEOMETRIC_REPRESENTATION_CONTEXT ( 3 ) GLOBAL_UNCERTAINTY_ASSIGNED_CONTEXT ( ( #250 ) ) GLOBAL_UNIT_ASSIGNED_CONTEXT ( ( #83, #247, #167 ) ) REPRESENTATION_CONTEXT ( 'NONE', 'WORKASPACE' ) );
#244 = COLOUR_RGB ( '',1.000000000000000000, 0.000000000000000000, 0.000000000000000000 ) ;
#245 = MANIFOLD_SOLID_BREP ( 'Revolve - Tool Body (Straight Shanked)', #261 ) ;
#246 = SURFACE_STYLE_FILL_AREA ( #7 ) ;
#247 =( NAMED_UNIT ( * ) PLANE_ANGLE_UNIT ( ) SI_UNIT ( $, .RADIAN. ) );
#248 =( NAMED_UNIT ( * ) SI_UNIT ( $, .STERADIAN. ) SOLID_ANGLE_UNIT ( ) );
#249 = CARTESIAN_POINT ( 'NONE',  ( 0.000000000000000000, 0.000000000000000000, 0.000000000000000000 ) ) ;
#250 = UNCERTAINTY_MEASURE_WITH_UNIT (LENGTH_MEASURE( 1.000000000000000082E-05 ), #83, 'distance_accuracy_value', 'NONE');
#251 = FILL_AREA_STYLE_COLOUR ( '', #101 ) ;
#252 = FACE_OUTER_BOUND ( 'NONE', #304, .T. ) ;
#253 = DIRECTION ( 'NONE',  ( -0.000000000000000000, -1.000000000000000000, -0.000000000000000000 ) ) ;
#254 = DIRECTION ( 'NONE',  ( 3.498990854706722745E-17, -1.000000000000000000, 0.000000000000000000 ) ) ;
#255 = DIRECTION ( 'NONE',  ( -1.000000000000000000, 0.000000000000000000, 0.000000000000000000 ) ) ;
#256 = FILL_AREA_STYLE_COLOUR ( '', #212 ) ;
#257 = CARTESIAN_POINT ( 'NONE',  ( 0.000000000000000000, 0.000000000000000000, -0.1875000000000000278 ) ) ;
#258 = ADVANCED_FACE ( 'NONE', ( #269 ), #35, .T. ) ;
#259 = ORIENTED_EDGE ( 'NONE', *, *, #58, .F. ) ;
#260 = AXIS2_PLACEMENT_3D ( 'NONE', #48, #236, #210 ) ;
#261 = CLOSED_SHELL ( 'NONE', ( #9, #166, #136, #294 ) ) ;
#262 = LINE ( 'NONE', #237, #158 ) ;
#263 = EDGE_LOOP ( 'NONE', ( #276, #135, #279, #93 ) ) ;
#264 = DIRECTION ( 'NONE',  ( -0.000000000000000000, -1.000000000000000000, -0.000000000000000000 ) ) ;
#265 = AXIS2_PLACEMENT_3D ( 'NONE', #62, #205, #148 ) ;
#266 = STYLED_ITEM ( 'NONE', ( #217 ), #200 ) ;
#267 = SURFACE_STYLE_USAGE ( .BOTH. , #235 ) ;
#268 = MECHANICAL_DESIGN_GEOMETRIC_PRESENTATION_REPRESENTATION (  '', ( #23 ), #243 ) ;
#269 = FACE_OUTER_BOUND ( 'NONE', #213, .T. ) ;
#270 = PRESENTATION_LAYER_ASSIGNMENT (  '', '', ( #219 ) ) ;
#271 = AXIS2_PLACEMENT_3D ( 'NONE', #291, #160, #284 ) ;
#272 = PRESENTATION_STYLE_ASSIGNMENT (( #126 ) ) ;
#273 = ADVANCED_FACE ( 'NONE', ( #60 ), #46, .T. ) ;
#274 = CIRCLE ( 'NONE', #260, 0.1875000000000000278 ) ;
#275 =( CONVERSION_BASED_UNIT ( 'INCH', #131 ) LENGTH_UNIT ( ) NAMED_UNIT ( #29 ) );
#276 = ORIENTED_EDGE ( 'NONE', *, *, #58, .T. ) ;
#277 =( CONVERSION_BASED_UNIT ( 'INCH', #197 ) LENGTH_UNIT ( ) NAMED_UNIT ( #207 ) );
#278 =( LENGTH_UNIT ( ) NAMED_UNIT ( * ) SI_UNIT ( $, .METRE. ) );
#279 = ORIENTED_EDGE ( 'NONE', *, *, #222, .F. ) ;
#280 = FACE_OUTER_BOUND ( 'NONE', #153, .T. ) ;
#281 = CIRCLE ( 'NONE', #11, 0.1874999999999999722 ) ;
#282 = VERTEX_POINT ( 'NONE', #174 ) ;
#283 = STYLED_ITEM ( 'NONE', ( #84 ), #245 ) ;
#284 = DIRECTION ( 'NONE',  ( -1.000000000000000000, 0.000000000000000000, 0.000000000000000000 ) ) ;
#285 = EDGE_CURVE ( 'NONE', #282, #129, #20, .T. ) ;
#286 = ORIENTED_EDGE ( 'NONE', *, *, #215, .F. ) ;
#287 = CARTESIAN_POINT ( 'NONE',  ( -6.123233995736766036E-17, 2.500000000000000000, 0.000000000000000000 ) ) ;
#288 = FACE_OUTER_BOUND ( 'NONE', #178, .T. ) ;
#289 = CIRCLE ( 'NONE', #271, 0.1875000000000000555 ) ;
#290 = CARTESIAN_POINT ( 'NONE',  ( 0.1874999999999999722, 2.500000000000000000, 2.296212748401287726E-17 ) ) ;
#291 = CARTESIAN_POINT ( 'NONE',  ( -6.123233995736766036E-17, 2.500000000000000000, 0.000000000000000000 ) ) ;
#292 = DIRECTION ( 'NONE',  ( -0.000000000000000000, -1.000000000000000000, -0.000000000000000000 ) ) ;
#293 = SURFACE_SIDE_STYLE ('',( #172 ) ) ;
#294 = ADVANCED_FACE ( 'NONE', ( #252 ), #151, .F. ) ;
#295 = PLANE ( 'NONE',  #156 ) ;
#296 = PRESENTATION_LAYER_ASSIGNMENT (  '', '', ( #23 ) ) ;
#297 = PRESENTATION_LAYER_ASSIGNMENT (  '', '', ( #266 ) ) ;
#298 = AXIS2_PLACEMENT_3D ( 'NONE', #187, #24, #306 ) ;
#299 = DIRECTION ( 'NONE',  ( -0.000000000000000000, -1.000000000000000000, -0.000000000000000000 ) ) ;
#300 = SURFACE_STYLE_FILL_AREA ( #202 ) ;
#301 = CARTESIAN_POINT ( 'NONE',  ( 0.000000000000000000, 0.7500000000000001110, 0.000000000000000000 ) ) ;
#302 = LENGTH_MEASURE_WITH_UNIT ( LENGTH_MEASURE( 0.02539999999999999897 ), #67 );
#303 = DIRECTION ( 'NONE',  ( -3.498990854706722745E-17, 1.000000000000000000, -0.000000000000000000 ) ) ;
#304 = EDGE_LOOP ( 'NONE', ( #117, #97 ) ) ;
#305 =( NAMED_UNIT ( * ) SI_UNIT ( $, .STERADIAN. ) SOLID_ANGLE_UNIT ( ) );
#306 = DIRECTION ( 'NONE',  ( 0.000000000000000000, 0.000000000000000000, -1.000000000000000000 ) ) ;
#307 = FACE_OUTER_BOUND ( 'NONE', #263, .T. ) ;
#308 =( CONVERSION_BASED_UNIT ( 'INCH', #2 ) LENGTH_UNIT ( ) NAMED_UNIT ( #192 ) );
#309 = ORIENTED_EDGE ( 'NONE', *, *, #16, .T. ) ;
ENDSEC;
END-ISO-10303-21;
