ISO-10303-21;
HEADER;
FILE_DESCRIPTION (( 'STEP AP214' ),
    '1' );
FILE_NAME ('Micro_RME-018-2X.STEP',
    '2021-09-01T22:42:27',
    ( '' ),
    ( '' ),
    'SwSTEP 2.0',
    'SolidWorks 2020',
    '' );
FILE_SCHEMA (( 'AUTOMOTIVE_DESIGN' ));
ENDSEC;

DATA;
#1 = FILL_AREA_STYLE ('',( #140 ) ) ;
#2 = AXIS2_PLACEMENT_3D ( 'NONE', #291, #41, #101 ) ;
#3 = DIRECTION ( 'NONE',  ( -1.224646799147353454E-16, -0.0000000000000000000, -1.000000000000000000 ) ) ;
#4 = DIRECTION ( 'NONE',  ( -1.000000000000000000, 0.0000000000000000000, 0.0000000000000000000 ) ) ;
#5 = LINE ( 'NONE', #83, #210 ) ;
#6 = CARTESIAN_POINT ( 'NONE',  ( 0.0000000000000000000, 0.0000000000000000000, 1.500000000000000222 ) ) ;
#7 = CARTESIAN_POINT ( 'NONE',  ( 0.0000000000000000000, 0.0000000000000000000, 1.500000000000000222 ) ) ;
#8 = CARTESIAN_POINT ( 'NONE',  ( 0.06250000000000002776, 7.654042494670959086E-18, 1.485000000000000764 ) ) ;
#9 = CARTESIAN_POINT ( 'NONE',  ( 6.613092715395708853E-18, 0.0000000000000000000, 0.05399999999999999939 ) ) ;
#10 = EDGE_LOOP ( 'NONE', ( #75, #146, #81, #11 ) ) ;
#11 = ORIENTED_EDGE ( 'NONE', *, *, #93, .F. ) ;
#12 = CARTESIAN_POINT ( 'NONE',  ( 0.06250000000000006939, 7.654042494670963708E-18, 0.3574646188859224583 ) ) ;
#13 = CARTESIAN_POINT ( 'NONE',  ( 6.613092715395708853E-18, 0.0000000000000000000, 0.05399999999999999939 ) ) ;
#14 = ORIENTED_EDGE ( 'NONE', *, *, #216, .F. ) ;
#15 = AXIS2_PLACEMENT_3D ( 'NONE', #293, #63, #186 ) ;
#16 = EDGE_LOOP ( 'NONE', ( #257, #265, #106, #131 ) ) ;
#17 = EDGE_CURVE ( 'NONE', #221, #243, #208, .T. ) ;
#18 = DIRECTION ( 'NONE',  ( 0.0000000000000000000, 0.0000000000000000000, 1.000000000000000000 ) ) ;
#19 = STYLED_ITEM ( 'NONE', ( #217 ), #255 ) ;
#20 = UNCERTAINTY_MEASURE_WITH_UNIT (LENGTH_MEASURE( 1.000000000000000082E-05 ), #130, 'distance_accuracy_value', 'NONE');
#21 = ORIENTED_EDGE ( 'NONE', *, *, #266, .F. ) ;
#22 = EDGE_CURVE ( 'NONE', #87, #116, #118, .T. ) ;
#23 =( GEOMETRIC_REPRESENTATION_CONTEXT ( 3 ) GLOBAL_UNCERTAINTY_ASSIGNED_CONTEXT ( ( #20 ) ) GLOBAL_UNIT_ASSIGNED_CONTEXT ( ( #130, #100, #222 ) ) REPRESENTATION_CONTEXT ( 'NONE', 'WORKASPACE' ) );
#24 = SURFACE_SIDE_STYLE ('',( #67 ) ) ;
#25 = DIRECTION ( 'NONE',  ( 0.0000000000000000000, 0.0000000000000000000, -1.000000000000000000 ) ) ;
#26 = CARTESIAN_POINT ( 'NONE',  ( 0.0000000000000000000, 0.0000000000000000000, 1.500000000000000222 ) ) ;
#27 = CARTESIAN_POINT ( 'NONE',  ( -0.04750000000000064587, 0.0000000000000000000, 1.500000000000000222 ) ) ;
#28 =( GEOMETRIC_REPRESENTATION_CONTEXT ( 3 ) GLOBAL_UNCERTAINTY_ASSIGNED_CONTEXT ( ( #253 ) ) GLOBAL_UNIT_ASSIGNED_CONTEXT ( ( #250, #272, #289 ) ) REPRESENTATION_CONTEXT ( 'NONE', 'WORKASPACE' ) );
#29 = CYLINDRICAL_SURFACE ( 'NONE', #37, 0.008990999999999998993 ) ;
#30 = ORIENTED_EDGE ( 'NONE', *, *, #17, .T. ) ;
#31 = SURFACE_STYLE_FILL_AREA ( #244 ) ;
#32 = LINE ( 'NONE', #276, #119 ) ;
#33 = ORIENTED_EDGE ( 'NONE', *, *, #160, .F. ) ;
#34 = EDGE_CURVE ( 'NONE', #110, #116, #183, .T. ) ;
#35 = DIRECTION ( 'NONE',  ( -1.000000000000000000, 0.0000000000000000000, 0.0000000000000000000 ) ) ;
#36 = DIRECTION ( 'NONE',  ( -1.224646799147353454E-16, -0.0000000000000000000, -1.000000000000000000 ) ) ;
#37 = AXIS2_PLACEMENT_3D ( 'NONE', #284, #177, #195 ) ;
#38 = EDGE_LOOP ( 'NONE', ( #33, #204, #230, #46 ) ) ;
#39 = ORIENTED_EDGE ( 'NONE', *, *, #34, .F. ) ;
#40 = ADVANCED_FACE ( 'NONE', ( #298 ), #94, .T. ) ;
#41 = DIRECTION ( 'NONE',  ( -1.224646799147353454E-16, -0.0000000000000000000, -1.000000000000000000 ) ) ;
#42 = COLOUR_RGB ( '',0.7921568627450980005, 0.8196078431372548767, 0.9333333333333333481 ) ;
#43 = ADVANCED_FACE ( 'NONE', ( #170 ), #246, .T. ) ;
#44 = AXIS2_PLACEMENT_3D ( 'NONE', #224, #261, #49 ) ;
#45 = UNCERTAINTY_MEASURE_WITH_UNIT (LENGTH_MEASURE( 1.000000000000000082E-05 ), #174, 'distance_accuracy_value', 'NONE');
#46 = ORIENTED_EDGE ( 'NONE', *, *, #80, .F. ) ;
#47 =( LENGTH_UNIT ( ) NAMED_UNIT ( * ) SI_UNIT ( $, .METRE. ) );
#48 =( LENGTH_UNIT ( ) NAMED_UNIT ( * ) SI_UNIT ( $, .METRE. ) );
#49 = DIRECTION ( 'NONE',  ( 1.000000000000000000, 0.0000000000000000000, 0.0000000000000000000 ) ) ;
#50 = ORIENTED_EDGE ( 'NONE', *, *, #105, .T. ) ;
#51 = LENGTH_MEASURE_WITH_UNIT ( LENGTH_MEASURE( 0.02539999999999999897 ), #242 );
#52 = DIRECTION ( 'NONE',  ( 0.0000000000000000000, 0.0000000000000000000, 1.000000000000000000 ) ) ;
#53 = VECTOR ( 'NONE', #92, 39.37007874015748143 ) ;
#54 = CIRCLE ( 'NONE', #138, 0.008990999999999997258 ) ;
#55 = ORIENTED_EDGE ( 'NONE', *, *, #70, .T. ) ;
#56 = DIRECTION ( 'NONE',  ( -1.224646799147353454E-16, -0.0000000000000000000, -1.000000000000000000 ) ) ;
#57 = EDGE_CURVE ( 'NONE', #88, #239, #69, .T. ) ;
#58 = CARTESIAN_POINT ( 'NONE',  ( 6.613092715395708853E-18, 0.0000000000000000000, 0.05399999999999999939 ) ) ;
#59 = DIRECTION ( 'NONE',  ( -1.000000000000000000, 0.0000000000000000000, 1.224646799147353454E-16 ) ) ;
#60 = AXIS2_PLACEMENT_3D ( 'NONE', #188, #277, #166 ) ;
#61 = CONICAL_SURFACE ( 'NONE', #226, 0.008990999999999998993, 0.1745329251994338915 ) ;
#62 = DIMENSIONAL_EXPONENTS ( 1.000000000000000000, 0.0000000000000000000, 0.0000000000000000000, 0.0000000000000000000, 0.0000000000000000000, 0.0000000000000000000, 0.0000000000000000000 ) ;
#63 = DIRECTION ( 'NONE',  ( 0.0000000000000000000, 0.0000000000000000000, 1.000000000000000000 ) ) ;
#64 = EDGE_LOOP ( 'NONE', ( #39, #155, #55, #205 ) ) ;
#65 = PRESENTATION_LAYER_ASSIGNMENT (  '', '', ( #19 ) ) ;
#66 = DIRECTION ( 'NONE',  ( -1.224646799147353454E-16, -0.0000000000000000000, -1.000000000000000000 ) ) ;
#67 = SURFACE_STYLE_FILL_AREA ( #1 ) ;
#68 = DIRECTION ( 'NONE',  ( 1.000000000000000000, 0.0000000000000000000, 0.0000000000000000000 ) ) ;
#69 = CIRCLE ( 'NONE', #2, 0.06250000000000002776 ) ;
#70 = EDGE_CURVE ( 'NONE', #287, #87, #32, .T. ) ;
#71 = AXIS2_PLACEMENT_3D ( 'NONE', #175, #25, #283 ) ;
#72 = LENGTH_MEASURE_WITH_UNIT ( LENGTH_MEASURE( 0.02539999999999999897 ), #47 );
#73 = CARTESIAN_POINT ( 'NONE',  ( -0.008990999999999992054, 4.377561215892172573E-18, 0.05399999999999999939 ) ) ;
#74 = FACE_OUTER_BOUND ( 'NONE', #64, .T. ) ;
#75 = ORIENTED_EDGE ( 'NONE', *, *, #17, .F. ) ;
#76 = CARTESIAN_POINT ( 'NONE',  ( 0.0000000000000000000, 0.0000000000000000000, 1.500000000000000222 ) ) ;
#77 = CYLINDRICAL_SURFACE ( 'NONE', #263, 0.06250000000000002776 ) ;
#78 = ORIENTED_EDGE ( 'NONE', *, *, #115, .F. ) ;
#79 = CIRCLE ( 'NONE', #95, 0.008990999999999998993 ) ;
#80 = EDGE_CURVE ( 'NONE', #221, #239, #134, .T. ) ;
#81 = ORIENTED_EDGE ( 'NONE', *, *, #216, .T. ) ;
#82 = CARTESIAN_POINT ( 'NONE',  ( -0.008990999999999992054, 1.101079937113385097E-18, 0.05399999999999999939 ) ) ;
#83 = CARTESIAN_POINT ( 'NONE',  ( 0.06250000000000002776, 7.654042494670959086E-18, 1.500000000000000222 ) ) ;
#84 = EDGE_LOOP ( 'NONE', ( #178, #30, #21, #14 ) ) ;
#85 = COLOUR_RGB ( '',0.7921568627450980005, 0.8196078431372548767, 0.9333333333333333481 ) ;
#86 = CARTESIAN_POINT ( 'NONE',  ( 0.04750000000000064587, 6.735557395310483192E-18, 1.500000000000000222 ) ) ;
#87 = VERTEX_POINT ( 'NONE', #227 ) ;
#88 = VERTEX_POINT ( 'NONE', #203 ) ;
#89 = PRODUCT_CONTEXT ( 'NONE', #297, 'mechanical' ) ;
#90 = ADVANCED_FACE ( 'NONE', ( #220 ), #77, .T. ) ;
#91 = STYLED_ITEM ( 'NONE', ( #241 ), #113 ) ;
#92 = DIRECTION ( 'NONE',  ( -1.224646799147353454E-16, -0.0000000000000000000, -1.000000000000000000 ) ) ;
#93 = EDGE_CURVE ( 'NONE', #243, #200, #112, .T. ) ;
#94 = CYLINDRICAL_SURFACE ( 'NONE', #191, 0.008990999999999998993 ) ;
#95 = AXIS2_PLACEMENT_3D ( 'NONE', #13, #3, #223 ) ;
#96 = SURFACE_STYLE_USAGE ( .BOTH. , #128 ) ;
#97 = AXIS2_PLACEMENT_3D ( 'NONE', #76, #176, #35 ) ;
#98 = APPLICATION_PROTOCOL_DEFINITION ( 'draft international standard', 'automotive_design', 1998, #297 ) ;
#99 = DIRECTION ( 'NONE',  ( -1.000000000000000000, 0.0000000000000000000, 1.224646799147353454E-16 ) ) ;
#100 =( NAMED_UNIT ( * ) PLANE_ANGLE_UNIT ( ) SI_UNIT ( $, .RADIAN. ) );
#101 = DIRECTION ( 'NONE',  ( 1.000000000000000000, 0.0000000000000000000, 0.0000000000000000000 ) ) ;
#102 = CIRCLE ( 'NONE', #286, 0.06250000000000002776 ) ;
#103 = DIRECTION ( 'NONE',  ( -0.7071067811865462405, 0.0000000000000000000, -0.7071067811865486830 ) ) ;
#104 = FACE_OUTER_BOUND ( 'NONE', #282, .T. ) ;
#105 = EDGE_CURVE ( 'NONE', #239, #88, #102, .T. ) ;
#106 = ORIENTED_EDGE ( 'NONE', *, *, #202, .T. ) ;
#107 = LINE ( 'NONE', #142, #240 ) ;
#108 = CARTESIAN_POINT ( 'NONE',  ( 0.0000000000000000000, 0.0000000000000000000, 1.485000000000000764 ) ) ;
#109 = SHAPE_DEFINITION_REPRESENTATION ( #254, #113 ) ;
#110 = VERTEX_POINT ( 'NONE', #86 ) ;
#111 = AXIS2_PLACEMENT_3D ( 'NONE', #58, #157, #251 ) ;
#112 = CIRCLE ( 'NONE', #196, 0.008990999999999997258 ) ;
#113 = ADVANCED_BREP_SHAPE_REPRESENTATION ( 'Micro_RME-018-2X', ( #255, #201 ), #23 ) ;
#114 = FACE_OUTER_BOUND ( 'NONE', #233, .T. ) ;
#115 = EDGE_CURVE ( 'NONE', #221, #189, #79, .T. ) ;
#116 = VERTEX_POINT ( 'NONE', #8 ) ;
#117 = DIRECTION ( 'NONE',  ( -1.000000000000000000, 0.0000000000000000000, 1.224646799147353454E-16 ) ) ;
#118 = CIRCLE ( 'NONE', #225, 0.06250000000000002776 ) ;
#119 = VECTOR ( 'NONE', #103, 39.37007874015748854 ) ;
#120 = ADVANCED_FACE ( 'NONE', ( #104 ), #61, .T. ) ;
#121 = FACE_OUTER_BOUND ( 'NONE', #151, .T. ) ;
#122 = SURFACE_STYLE_USAGE ( .BOTH. , #24 ) ;
#123 = DIRECTION ( 'NONE',  ( 1.000000000000000000, 0.0000000000000000000, 0.0000000000000000000 ) ) ;
#124 = CIRCLE ( 'NONE', #238, 0.04750000000000064587 ) ;
#125 = LENGTH_MEASURE_WITH_UNIT ( LENGTH_MEASURE( 0.02539999999999999897 ), #48 );
#126 = ORIENTED_EDGE ( 'NONE', *, *, #137, .T. ) ;
#127 = EDGE_CURVE ( 'NONE', #189, #88, #172, .T. ) ;
#128 = SURFACE_SIDE_STYLE ('',( #31 ) ) ;
#129 = ORIENTED_EDGE ( 'NONE', *, *, #22, .T. ) ;
#130 =( CONVERSION_BASED_UNIT ( 'INCH', #72 ) LENGTH_UNIT ( ) NAMED_UNIT ( #169 ) );
#131 = ORIENTED_EDGE ( 'NONE', *, *, #105, .F. ) ;
#132 = MECHANICAL_DESIGN_GEOMETRIC_PRESENTATION_REPRESENTATION (  '', ( #19 ), #256 ) ;
#133 = ORIENTED_EDGE ( 'NONE', *, *, #70, .F. ) ;
#134 = LINE ( 'NONE', #236, #173 ) ;
#135 = PRESENTATION_LAYER_ASSIGNMENT (  '', '', ( #91 ) ) ;
#136 = EDGE_LOOP ( 'NONE', ( #126, #278 ) ) ;
#137 = EDGE_CURVE ( 'NONE', #287, #110, #268, .T. ) ;
#138 = AXIS2_PLACEMENT_3D ( 'NONE', #219, #198, #99 ) ;
#139 = ADVANCED_FACE ( 'NONE', ( #163 ), #237, .T. ) ;
#140 = FILL_AREA_STYLE_COLOUR ( '', #85 ) ;
#141 = ADVANCED_FACE ( 'NONE', ( #121 ), #275, .F. ) ;
#142 = CARTESIAN_POINT ( 'NONE',  ( -0.06250000000000002776, 0.0000000000000000000, 1.500000000000000222 ) ) ;
#143 = DIRECTION ( 'NONE',  ( 1.000000000000000000, 0.0000000000000000000, 0.0000000000000000000 ) ) ;
#144 = DIRECTION ( 'NONE',  ( -1.224646799147353454E-16, -0.0000000000000000000, -1.000000000000000000 ) ) ;
#145 = ADVANCED_FACE ( 'NONE', ( #114 ), #218, .T. ) ;
#146 = ORIENTED_EDGE ( 'NONE', *, *, #115, .T. ) ;
#147 = FILL_AREA_STYLE_COLOUR ( '', #42 ) ;
#148 = CARTESIAN_POINT ( 'NONE',  ( -0.008990999999999997258, 0.0000000000000000000, 2.202159874226770194E-18 ) ) ;
#149 = ORIENTED_EDGE ( 'NONE', *, *, #262, .F. ) ;
#150 = CYLINDRICAL_SURFACE ( 'NONE', #97, 0.06250000000000002776 ) ;
#151 = EDGE_LOOP ( 'NONE', ( #245, #290 ) ) ;
#152 = APPLICATION_CONTEXT ( 'automotive_design' ) ;
#153 = AXIS2_PLACEMENT_3D ( 'NONE', #9, #36, #215 ) ;
#154 = DIRECTION ( 'NONE',  ( 1.000000000000000000, 0.0000000000000000000, 0.0000000000000000000 ) ) ;
#155 = ORIENTED_EDGE ( 'NONE', *, *, #137, .F. ) ;
#156 = DIRECTION ( 'NONE',  ( 0.0000000000000000000, 0.0000000000000000000, 1.000000000000000000 ) ) ;
#157 = DIRECTION ( 'NONE',  ( 1.224646799147353454E-16, 0.0000000000000000000, 1.000000000000000000 ) ) ;
#158 = CARTESIAN_POINT ( 'NONE',  ( -0.008990999999999998993, 0.0000000000000000000, 1.101079937113385289E-18 ) ) ;
#159 = ORIENTED_EDGE ( 'NONE', *, *, #57, .F. ) ;
#160 = EDGE_CURVE ( 'NONE', #189, #221, #206, .T. ) ;
#161 = DIMENSIONAL_EXPONENTS ( 1.000000000000000000, 0.0000000000000000000, 0.0000000000000000000, 0.0000000000000000000, 0.0000000000000000000, 0.0000000000000000000, 0.0000000000000000000 ) ;
#162 = VECTOR ( 'NONE', #179, 39.37007874015747433 ) ;
#163 = FACE_OUTER_BOUND ( 'NONE', #136, .T. ) ;
#164 = CARTESIAN_POINT ( 'NONE',  ( 0.0000000000000000000, 0.0000000000000000000, 0.0000000000000000000 ) ) ;
#165 = CARTESIAN_POINT ( 'NONE',  ( 4.377679013270735668E-17, 0.0000000000000000000, 0.3574646188859224583 ) ) ;
#166 = DIRECTION ( 'NONE',  ( -1.000000000000000000, 0.0000000000000000000, 0.0000000000000000000 ) ) ;
#167 = CARTESIAN_POINT ( 'NONE',  ( 6.613092715395708853E-18, 0.0000000000000000000, 0.05399999999999999939 ) ) ;
#168 = EDGE_LOOP ( 'NONE', ( #129, #207, #159, #248 ) ) ;
#169 = DIMENSIONAL_EXPONENTS ( 1.000000000000000000, 0.0000000000000000000, 0.0000000000000000000, 0.0000000000000000000, 0.0000000000000000000, 0.0000000000000000000, 0.0000000000000000000 ) ;
#170 = FACE_OUTER_BOUND ( 'NONE', #38, .T. ) ;
#171 = DIRECTION ( 'NONE',  ( -0.0000000000000000000, -0.0000000000000000000, -1.000000000000000000 ) ) ;
#172 = LINE ( 'NONE', #82, #162 ) ;
#173 = VECTOR ( 'NONE', #209, 39.37007874015748143 ) ;
#174 =( CONVERSION_BASED_UNIT ( 'INCH', #125 ) LENGTH_UNIT ( ) NAMED_UNIT ( #161 ) );
#175 = CARTESIAN_POINT ( 'NONE',  ( 0.0000000000000000000, 0.0000000000000000000, 1.500000000000000222 ) ) ;
#176 = DIRECTION ( 'NONE',  ( -0.0000000000000000000, -0.0000000000000000000, -1.000000000000000000 ) ) ;
#177 = DIRECTION ( 'NONE',  ( -1.224646799147353454E-16, -0.0000000000000000000, -1.000000000000000000 ) ) ;
#178 = ORIENTED_EDGE ( 'NONE', *, *, #160, .T. ) ;
#179 = DIRECTION ( 'NONE',  ( -0.1736481776669311916, 2.126576849575783316E-17, 0.9848077530122080203 ) ) ;
#180 = DIRECTION ( 'NONE',  ( -0.0000000000000000000, -0.0000000000000000000, -1.000000000000000000 ) ) ;
#181 = AXIS2_PLACEMENT_3D ( 'NONE', #164, #18, #252 ) ;
#182 = ADVANCED_FACE ( 'NONE', ( #199 ), #29, .T. ) ;
#183 = LINE ( 'NONE', #270, #296 ) ;
#184 = DIRECTION ( 'NONE',  ( 0.0000000000000000000, 0.0000000000000000000, -1.000000000000000000 ) ) ;
#185 = CONICAL_SURFACE ( 'NONE', #71, 0.04750000000000064587, 0.7853981633974466137 ) ;
#186 = DIRECTION ( 'NONE',  ( 1.000000000000000000, 0.0000000000000000000, -0.0000000000000000000 ) ) ;
#187 = DIRECTION ( 'NONE',  ( 1.224646799147353454E-16, 0.0000000000000000000, 1.000000000000000000 ) ) ;
#188 = CARTESIAN_POINT ( 'NONE',  ( 0.0000000000000000000, 0.0000000000000000000, 1.500000000000000222 ) ) ;
#189 = VERTEX_POINT ( 'NONE', #73 ) ;
#190 = DIRECTION ( 'NONE',  ( 0.7071067811865462405, 8.659560562354916834E-17, -0.7071067811865486830 ) ) ;
#191 = AXIS2_PLACEMENT_3D ( 'NONE', #279, #66, #59 ) ;
#192 = VECTOR ( 'NONE', #56, 39.37007874015748143 ) ;
#193 = PRODUCT_DEFINITION ( 'UNKNOWN', '', #247, #211 ) ;
#194 = CLOSED_SHELL ( 'NONE', ( #40, #43, #145, #90, #299, #139, #274, #120, #182, #141 ) ) ;
#195 = DIRECTION ( 'NONE',  ( -1.000000000000000000, 0.0000000000000000000, 1.224646799147353454E-16 ) ) ;
#196 = AXIS2_PLACEMENT_3D ( 'NONE', #271, #280, #117 ) ;
#197 = EDGE_CURVE ( 'NONE', #116, #87, #281, .T. ) ;
#198 = DIRECTION ( 'NONE',  ( -1.224646799147353454E-16, -0.0000000000000000000, -1.000000000000000000 ) ) ;
#199 = FACE_OUTER_BOUND ( 'NONE', #10, .T. ) ;
#200 = VERTEX_POINT ( 'NONE', #148 ) ;
#201 = AXIS2_PLACEMENT_3D ( 'NONE', #229, #156, #269 ) ;
#202 = EDGE_CURVE ( 'NONE', #87, #88, #107, .T. ) ;
#203 = CARTESIAN_POINT ( 'NONE',  ( -0.06249999999999997918, 0.0000000000000000000, 0.3574646188859224583 ) ) ;
#204 = ORIENTED_EDGE ( 'NONE', *, *, #127, .T. ) ;
#205 = ORIENTED_EDGE ( 'NONE', *, *, #197, .F. ) ;
#206 = CIRCLE ( 'NONE', #153, 0.008990999999999998993 ) ;
#207 = ORIENTED_EDGE ( 'NONE', *, *, #212, .T. ) ;
#208 = LINE ( 'NONE', #235, #53 ) ;
#209 = DIRECTION ( 'NONE',  ( 0.1736481776669313859, 0.0000000000000000000, 0.9848077530122077983 ) ) ;
#210 = VECTOR ( 'NONE', #180, 39.37007874015748143 ) ;
#211 = PRODUCT_DEFINITION_CONTEXT ( 'detailed design', #152, 'design' ) ;
#212 = EDGE_CURVE ( 'NONE', #116, #239, #5, .T. ) ;
#213 = DIRECTION ( 'NONE',  ( 1.000000000000000000, 0.0000000000000000000, 0.0000000000000000000 ) ) ;
#214 = MECHANICAL_DESIGN_GEOMETRIC_PRESENTATION_REPRESENTATION (  '', ( #91 ), #28 ) ;
#215 = DIRECTION ( 'NONE',  ( -1.000000000000000000, 0.0000000000000000000, 0.0000000000000000000 ) ) ;
#216 = EDGE_CURVE ( 'NONE', #189, #200, #267, .T. ) ;
#217 = PRESENTATION_STYLE_ASSIGNMENT (( #122 ) ) ;
#218 = CONICAL_SURFACE ( 'NONE', #60, 0.04750000000000064587, 0.7853981633974466137 ) ;
#219 = CARTESIAN_POINT ( 'NONE',  ( 1.348434020591276327E-34, 0.0000000000000000000, 1.101079937113385097E-18 ) ) ;
#220 = FACE_OUTER_BOUND ( 'NONE', #168, .T. ) ;
#221 = VERTEX_POINT ( 'NONE', #231 ) ;
#222 =( NAMED_UNIT ( * ) SI_UNIT ( $, .STERADIAN. ) SOLID_ANGLE_UNIT ( ) );
#223 = DIRECTION ( 'NONE',  ( -1.000000000000000000, 0.0000000000000000000, 0.0000000000000000000 ) ) ;
#224 = CARTESIAN_POINT ( 'NONE',  ( 0.0000000000000000000, 0.0000000000000000000, 1.485000000000000764 ) ) ;
#225 = AXIS2_PLACEMENT_3D ( 'NONE', #108, #184, #213 ) ;
#226 = AXIS2_PLACEMENT_3D ( 'NONE', #167, #187, #68 ) ;
#227 = CARTESIAN_POINT ( 'NONE',  ( -0.06250000000000002776, 0.0000000000000000000, 1.485000000000000764 ) ) ;
#228 = DIRECTION ( 'NONE',  ( -0.0000000000000000000, -0.0000000000000000000, -1.000000000000000000 ) ) ;
#229 = CARTESIAN_POINT ( 'NONE',  ( 0.0000000000000000000, 0.0000000000000000000, 0.0000000000000000000 ) ) ;
#230 = ORIENTED_EDGE ( 'NONE', *, *, #57, .T. ) ;
#231 = CARTESIAN_POINT ( 'NONE',  ( 0.008991000000000005932, 0.0000000000000000000, 0.05399999999999999939 ) ) ;
#232 = PRODUCT_RELATED_PRODUCT_CATEGORY ( 'part', '', ( #258 ) ) ;
#233 = EDGE_LOOP ( 'NONE', ( #149, #285, #292, #133 ) ) ;
#234 = AXIS2_PLACEMENT_3D ( 'NONE', #26, #264, #143 ) ;
#235 = CARTESIAN_POINT ( 'NONE',  ( 0.008990999999999998993, 1.101079937113385097E-18, -1.101079937113385289E-18 ) ) ;
#236 = CARTESIAN_POINT ( 'NONE',  ( 0.008991000000000005932, 0.0000000000000000000, 0.05399999999999999939 ) ) ;
#237 = PLANE ( 'NONE',  #15 ) ;
#238 = AXIS2_PLACEMENT_3D ( 'NONE', #6, #52, #123 ) ;
#239 = VERTEX_POINT ( 'NONE', #12 ) ;
#240 = VECTOR ( 'NONE', #228, 39.37007874015748143 ) ;
#241 = PRESENTATION_STYLE_ASSIGNMENT (( #96 ) ) ;
#242 =( LENGTH_UNIT ( ) NAMED_UNIT ( * ) SI_UNIT ( $, .METRE. ) );
#243 = VERTEX_POINT ( 'NONE', #249 ) ;
#244 = FILL_AREA_STYLE ('',( #147 ) ) ;
#245 = ORIENTED_EDGE ( 'NONE', *, *, #266, .T. ) ;
#246 = CONICAL_SURFACE ( 'NONE', #111, 0.008990999999999998993, 0.1745329251994338915 ) ;
#247 = PRODUCT_DEFINITION_FORMATION_WITH_SPECIFIED_SOURCE ( 'ANY', '', #258, .NOT_KNOWN. ) ;
#248 = ORIENTED_EDGE ( 'NONE', *, *, #202, .F. ) ;
#249 = CARTESIAN_POINT ( 'NONE',  ( 0.008990999999999997258, 1.101079937113385097E-18, 0.0000000000000000000 ) ) ;
#250 =( CONVERSION_BASED_UNIT ( 'INCH', #51 ) LENGTH_UNIT ( ) NAMED_UNIT ( #62 ) );
#251 = DIRECTION ( 'NONE',  ( 1.000000000000000000, 0.0000000000000000000, 0.0000000000000000000 ) ) ;
#252 = DIRECTION ( 'NONE',  ( 1.000000000000000000, 0.0000000000000000000, -0.0000000000000000000 ) ) ;
#253 = UNCERTAINTY_MEASURE_WITH_UNIT (LENGTH_MEASURE( 1.000000000000000082E-05 ), #250, 'distance_accuracy_value', 'NONE');
#254 = PRODUCT_DEFINITION_SHAPE ( 'NONE', 'NONE',  #193 ) ;
#255 = MANIFOLD_SOLID_BREP ( 'Cut-Revolve1', #194 ) ;
#256 =( GEOMETRIC_REPRESENTATION_CONTEXT ( 3 ) GLOBAL_UNCERTAINTY_ASSIGNED_CONTEXT ( ( #45 ) ) GLOBAL_UNIT_ASSIGNED_CONTEXT ( ( #174, #288, #259 ) ) REPRESENTATION_CONTEXT ( 'NONE', 'WORKASPACE' ) );
#257 = ORIENTED_EDGE ( 'NONE', *, *, #212, .F. ) ;
#258 = PRODUCT ( 'Micro_RME-018-2X', 'Micro_RME-018-2X', '', ( #89 ) ) ;
#259 =( NAMED_UNIT ( * ) SI_UNIT ( $, .STERADIAN. ) SOLID_ANGLE_UNIT ( ) );
#260 = FACE_OUTER_BOUND ( 'NONE', #16, .T. ) ;
#261 = DIRECTION ( 'NONE',  ( 0.0000000000000000000, 0.0000000000000000000, -1.000000000000000000 ) ) ;
#262 = EDGE_CURVE ( 'NONE', #110, #287, #124, .T. ) ;
#263 = AXIS2_PLACEMENT_3D ( 'NONE', #7, #171, #4 ) ;
#264 = DIRECTION ( 'NONE',  ( 0.0000000000000000000, 0.0000000000000000000, 1.000000000000000000 ) ) ;
#265 = ORIENTED_EDGE ( 'NONE', *, *, #197, .T. ) ;
#266 = EDGE_CURVE ( 'NONE', #200, #243, #54, .T. ) ;
#267 = LINE ( 'NONE', #158, #192 ) ;
#268 = CIRCLE ( 'NONE', #234, 0.04750000000000064587 ) ;
#269 = DIRECTION ( 'NONE',  ( 1.000000000000000000, 0.0000000000000000000, 0.0000000000000000000 ) ) ;
#270 = CARTESIAN_POINT ( 'NONE',  ( 0.04750000000000064587, 5.817072295950006528E-18, 1.500000000000000222 ) ) ;
#271 = CARTESIAN_POINT ( 'NONE',  ( 1.348434020591276327E-34, 0.0000000000000000000, 1.101079937113385097E-18 ) ) ;
#272 =( NAMED_UNIT ( * ) PLANE_ANGLE_UNIT ( ) SI_UNIT ( $, .RADIAN. ) );
#273 = ORIENTED_EDGE ( 'NONE', *, *, #80, .T. ) ;
#274 = ADVANCED_FACE ( 'NONE', ( #74 ), #185, .T. ) ;
#275 = PLANE ( 'NONE',  #181 ) ;
#276 = CARTESIAN_POINT ( 'NONE',  ( -0.04750000000000064587, 0.0000000000000000000, 1.500000000000000222 ) ) ;
#277 = DIRECTION ( 'NONE',  ( 0.0000000000000000000, 0.0000000000000000000, -1.000000000000000000 ) ) ;
#278 = ORIENTED_EDGE ( 'NONE', *, *, #262, .T. ) ;
#279 = CARTESIAN_POINT ( 'NONE',  ( 0.0000000000000000000, 0.0000000000000000000, 0.0000000000000000000 ) ) ;
#280 = DIRECTION ( 'NONE',  ( -1.224646799147353454E-16, -0.0000000000000000000, -1.000000000000000000 ) ) ;
#281 = CIRCLE ( 'NONE', #44, 0.06250000000000002776 ) ;
#282 = EDGE_LOOP ( 'NONE', ( #295, #78, #273, #50 ) ) ;
#283 = DIRECTION ( 'NONE',  ( -1.000000000000000000, 0.0000000000000000000, 0.0000000000000000000 ) ) ;
#284 = CARTESIAN_POINT ( 'NONE',  ( 0.0000000000000000000, 0.0000000000000000000, 0.0000000000000000000 ) ) ;
#285 = ORIENTED_EDGE ( 'NONE', *, *, #34, .T. ) ;
#286 = AXIS2_PLACEMENT_3D ( 'NONE', #165, #144, #154 ) ;
#287 = VERTEX_POINT ( 'NONE', #27 ) ;
#288 =( NAMED_UNIT ( * ) PLANE_ANGLE_UNIT ( ) SI_UNIT ( $, .RADIAN. ) );
#289 =( NAMED_UNIT ( * ) SI_UNIT ( $, .STERADIAN. ) SOLID_ANGLE_UNIT ( ) );
#290 = ORIENTED_EDGE ( 'NONE', *, *, #93, .T. ) ;
#291 = CARTESIAN_POINT ( 'NONE',  ( 4.377679013270735668E-17, 0.0000000000000000000, 0.3574646188859224583 ) ) ;
#292 = ORIENTED_EDGE ( 'NONE', *, *, #22, .F. ) ;
#293 = CARTESIAN_POINT ( 'NONE',  ( 0.0000000000000000000, 0.0000000000000000000, 1.500000000000000222 ) ) ;
#294 = APPLICATION_PROTOCOL_DEFINITION ( 'draft international standard', 'automotive_design', 1998, #152 ) ;
#295 = ORIENTED_EDGE ( 'NONE', *, *, #127, .F. ) ;
#296 = VECTOR ( 'NONE', #190, 39.37007874015748854 ) ;
#297 = APPLICATION_CONTEXT ( 'automotive_design' ) ;
#298 = FACE_OUTER_BOUND ( 'NONE', #84, .T. ) ;
#299 = ADVANCED_FACE ( 'NONE', ( #260 ), #150, .T. ) ;
ENDSEC;
END-ISO-10303-21;
