ISO-10303-21;
HEADER;
FILE_DESCRIPTION (( 'STEP AP214' ),
    '1' );
FILE_NAME ('59799.STEP',
    '2023-07-24T15:41:34',
    ( '' ),
    ( '' ),
    'SwSTEP 2.0',
    'SolidWorks 2023',
    '' );
FILE_SCHEMA (( 'AUTOMOTIVE_DESIGN' ));
ENDSEC;

DATA;
#1 = VERTEX_POINT ( 'NONE', #298 ) ;
#2 = FILL_AREA_STYLE ('',( #227 ) ) ;
#3 = CIRCLE ( 'NONE', #233, 1.000000000000000000 ) ;
#4 = ORIENTED_EDGE ( 'NONE', *, *, #300, .T. ) ;
#5 = PLANE ( 'NONE',  #323 ) ;
#6 = CARTESIAN_POINT ( 'NONE',  ( 0.000000000000000000, 0.000000000000000000, 0.000000000000000000 ) ) ;
#7 = ORIENTED_EDGE ( 'NONE', *, *, #300, .F. ) ;
#8 = ADVANCED_FACE ( 'NONE', ( #346 ), #5, .T. ) ;
#9 = SURFACE_STYLE_USAGE ( .BOTH. , #148 ) ;
#10 = PRESENTATION_STYLE_ASSIGNMENT (( #9 ) ) ;
#11 = AXIS2_PLACEMENT_3D ( 'NONE', #119, #297, #15 ) ;
#12 = CYLINDRICAL_SURFACE ( 'NONE', #170, 2.999999999999999556 ) ;
#13 = CYLINDRICAL_SURFACE ( 'NONE', #55, 2.999999999999988454 ) ;
#14 = PRESENTATION_STYLE_ASSIGNMENT (( #367 ) ) ;
#15 = DIRECTION ( 'NONE',  ( 0.000000000000000000, 0.000000000000000000, -1.000000000000000000 ) ) ;
#16 = DIRECTION ( 'NONE',  ( -0.000000000000000000, -1.000000000000000000, -0.000000000000000000 ) ) ;
#17 = DIRECTION ( 'NONE',  ( 0.000000000000000000, 0.000000000000000000, -1.000000000000000000 ) ) ;
#18 = SURFACE_STYLE_FILL_AREA ( #154 ) ;
#19 = DIRECTION ( 'NONE',  ( -1.000000000000000000, 0.000000000000000000, 0.000000000000000000 ) ) ;
#20 = FILL_AREA_STYLE_COLOUR ( '', #118 ) ;
#21 = STYLED_ITEM ( 'NONE', ( #214 ), #234 ) ;
#22 = CYLINDRICAL_SURFACE ( 'NONE', #163, 2.999999999999988454 ) ;
#23 = FACE_OUTER_BOUND ( 'NONE', #239, .T. ) ;
#24 = CARTESIAN_POINT ( 'NONE',  ( 0.000000000000000000, 0.000000000000000000, 0.000000000000000000 ) ) ;
#25 = SHAPE_DEFINITION_REPRESENTATION ( #357, #180 ) ;
#26 = ADVANCED_FACE ( 'NONE', ( #276 ), #123, .F. ) ;
#27 = DIRECTION ( 'NONE',  ( 0.000000000000000000, 0.000000000000000000, -1.000000000000000000 ) ) ;
#28 = ORIENTED_EDGE ( 'NONE', *, *, #260, .T. ) ;
#29 = UNCERTAINTY_MEASURE_WITH_UNIT (LENGTH_MEASURE( 1.000000000000000082E-05 ), #215, 'distance_accuracy_value', 'NONE');
#30 = ORIENTED_EDGE ( 'NONE', *, *, #51, .T. ) ;
#31 = FACE_OUTER_BOUND ( 'NONE', #199, .T. ) ;
#32 = SURFACE_STYLE_FILL_AREA ( #83 ) ;
#33 = CARTESIAN_POINT ( 'NONE',  ( 0.000000000000000000, 1.000000000000000000, 0.000000000000000000 ) ) ;
#34 = ORIENTED_EDGE ( 'NONE', *, *, #165, .F. ) ;
#35 =( NAMED_UNIT ( * ) SI_UNIT ( $, .STERADIAN. ) SOLID_ANGLE_UNIT ( ) );
#36 = DIRECTION ( 'NONE',  ( 0.000000000000000000, 0.000000000000000000, -1.000000000000000000 ) ) ;
#37 = SURFACE_SIDE_STYLE ('',( #186 ) ) ;
#38 = MECHANICAL_DESIGN_GEOMETRIC_PRESENTATION_REPRESENTATION (  '', ( #274 ), #315 ) ;
#39 = DIRECTION ( 'NONE',  ( 1.000000000000000000, 0.000000000000000000, -1.224646799147353207E-16 ) ) ;
#40 = CARTESIAN_POINT ( 'NONE',  ( 1.409462824231155764E-14, 18.00000000000000355, 0.000000000000000000 ) ) ;
#41 = PRESENTATION_STYLE_ASSIGNMENT (( #190 ) ) ;
#42 = CARTESIAN_POINT ( 'NONE',  ( 1.409462824231155764E-14, 18.00000000000000355, 0.000000000000000000 ) ) ;
#43 = FILL_AREA_STYLE_COLOUR ( '', #85 ) ;
#44 = STYLED_ITEM ( 'NONE', ( #61 ), #270 ) ;
#45 = CARTESIAN_POINT ( 'NONE',  ( 0.000000000000000000, 18.00000000000000355, -2.999999999999999112 ) ) ;
#46 = UNCERTAINTY_MEASURE_WITH_UNIT (LENGTH_MEASURE( 1.000000000000000082E-05 ), #63, 'distance_accuracy_value', 'NONE');
#47 = VECTOR ( 'NONE', #364, 1000.000000000000000 ) ;
#48 = AXIS2_PLACEMENT_3D ( 'NONE', #88, #309, #188 ) ;
#49 = PRESENTATION_LAYER_ASSIGNMENT (  '', '', ( #73 ) ) ;
#50 = ORIENTED_EDGE ( 'NONE', *, *, #165, .T. ) ;
#51 = EDGE_CURVE ( 'NONE', #81, #237, #284, .T. ) ;
#52 = CARTESIAN_POINT ( 'NONE',  ( 0.000000000000000000, 18.00000000000000355, 0.000000000000000000 ) ) ;
#53 = UNCERTAINTY_MEASURE_WITH_UNIT (LENGTH_MEASURE( 1.000000000000000082E-05 ), #108, 'distance_accuracy_value', 'NONE');
#54 = VERTEX_POINT ( 'NONE', #157 ) ;
#55 = AXIS2_PLACEMENT_3D ( 'NONE', #89, #278, #152 ) ;
#56 = CIRCLE ( 'NONE', #320, 2.999999999999991562 ) ;
#57 = ADVANCED_FACE ( 'NONE', ( #251 ), #341, .T. ) ;
#58 = ORIENTED_EDGE ( 'NONE', *, *, #348, .F. ) ;
#59 = DIRECTION ( 'NONE',  ( -0.000000000000000000, -1.000000000000000000, -0.000000000000000000 ) ) ;
#60 = DIRECTION ( 'NONE',  ( 0.000000000000000000, 0.000000000000000000, -1.000000000000000000 ) ) ;
#61 = PRESENTATION_STYLE_ASSIGNMENT (( #307 ) ) ;
#62 = VECTOR ( 'NONE', #128, 1000.000000000000000 ) ;
#63 =( LENGTH_UNIT ( ) NAMED_UNIT ( * ) SI_UNIT ( .MILLI., .METRE. ) );
#64 = LINE ( 'NONE', #92, #281 ) ;
#65 =( LENGTH_UNIT ( ) NAMED_UNIT ( * ) SI_UNIT ( .MILLI., .METRE. ) );
#66 = EDGE_CURVE ( 'NONE', #173, #1, #228, .T. ) ;
#67 =( LENGTH_UNIT ( ) NAMED_UNIT ( * ) SI_UNIT ( .MILLI., .METRE. ) );
#68 =( NAMED_UNIT ( * ) SI_UNIT ( $, .STERADIAN. ) SOLID_ANGLE_UNIT ( ) );
#69 = AXIS2_PLACEMENT_3D ( 'NONE', #316, #286, #253 ) ;
#70 = MECHANICAL_DESIGN_GEOMETRIC_PRESENTATION_REPRESENTATION (  '', ( #98 ), #198 ) ;
#71 = SURFACE_STYLE_USAGE ( .BOTH. , #223 ) ;
#72 = DIRECTION ( 'NONE',  ( -1.444848463910660280E-16, 1.000000000000000000, -0.000000000000000000 ) ) ;
#73 = STYLED_ITEM ( 'NONE', ( #10 ), #8 ) ;
#74 = CIRCLE ( 'NONE', #69, 1.000000000000000000 ) ;
#75 =( NAMED_UNIT ( * ) PLANE_ANGLE_UNIT ( ) SI_UNIT ( $, .RADIAN. ) );
#76 = SURFACE_SIDE_STYLE ('',( #131 ) ) ;
#77 = DIRECTION ( 'NONE',  ( -0.000000000000000000, -1.000000000000000000, -0.000000000000000000 ) ) ;
#78 = STYLED_ITEM ( 'NONE', ( #14 ), #263 ) ;
#79 =( NAMED_UNIT ( * ) PLANE_ANGLE_UNIT ( ) SI_UNIT ( $, .RADIAN. ) );
#80 = ORIENTED_EDGE ( 'NONE', *, *, #66, .T. ) ;
#81 = VERTEX_POINT ( 'NONE', #45 ) ;
#82 = PRODUCT ( '59799', '59799', '', ( #146 ) ) ;
#83 = FILL_AREA_STYLE ('',( #299 ) ) ;
#84 = COLOUR_RGB ( '',1.000000000000000000, 0.000000000000000000, 0.000000000000000000 ) ;
#85 = COLOUR_RGB ( '',0.7921568627450980005, 0.8196078431372548767, 0.9333333333333333481 ) ;
#86 =( GEOMETRIC_REPRESENTATION_CONTEXT ( 3 ) GLOBAL_UNCERTAINTY_ASSIGNED_CONTEXT ( ( #53 ) ) GLOBAL_UNIT_ASSIGNED_CONTEXT ( ( #108, #79, #110 ) ) REPRESENTATION_CONTEXT ( 'NONE', 'WORKASPACE' ) );
#87 = ORIENTED_EDGE ( 'NONE', *, *, #66, .F. ) ;
#88 = CARTESIAN_POINT ( 'NONE',  ( 7.592810154713587074E-15, 63.00000000000000000, 0.000000000000000000 ) ) ;
#89 = CARTESIAN_POINT ( 'NONE',  ( 7.592810154713587074E-15, 63.00000000000000000, 0.000000000000000000 ) ) ;
#90 = CARTESIAN_POINT ( 'NONE',  ( 0.000000000000000000, 1.000000000000000000, 0.000000000000000000 ) ) ;
#91 = ADVANCED_FACE ( 'NONE', ( #184 ), #13, .T. ) ;
#92 = CARTESIAN_POINT ( 'NONE',  ( -2.999999999999980460, 63.00000000000000000, 0.000000000000000000 ) ) ;
#93 = DIRECTION ( 'NONE',  ( 0.000000000000000000, 0.000000000000000000, -1.000000000000000000 ) ) ;
#94 = AXIS2_PLACEMENT_3D ( 'NONE', #249, #221, #342 ) ;
#95 = AXIS2_PLACEMENT_3D ( 'NONE', #174, #77, #27 ) ;
#96 = DIRECTION ( 'NONE',  ( -1.000000000000000000, -1.444848463910660280E-16, 0.000000000000000000 ) ) ;
#97 = SURFACE_STYLE_FILL_AREA ( #366 ) ;
#98 = STYLED_ITEM ( 'NONE', ( #314 ), #293 ) ;
#99 = SURFACE_STYLE_FILL_AREA ( #2 ) ;
#100 = CIRCLE ( 'NONE', #162, 2.000000000000000000 ) ;
#101 = EDGE_CURVE ( 'NONE', #173, #213, #64, .T. ) ;
#102 =( GEOMETRIC_REPRESENTATION_CONTEXT ( 3 ) GLOBAL_UNCERTAINTY_ASSIGNED_CONTEXT ( ( #207 ) ) GLOBAL_UNIT_ASSIGNED_CONTEXT ( ( #139, #295, #114 ) ) REPRESENTATION_CONTEXT ( 'NONE', 'WORKASPACE' ) );
#103 = ORIENTED_EDGE ( 'NONE', *, *, #216, .F. ) ;
#104 = CARTESIAN_POINT ( 'NONE',  ( 2.999999999999996003, 63.00000000000000000, 3.673940397442045077E-16 ) ) ;
#105 = VERTEX_POINT ( 'NONE', #368 ) ;
#106 = UNCERTAINTY_MEASURE_WITH_UNIT (LENGTH_MEASURE( 1.000000000000000082E-05 ), #67, 'distance_accuracy_value', 'NONE');
#107 =( NAMED_UNIT ( * ) PLANE_ANGLE_UNIT ( ) SI_UNIT ( $, .RADIAN. ) );
#108 =( LENGTH_UNIT ( ) NAMED_UNIT ( * ) SI_UNIT ( .MILLI., .METRE. ) );
#109 = CLOSED_SHELL ( 'NONE', ( #279, #26, #91, #136 ) ) ;
#110 =( NAMED_UNIT ( * ) SI_UNIT ( $, .STERADIAN. ) SOLID_ANGLE_UNIT ( ) );
#111 = ORIENTED_EDGE ( 'NONE', *, *, #333, .T. ) ;
#112 = PLANE ( 'NONE',  #143 ) ;
#113 = ORIENTED_EDGE ( 'NONE', *, *, #250, .T. ) ;
#114 =( NAMED_UNIT ( * ) SI_UNIT ( $, .STERADIAN. ) SOLID_ANGLE_UNIT ( ) );
#115 = DIRECTION ( 'NONE',  ( 1.444848463910660280E-16, -1.000000000000000000, 0.000000000000000000 ) ) ;
#116 = ORIENTED_EDGE ( 'NONE', *, *, #260, .F. ) ;
#117 = AXIS2_PLACEMENT_3D ( 'NONE', #169, #226, #135 ) ;
#118 = COLOUR_RGB ( '',1.000000000000000000, 0.000000000000000000, 0.000000000000000000 ) ;
#119 = CARTESIAN_POINT ( 'NONE',  ( 0.000000000000000000, 0.000000000000000000, 0.000000000000000000 ) ) ;
#120 = EDGE_CURVE ( 'NONE', #54, #242, #100, .T. ) ;
#121 = CARTESIAN_POINT ( 'NONE',  ( 3.673940397442059375E-16, 18.00000000000000355, 2.999999999999999112 ) ) ;
#122 = SURFACE_SIDE_STYLE ('',( #18 ) ) ;
#123 = PLANE ( 'NONE',  #258 ) ;
#124 = COLOUR_RGB ( '',1.000000000000000000, 0.000000000000000000, 0.000000000000000000 ) ;
#125 = COLOUR_RGB ( '',0.7921568627450980005, 0.8196078431372548767, 0.9333333333333333481 ) ;
#126 = FILL_AREA_STYLE_COLOUR ( '', #84 ) ;
#127 = ADVANCED_FACE ( 'NONE', ( #280 ), #246, .T. ) ;
#128 = DIRECTION ( 'NONE',  ( -0.000000000000000000, -1.000000000000000000, -0.000000000000000000 ) ) ;
#129 = DIRECTION ( 'NONE',  ( -1.444848463910660280E-16, 1.000000000000000000, 0.000000000000000000 ) ) ;
#130 = SURFACE_STYLE_USAGE ( .BOTH. , #76 ) ;
#131 = SURFACE_STYLE_FILL_AREA ( #345 ) ;
#132 = CIRCLE ( 'NONE', #275, 2.999999999999984457 ) ;
#133 = MECHANICAL_DESIGN_GEOMETRIC_PRESENTATION_REPRESENTATION (  '', ( #291 ), #102 ) ;
#134 = DIRECTION ( 'NONE',  ( -1.000000000000000000, 0.000000000000000000, 0.000000000000000000 ) ) ;
#135 = DIRECTION ( 'NONE',  ( 0.000000000000000000, 0.000000000000000000, -1.000000000000000000 ) ) ;
#136 = ADVANCED_FACE ( 'NONE', ( #31 ), #112, .F. ) ;
#137 = PRESENTATION_LAYER_ASSIGNMENT (  '', '', ( #311 ) ) ;
#138 = CIRCLE ( 'NONE', #282, 3.000000000000000000 ) ;
#139 =( LENGTH_UNIT ( ) NAMED_UNIT ( * ) SI_UNIT ( .MILLI., .METRE. ) );
#140 = ORIENTED_EDGE ( 'NONE', *, *, #142, .F. ) ;
#141 = ORIENTED_EDGE ( 'NONE', *, *, #264, .T. ) ;
#142 = EDGE_CURVE ( 'NONE', #105, #242, #3, .T. ) ;
#143 = AXIS2_PLACEMENT_3D ( 'NONE', #351, #115, #363 ) ;
#144 = EDGE_LOOP ( 'NONE', ( #268, #28, #209, #179 ) ) ;
#145 = PRODUCT_DEFINITION_CONTEXT ( 'detailed design', #335, 'design' ) ;
#146 = PRODUCT_CONTEXT ( 'NONE', #252, 'mechanical' ) ;
#147 = CARTESIAN_POINT ( 'NONE',  ( -2.999999999999970690, 18.00000000000000355, 0.000000000000000000 ) ) ;
#148 = SURFACE_SIDE_STYLE ('',( #32 ) ) ;
#149 = CARTESIAN_POINT ( 'NONE',  ( 2.449293598294706414E-16, 1.000000000000000000, 2.000000000000000000 ) ) ;
#150 = ORIENTED_EDGE ( 'NONE', *, *, #159, .T. ) ;
#151 = FACE_OUTER_BOUND ( 'NONE', #356, .T. ) ;
#152 = DIRECTION ( 'NONE',  ( -1.000000000000000000, 0.000000000000000000, 0.000000000000000000 ) ) ;
#153 = MECHANICAL_DESIGN_GEOMETRIC_PRESENTATION_REPRESENTATION (  '', ( #73 ), #176 ) ;
#154 = FILL_AREA_STYLE ('',( #328 ) ) ;
#155 = AXIS2_PLACEMENT_3D ( 'NONE', #6, #324, #294 ) ;
#156 = DIRECTION ( 'NONE',  ( -0.000000000000000000, -1.000000000000000000, -0.000000000000000000 ) ) ;
#157 = CARTESIAN_POINT ( 'NONE',  ( 0.000000000000000000, 0.000000000000000000, -2.000000000000000000 ) ) ;
#158 =( NAMED_UNIT ( * ) PLANE_ANGLE_UNIT ( ) SI_UNIT ( $, .RADIAN. ) );
#159 = EDGE_CURVE ( 'NONE', #1, #173, #132, .T. ) ;
#160 =( NAMED_UNIT ( * ) SI_UNIT ( $, .STERADIAN. ) SOLID_ANGLE_UNIT ( ) );
#161 = SURFACE_STYLE_FILL_AREA ( #273 ) ;
#162 = AXIS2_PLACEMENT_3D ( 'NONE', #330, #16, #17 ) ;
#163 = AXIS2_PLACEMENT_3D ( 'NONE', #313, #72, #134 ) ;
#164 = FILL_AREA_STYLE ('',( #244 ) ) ;
#165 = EDGE_CURVE ( 'NONE', #105, #237, #210, .T. ) ;
#166 = FACE_OUTER_BOUND ( 'NONE', #144, .T. ) ;
#167 = VERTEX_POINT ( 'NONE', #121 ) ;
#168 =( GEOMETRIC_REPRESENTATION_CONTEXT ( 3 ) GLOBAL_UNCERTAINTY_ASSIGNED_CONTEXT ( ( #106 ) ) GLOBAL_UNIT_ASSIGNED_CONTEXT ( ( #67, #360, #68 ) ) REPRESENTATION_CONTEXT ( 'NONE', 'WORKASPACE' ) );
#169 = CARTESIAN_POINT ( 'NONE',  ( 0.000000000000000000, 0.000000000000000000, 0.000000000000000000 ) ) ;
#170 = AXIS2_PLACEMENT_3D ( 'NONE', #24, #189, #93 ) ;
#171 = PRESENTATION_STYLE_ASSIGNMENT (( #130 ) ) ;
#172 =( NAMED_UNIT ( * ) SI_UNIT ( $, .STERADIAN. ) SOLID_ANGLE_UNIT ( ) );
#173 = VERTEX_POINT ( 'NONE', #147 ) ;
#174 = CARTESIAN_POINT ( 'NONE',  ( 0.000000000000000000, 1.000000000000000000, 0.000000000000000000 ) ) ;
#175 =( NAMED_UNIT ( * ) PLANE_ANGLE_UNIT ( ) SI_UNIT ( $, .RADIAN. ) );
#176 =( GEOMETRIC_REPRESENTATION_CONTEXT ( 3 ) GLOBAL_UNCERTAINTY_ASSIGNED_CONTEXT ( ( #349 ) ) GLOBAL_UNIT_ASSIGNED_CONTEXT ( ( #206, #107, #172 ) ) REPRESENTATION_CONTEXT ( 'NONE', 'WORKASPACE' ) );
#177 = VERTEX_POINT ( 'NONE', #329 ) ;
#178 = DIRECTION ( 'NONE',  ( -1.000000000000000000, 0.000000000000000000, 0.000000000000000000 ) ) ;
#179 = ORIENTED_EDGE ( 'NONE', *, *, #51, .F. ) ;
#180 = ADVANCED_BREP_SHAPE_REPRESENTATION ( '59799', ( #263, #270, #155 ), #86 ) ;
#181 = DIRECTION ( 'NONE',  ( -0.000000000000000000, -1.000000000000000000, -0.000000000000000000 ) ) ;
#182 = ORIENTED_EDGE ( 'NONE', *, *, #333, .F. ) ;
#183 = SURFACE_SIDE_STYLE ('',( #161 ) ) ;
#184 = FACE_OUTER_BOUND ( 'NONE', #322, .T. ) ;
#185 = AXIS2_PLACEMENT_3D ( 'NONE', #33, #156, #36 ) ;
#186 = SURFACE_STYLE_FILL_AREA ( #164 ) ;
#187 = EDGE_CURVE ( 'NONE', #167, #81, #218, .T. ) ;
#188 = DIRECTION ( 'NONE',  ( -1.000000000000000000, 0.000000000000000000, 0.000000000000000000 ) ) ;
#189 = DIRECTION ( 'NONE',  ( -0.000000000000000000, -1.000000000000000000, -0.000000000000000000 ) ) ;
#190 = SURFACE_STYLE_USAGE ( .BOTH. , #37 ) ;
#191 = CARTESIAN_POINT ( 'NONE',  ( 3.673940397442059375E-16, 0.000000000000000000, 2.999999999999999556 ) ) ;
#192 = MECHANICAL_DESIGN_GEOMETRIC_PRESENTATION_REPRESENTATION (  '', ( #21 ), #290 ) ;
#193 = PRODUCT_DEFINITION ( 'UNKNOWN', '', #338, #145 ) ;
#194 = CARTESIAN_POINT ( 'NONE',  ( 0.000000000000000000, 0.000000000000000000, -2.999999999999999556 ) ) ;
#195 = CARTESIAN_POINT ( 'NONE',  ( 7.592810154713587074E-15, 63.00000000000000000, 0.000000000000000000 ) ) ;
#196 = LINE ( 'NONE', #104, #248 ) ;
#197 = CLOSED_SHELL ( 'NONE', ( #293, #340, #127, #57, #234, #8 ) ) ;
#198 =( GEOMETRIC_REPRESENTATION_CONTEXT ( 3 ) GLOBAL_UNCERTAINTY_ASSIGNED_CONTEXT ( ( #202 ) ) GLOBAL_UNIT_ASSIGNED_CONTEXT ( ( #318, #75, #256 ) ) REPRESENTATION_CONTEXT ( 'NONE', 'WORKASPACE' ) );
#199 = EDGE_LOOP ( 'NONE', ( #321, #141 ) ) ;
#200 = SURFACE_SIDE_STYLE ('',( #99 ) ) ;
#201 = APPLICATION_PROTOCOL_DEFINITION ( 'draft international standard', 'automotive_design', 1998, #252 ) ;
#202 = UNCERTAINTY_MEASURE_WITH_UNIT (LENGTH_MEASURE( 1.000000000000000082E-05 ), #318, 'distance_accuracy_value', 'NONE');
#203 = PRESENTATION_LAYER_ASSIGNMENT (  '', '', ( #274 ) ) ;
#204 = PRESENTATION_LAYER_ASSIGNMENT (  '', '', ( #21 ) ) ;
#205 = ORIENTED_EDGE ( 'NONE', *, *, #120, .F. ) ;
#206 =( LENGTH_UNIT ( ) NAMED_UNIT ( * ) SI_UNIT ( .MILLI., .METRE. ) );
#207 = UNCERTAINTY_MEASURE_WITH_UNIT (LENGTH_MEASURE( 1.000000000000000082E-05 ), #139, 'distance_accuracy_value', 'NONE');
#208 = SURFACE_STYLE_USAGE ( .BOTH. , #247 ) ;
#209 = ORIENTED_EDGE ( 'NONE', *, *, #250, .F. ) ;
#210 = CIRCLE ( 'NONE', #185, 3.000000000000000000 ) ;
#211 = ORIENTED_EDGE ( 'NONE', *, *, #120, .T. ) ;
#212 = CARTESIAN_POINT ( 'NONE',  ( 0.000000000000000000, 18.00000000000000355, 0.000000000000000000 ) ) ;
#213 = VERTEX_POINT ( 'NONE', #238 ) ;
#214 = PRESENTATION_STYLE_ASSIGNMENT (( #208 ) ) ;
#215 =( LENGTH_UNIT ( ) NAMED_UNIT ( * ) SI_UNIT ( .MILLI., .METRE. ) );
#216 = EDGE_CURVE ( 'NONE', #81, #167, #354, .T. ) ;
#217 = DIRECTION ( 'NONE',  ( 0.000000000000000000, 1.000000000000000000, 0.000000000000000000 ) ) ;
#218 = CIRCLE ( 'NONE', #225, 2.999999999999999112 ) ;
#219 = CARTESIAN_POINT ( 'NONE',  ( 0.000000000000000000, 1.000000000000000000, -3.000000000000000000 ) ) ;
#220 = DIRECTION ( 'NONE',  ( 0.000000000000000000, -0.000000000000000000, 1.000000000000000000 ) ) ;
#221 = DIRECTION ( 'NONE',  ( -0.000000000000000000, -1.000000000000000000, -0.000000000000000000 ) ) ;
#222 =( NAMED_UNIT ( * ) SI_UNIT ( $, .STERADIAN. ) SOLID_ANGLE_UNIT ( ) );
#223 = SURFACE_SIDE_STYLE ('',( #97 ) ) ;
#224 = COLOUR_RGB ( '',1.000000000000000000, 0.000000000000000000, 0.000000000000000000 ) ;
#225 = AXIS2_PLACEMENT_3D ( 'NONE', #212, #59, #326 ) ;
#226 = DIRECTION ( 'NONE',  ( -0.000000000000000000, -1.000000000000000000, -0.000000000000000000 ) ) ;
#227 = FILL_AREA_STYLE_COLOUR ( '', #319 ) ;
#228 = CIRCLE ( 'NONE', #302, 2.999999999999984457 ) ;
#229 = COLOUR_RGB ( '',1.000000000000000000, 0.000000000000000000, 0.000000000000000000 ) ;
#230 = PRESENTATION_LAYER_ASSIGNMENT (  '', '', ( #291 ) ) ;
#231 = ORIENTED_EDGE ( 'NONE', *, *, #159, .F. ) ;
#232 = ORIENTED_EDGE ( 'NONE', *, *, #187, .F. ) ;
#233 = AXIS2_PLACEMENT_3D ( 'NONE', #149, #39, #241 ) ;
#234 = ADVANCED_FACE ( 'NONE', ( #151 ), #12, .T. ) ;
#235 = TOROIDAL_SURFACE ( 'NONE', #95, 2.000000000000000000, 1.000000000000000000 ) ;
#236 = ORIENTED_EDGE ( 'NONE', *, *, #142, .T. ) ;
#237 = VERTEX_POINT ( 'NONE', #219 ) ;
#238 = CARTESIAN_POINT ( 'NONE',  ( -2.999999999999983569, 63.00000000000000000, 0.000000000000000000 ) ) ;
#239 = EDGE_LOOP ( 'NONE', ( #113, #236, #205, #182 ) ) ;
#240 = DIRECTION ( 'NONE',  ( -1.000000000000000000, 0.000000000000000000, 0.000000000000000000 ) ) ;
#241 = DIRECTION ( 'NONE',  ( -1.224646799147353207E-16, 0.000000000000000000, -1.000000000000000000 ) ) ;
#242 = VERTEX_POINT ( 'NONE', #331 ) ;
#243 = CARTESIAN_POINT ( 'NONE',  ( 1.409462824231155764E-14, 18.00000000000000355, 0.000000000000000000 ) ) ;
#244 = FILL_AREA_STYLE_COLOUR ( '', #124 ) ;
#245 = CARTESIAN_POINT ( 'NONE',  ( 0.000000000000000000, 18.00000000000000355, 0.000000000000000000 ) ) ;
#246 = PLANE ( 'NONE',  #11 ) ;
#247 = SURFACE_SIDE_STYLE ('',( #358 ) ) ;
#248 = VECTOR ( 'NONE', #257, 1000.000000000000000 ) ;
#249 = CARTESIAN_POINT ( 'NONE',  ( 0.000000000000000000, 0.000000000000000000, 0.000000000000000000 ) ) ;
#250 = EDGE_CURVE ( 'NONE', #237, #105, #138, .T. ) ;
#251 = FACE_OUTER_BOUND ( 'NONE', #350, .T. ) ;
#252 = APPLICATION_CONTEXT ( 'automotive_design' ) ;
#253 = DIRECTION ( 'NONE',  ( 0.000000000000000000, 0.000000000000000000, 1.000000000000000000 ) ) ;
#254 = SURFACE_STYLE_USAGE ( .BOTH. , #200 ) ;
#255 = AXIS2_PLACEMENT_3D ( 'NONE', #245, #181, #60 ) ;
#256 =( NAMED_UNIT ( * ) SI_UNIT ( $, .STERADIAN. ) SOLID_ANGLE_UNIT ( ) );
#257 = DIRECTION ( 'NONE',  ( -1.444848463910660280E-16, 1.000000000000000000, -0.000000000000000000 ) ) ;
#258 = AXIS2_PLACEMENT_3D ( 'NONE', #40, #129, #96 ) ;
#259 = MECHANICAL_DESIGN_GEOMETRIC_PRESENTATION_REPRESENTATION (  '', ( #44 ), #347 ) ;
#260 = EDGE_CURVE ( 'NONE', #167, #105, #283, .T. ) ;
#261 = ORIENTED_EDGE ( 'NONE', *, *, #271, .T. ) ;
#262 = UNCERTAINTY_MEASURE_WITH_UNIT (LENGTH_MEASURE( 1.000000000000000082E-05 ), #336, 'distance_accuracy_value', 'NONE');
#263 = MANIFOLD_SOLID_BREP ( 'Revolve - Cutting Edge', #197 ) ;
#264 = EDGE_CURVE ( 'NONE', #177, #213, #303, .T. ) ;
#265 = EDGE_LOOP ( 'NONE', ( #103, #232 ) ) ;
#266 = DIRECTION ( 'NONE',  ( -1.444848463910660280E-16, 1.000000000000000000, -0.000000000000000000 ) ) ;
#267 = PRESENTATION_LAYER_ASSIGNMENT (  '', '', ( #44 ) ) ;
#268 = ORIENTED_EDGE ( 'NONE', *, *, #216, .T. ) ;
#269 = PRODUCT_RELATED_PRODUCT_CATEGORY ( 'part', '', ( #82 ) ) ;
#270 = MANIFOLD_SOLID_BREP ( 'Revolve - Tool Body (Straight Shanked)', #109 ) ;
#271 = EDGE_CURVE ( 'NONE', #242, #54, #312, .T. ) ;
#272 = EDGE_LOOP ( 'NONE', ( #80, #4, #58, #327 ) ) ;
#273 = FILL_AREA_STYLE ('',( #43 ) ) ;
#274 = STYLED_ITEM ( 'NONE', ( #41 ), #57 ) ;
#275 = AXIS2_PLACEMENT_3D ( 'NONE', #243, #355, #178 ) ;
#276 = FACE_OUTER_BOUND ( 'NONE', #287, .T. ) ;
#277 = FILL_AREA_STYLE_COLOUR ( '', #229 ) ;
#278 = DIRECTION ( 'NONE',  ( -1.444848463910660280E-16, 1.000000000000000000, -0.000000000000000000 ) ) ;
#279 = ADVANCED_FACE ( 'NONE', ( #339 ), #22, .T. ) ;
#280 = FACE_OUTER_BOUND ( 'NONE', #296, .T. ) ;
#281 = VECTOR ( 'NONE', #306, 1000.000000000000000 ) ;
#282 = AXIS2_PLACEMENT_3D ( 'NONE', #90, #334, #304 ) ;
#283 = LINE ( 'NONE', #191, #62 ) ;
#284 = LINE ( 'NONE', #194, #47 ) ;
#285 =( NAMED_UNIT ( * ) PLANE_ANGLE_UNIT ( ) SI_UNIT ( $, .RADIAN. ) );
#286 = DIRECTION ( 'NONE',  ( -1.000000000000000000, 0.000000000000000000, 0.000000000000000000 ) ) ;
#287 = EDGE_LOOP ( 'NONE', ( #87, #231 ) ) ;
#288 = UNCERTAINTY_MEASURE_WITH_UNIT (LENGTH_MEASURE( 1.000000000000000082E-05 ), #65, 'distance_accuracy_value', 'NONE');
#289 = PRESENTATION_LAYER_ASSIGNMENT (  '', '', ( #78 ) ) ;
#290 =( GEOMETRIC_REPRESENTATION_CONTEXT ( 3 ) GLOBAL_UNCERTAINTY_ASSIGNED_CONTEXT ( ( #46 ) ) GLOBAL_UNIT_ASSIGNED_CONTEXT ( ( #63, #175, #222 ) ) REPRESENTATION_CONTEXT ( 'NONE', 'WORKASPACE' ) );
#291 = STYLED_ITEM ( 'NONE', ( #171 ), #340 ) ;
#292 = APPLICATION_PROTOCOL_DEFINITION ( 'draft international standard', 'automotive_design', 1998, #335 ) ;
#293 = ADVANCED_FACE ( 'NONE', ( #166 ), #370, .T. ) ;
#294 = DIRECTION ( 'NONE',  ( 1.000000000000000000, 0.000000000000000000, 0.000000000000000000 ) ) ;
#295 =( NAMED_UNIT ( * ) PLANE_ANGLE_UNIT ( ) SI_UNIT ( $, .RADIAN. ) );
#296 = EDGE_LOOP ( 'NONE', ( #211, #261 ) ) ;
#297 = DIRECTION ( 'NONE',  ( 0.000000000000000000, -1.000000000000000000, -0.000000000000000000 ) ) ;
#298 = CARTESIAN_POINT ( 'NONE',  ( 2.999999999999999112, 18.00000000000000355, 3.673940397442046556E-16 ) ) ;
#299 = FILL_AREA_STYLE_COLOUR ( '', #224 ) ;
#300 = EDGE_CURVE ( 'NONE', #1, #177, #196, .T. ) ;
#301 = ORIENTED_EDGE ( 'NONE', *, *, #187, .T. ) ;
#302 = AXIS2_PLACEMENT_3D ( 'NONE', #42, #359, #19 ) ;
#303 = CIRCLE ( 'NONE', #48, 2.999999999999991562 ) ;
#304 = DIRECTION ( 'NONE',  ( 0.000000000000000000, 0.000000000000000000, -1.000000000000000000 ) ) ;
#305 = FILL_AREA_STYLE ('',( #277 ) ) ;
#306 = DIRECTION ( 'NONE',  ( -1.444848463910660280E-16, 1.000000000000000000, -0.000000000000000000 ) ) ;
#307 = SURFACE_STYLE_USAGE ( .BOTH. , #183 ) ;
#308 = DIRECTION ( 'NONE',  ( 0.000000000000000000, 0.000000000000000000, -1.000000000000000000 ) ) ;
#309 = DIRECTION ( 'NONE',  ( -1.444848463910660280E-16, 1.000000000000000000, -0.000000000000000000 ) ) ;
#310 = DIRECTION ( 'NONE',  ( -0.000000000000000000, -1.000000000000000000, -0.000000000000000000 ) ) ;
#311 = STYLED_ITEM ( 'NONE', ( #337 ), #127 ) ;
#312 = CIRCLE ( 'NONE', #94, 2.000000000000000000 ) ;
#313 = CARTESIAN_POINT ( 'NONE',  ( 7.592810154713587074E-15, 63.00000000000000000, 0.000000000000000000 ) ) ;
#314 = PRESENTATION_STYLE_ASSIGNMENT (( #254 ) ) ;
#315 =( GEOMETRIC_REPRESENTATION_CONTEXT ( 3 ) GLOBAL_UNCERTAINTY_ASSIGNED_CONTEXT ( ( #262 ) ) GLOBAL_UNIT_ASSIGNED_CONTEXT ( ( #336, #332, #160 ) ) REPRESENTATION_CONTEXT ( 'NONE', 'WORKASPACE' ) );
#316 = CARTESIAN_POINT ( 'NONE',  ( 0.000000000000000000, 1.000000000000000000, -2.000000000000000000 ) ) ;
#317 = PRESENTATION_LAYER_ASSIGNMENT (  '', '', ( #98 ) ) ;
#318 =( LENGTH_UNIT ( ) NAMED_UNIT ( * ) SI_UNIT ( .MILLI., .METRE. ) );
#319 = COLOUR_RGB ( '',1.000000000000000000, 0.000000000000000000, 0.000000000000000000 ) ;
#320 = AXIS2_PLACEMENT_3D ( 'NONE', #195, #266, #240 ) ;
#321 = ORIENTED_EDGE ( 'NONE', *, *, #348, .T. ) ;
#322 = EDGE_LOOP ( 'NONE', ( #7, #150, #344, #325 ) ) ;
#323 = AXIS2_PLACEMENT_3D ( 'NONE', #52, #217, #220 ) ;
#324 = DIRECTION ( 'NONE',  ( 0.000000000000000000, 0.000000000000000000, 1.000000000000000000 ) ) ;
#325 = ORIENTED_EDGE ( 'NONE', *, *, #264, .F. ) ;
#326 = DIRECTION ( 'NONE',  ( 0.000000000000000000, 0.000000000000000000, -1.000000000000000000 ) ) ;
#327 = ORIENTED_EDGE ( 'NONE', *, *, #101, .F. ) ;
#328 = FILL_AREA_STYLE_COLOUR ( '', #125 ) ;
#329 = CARTESIAN_POINT ( 'NONE',  ( 2.999999999999999556, 63.00000000000000000, 3.673940397442047542E-16 ) ) ;
#330 = CARTESIAN_POINT ( 'NONE',  ( 0.000000000000000000, 0.000000000000000000, 0.000000000000000000 ) ) ;
#331 = CARTESIAN_POINT ( 'NONE',  ( 3.061616997868383141E-16, 0.000000000000000000, 2.000000000000000000 ) ) ;
#332 =( NAMED_UNIT ( * ) PLANE_ANGLE_UNIT ( ) SI_UNIT ( $, .RADIAN. ) );
#333 = EDGE_CURVE ( 'NONE', #237, #54, #74, .T. ) ;
#334 = DIRECTION ( 'NONE',  ( -0.000000000000000000, -1.000000000000000000, -0.000000000000000000 ) ) ;
#335 = APPLICATION_CONTEXT ( 'automotive_design' ) ;
#336 =( LENGTH_UNIT ( ) NAMED_UNIT ( * ) SI_UNIT ( .MILLI., .METRE. ) );
#337 = PRESENTATION_STYLE_ASSIGNMENT (( #71 ) ) ;
#338 = PRODUCT_DEFINITION_FORMATION_WITH_SPECIFIED_SOURCE ( 'ANY', '', #82, .NOT_KNOWN. ) ;
#339 = FACE_OUTER_BOUND ( 'NONE', #272, .T. ) ;
#340 = ADVANCED_FACE ( 'NONE', ( #23 ), #235, .T. ) ;
#341 = TOROIDAL_SURFACE ( 'NONE', #362, 2.000000000000000000, 1.000000000000000000 ) ;
#342 = DIRECTION ( 'NONE',  ( 0.000000000000000000, 0.000000000000000000, -1.000000000000000000 ) ) ;
#343 = MECHANICAL_DESIGN_GEOMETRIC_PRESENTATION_REPRESENTATION (  '', ( #78 ), #168 ) ;
#344 = ORIENTED_EDGE ( 'NONE', *, *, #101, .T. ) ;
#345 = FILL_AREA_STYLE ('',( #20 ) ) ;
#346 = FACE_OUTER_BOUND ( 'NONE', #265, .T. ) ;
#347 =( GEOMETRIC_REPRESENTATION_CONTEXT ( 3 ) GLOBAL_UNCERTAINTY_ASSIGNED_CONTEXT ( ( #288 ) ) GLOBAL_UNIT_ASSIGNED_CONTEXT ( ( #65, #158, #365 ) ) REPRESENTATION_CONTEXT ( 'NONE', 'WORKASPACE' ) );
#348 = EDGE_CURVE ( 'NONE', #213, #177, #56, .T. ) ;
#349 = UNCERTAINTY_MEASURE_WITH_UNIT (LENGTH_MEASURE( 1.000000000000000082E-05 ), #206, 'distance_accuracy_value', 'NONE');
#350 = EDGE_LOOP ( 'NONE', ( #140, #50, #111, #352 ) ) ;
#351 = CARTESIAN_POINT ( 'NONE',  ( 2.999999999999999112, 63.00000000000000000, 0.000000000000000000 ) ) ;
#352 = ORIENTED_EDGE ( 'NONE', *, *, #271, .F. ) ;
#353 = MECHANICAL_DESIGN_GEOMETRIC_PRESENTATION_REPRESENTATION (  '', ( #311 ), #369 ) ;
#354 = CIRCLE ( 'NONE', #255, 2.999999999999999112 ) ;
#355 = DIRECTION ( 'NONE',  ( -1.444848463910660280E-16, 1.000000000000000000, -0.000000000000000000 ) ) ;
#356 = EDGE_LOOP ( 'NONE', ( #116, #301, #30, #34 ) ) ;
#357 = PRODUCT_DEFINITION_SHAPE ( 'NONE', 'NONE',  #193 ) ;
#358 = SURFACE_STYLE_FILL_AREA ( #305 ) ;
#359 = DIRECTION ( 'NONE',  ( -1.444848463910660280E-16, 1.000000000000000000, -0.000000000000000000 ) ) ;
#360 =( NAMED_UNIT ( * ) PLANE_ANGLE_UNIT ( ) SI_UNIT ( $, .RADIAN. ) );
#361 = CARTESIAN_POINT ( 'NONE',  ( 0.000000000000000000, 1.000000000000000000, 0.000000000000000000 ) ) ;
#362 = AXIS2_PLACEMENT_3D ( 'NONE', #361, #310, #308 ) ;
#363 = DIRECTION ( 'NONE',  ( 1.000000000000000000, 1.444848463910660280E-16, 0.000000000000000000 ) ) ;
#364 = DIRECTION ( 'NONE',  ( -0.000000000000000000, -1.000000000000000000, -0.000000000000000000 ) ) ;
#365 =( NAMED_UNIT ( * ) SI_UNIT ( $, .STERADIAN. ) SOLID_ANGLE_UNIT ( ) );
#366 = FILL_AREA_STYLE ('',( #126 ) ) ;
#367 = SURFACE_STYLE_USAGE ( .BOTH. , #122 ) ;
#368 = CARTESIAN_POINT ( 'NONE',  ( 3.673940397442059375E-16, 1.000000000000000000, 3.000000000000000000 ) ) ;
#369 =( GEOMETRIC_REPRESENTATION_CONTEXT ( 3 ) GLOBAL_UNCERTAINTY_ASSIGNED_CONTEXT ( ( #29 ) ) GLOBAL_UNIT_ASSIGNED_CONTEXT ( ( #215, #285, #35 ) ) REPRESENTATION_CONTEXT ( 'NONE', 'WORKASPACE' ) );
#370 = CYLINDRICAL_SURFACE ( 'NONE', #117, 2.999999999999999556 ) ;
ENDSEC;
END-ISO-10303-21;
